  0
SECTION
  2
HEADER
  9
$ACADVER
  1
AC1009
  9
$INSBASE
 10
0
 20
0
  9
$EXTMIN
 10
-0.5
 20
-157.5
  9
$EXTMAX
 10
111.0000000000003
 20
-3.413555999999998
  9
$LIMMIN
 10
-0.5
 20
-157.5
  9
$LIMMAX
 10
111.0000000000003
 20
-3.413555999999998
  9
$VIEWCTR
 10
10
 20
10
  9
$VIEWSIZE
 40
10
  9
$SNAPMODE
 70
0
  9
$SNAPUNIT
 10
1
 20
1
  9
$SNAPBASE
 10
0
 20
0
  9
$SNAPANG
 50
0
  9
$SNAPSTYLE
 70
0
  9
$SNAPISOPAIR
 70
0
  9
$GRIDMODE
 70
0
  9
$GRIDUNIT
 10
0
 20
0
  9
$ORTHOMODE
 70
0
  9
$REGENMODE
 70
1
  9
$FILLMODE
 70
1
  9
$QTEXTMODE
 70
0
  9
$DRAGMODE
 70
2
  9
$LTSCALE
 40
1
  9
$OSMODE
 70
0
  9
$ATTMODE
 70
1
  9
$TEXTSIZE
 40
3.5
  9
$TRACEWID
 40
0.5
  9
$TEXTSTYLE
  7
STANDARD
  9
$CLAYER
  8
0
  9
$CELTYPE
  6
BYLAYER
  9
$CECOLOR
 62
256
  9
$DIMSCALE
 40
1
  9
$DIMASZ
 40
0.18
  9
$DIMEXO
 40
0.0625
  9
$DIMDLI
 40
0.38
  9
$DIMRND
 40
0
  9
$DIMDLE
 40
0
  9
$DIMEXE
 40
0.18
  9
$DIMTP
 40
0
  9
$DIMTM
 40
0
  9
$DIMTXT
 40
0.18
  9
$DIMCEN
 40
0.09
  9
$DIMTSZ
 40
0
  9
$DIMTOL
 70
0
  9
$DIMLIM
 70
0
  9
$DIMTIH
 70
1
  9
$DIMTOH
 70
1
  9
$DIMSE1
 70
0
  9
$DIMSE2
 70
0
  9
$DIMTAD
 70
0
  9
$DIMZIN
 70
0
  9
$DIMBLK
  1

  9
$DIMASO
 70
1
  9
$DIMSHO
 70
1
  9
$DIMPOST
  1

  9
$DIMAPOST
  1

  9
$DIMALT
 70
0
  9
$DIMALTD
 70
2
  9
$DIMALTF
 40
25.4
  9
$DIMLFAC
 40
1
  9
$DIMTOFL
 70
0
  9
$DIMTVP
 40
0
  9
$DIMTIX
 70
0
  9
$DIMSOXD
 70
0
  9
$DIMSAH
 70
0
  9
$DIMBLK1
  1

  9
$DIMBLK2
  1

  9
$DIMSTYLE
  2
*UNNAMED
  9
$DIMCLRD
 70
0
  9
$DIMCLRE
 70
0
  9
$DIMCLRT
 70
0
  9
$DIMTFAC
 40
1
  9
$DIMGAP
 40
0.09
  9
$LUNITS
 70
2
  9
$LUPREC
 70
4
  9
$AXISMODE
 70
0
  9
$AXISUNIT
 10
0
 20
0
  9
$SKETCHINC
 40
0.1
  9
$FILLETRAD
 40
2
  9
$AUNITS
 70
0
  9
$AUPREC
 70
0
  9
$MENU
  1
ACAD
  9
$ELEVATION
 40
0
  9
$THICKNESS
 40
0
  9
$VIEWDIR
 10
0
 20
0
 30
1
  9
$LIMCHECK
 70
0
  9
$BLIPMODE
 70
1
  9
$CHAMFERA
 40
0
  9
$CHAMFERB
 40
0
  9
$FASTZOOM
 70
1
  9
$SKPOLY
 70
0
  9
$ANGBASE
 50
0
  9
$ANGDIR
 70
0
  9
$PDMODE
 70
0
  9
$PDSIZE
 40
0
  9
$PLINEWID
 40
0
  9
$COORDS
 70
2
  0
ENDSEC
  0
SECTION
  2
TABLES
  0
TABLE
  2
DIMSTYLE
 70
0
  0
ENDTAB
  0
TABLE
  2
LTYPE
 70
9
  0
LTYPE
  2
CONTINUOUS
 70
64
  3
Solid line
 72
65
 73
0
 40
0
  0
LTYPE
  2
BORDER
 70
64
  3
__ __ . __ __ .
 72
65
 73
6
 40
7.096086236842106
 49
2.027453210526316
 49
-1.013726605263158
 49
2.027453210526316
 49
-1.013726605263158
 49
0
 49
-1.013726605263158
  0
LTYPE
  2
CENTER
 70
64
  3
____ _ ____ _
 72
65
 73
4
 40
8.109812842105264
 49
5.06863302631579
 49
-1.013726605263158
 49
1.013726605263158
 49
-1.013726605263158
  0
LTYPE
  2
DASHDOT
 70
64
  3
__ . __ . __ .
 72
65
 73
4
 40
4.054906421052632
 49
2.027453210526316
 49
-1.013726605263158
 49
0
 49
-1.013726605263158
  0
LTYPE
  2
DASHED
 70
64
  3
__ __ __ __ __
 72
65
 73
2
 40
3.041179815789474
 49
2.027453210526316
 49
-1.013726605263158
  0
LTYPE
  2
DIVIDE
 70
64
  3
__ . . __ . . 
 72
65
 73
6
 40
5.06863302631579
 49
2.027453210526316
 49
-1.013726605263158
 49
0
 49
-1.013726605263158
 49
0
 49
-1.013726605263158
  0
LTYPE
  2
DOT
 70
64
  3
..............
 72
65
 73
4
 40
2.027453210526316
 49
0
 49
-1.013726605263158
 49
0
 49
-1.013726605263158
  0
LTYPE
  2
HIDDEN
 70
64
  3
_ _ _ _ _ _ _
 72
65
 73
2
 40
1.520589907894737
 49
1.013726605263158
 49
-0.506863302631579
  0
LTYPE
  2
PHANTOM
 70
64
  3
_____ _ _ _____ _ _ 
 72
65
 73
6
 40
10.13726605263158
 49
5.06863302631579
 49
-1.013726605263158
 49
1.013726605263158
 49
-1.013726605263158
 49
1.013726605263158
 49
-1.013726605263158
  0
ENDTAB
  0
TABLE
  2
LAYER
 70
4
  0
LAYER
  2
GUIDE
 70
0
 62
7
  6
CONTINUOUS
  0
LAYER
  2
1
 70
0
 62
7
  6
CONTINUOUS
  0
LAYER
  2
0
 70
0
 62
7
  6
CONTINUOUS
  0
ENDTAB
  0
TABLE
  2
STYLE
 70
4
  0
STYLE
  2
STANDARD
 70
0
 40
0
 41
1
 50
0
 71
0
 42
3.5
  3
txt
  4

  0
STYLE
  2
SIMPLEX
 70
0
 40
0
 41
1
 50
0
 71
0
 42
3.5
  3
simplex
  4

  0
STYLE
  2
COMPLEX
 70
0
 40
0
 41
1
 50
0
 71
0
 42
3.5
  3
complex
  4

  0
STYLE
  2
ITALIC
 70
0
 40
0
 41
1
 50
0
 71
0
 42
3.5
  3
italic
  4

  0
ENDTAB
  0
TABLE
  2
VIEW
 70
0
  0
ENDTAB
  0
ENDSEC
  0
SECTION
  2
BLOCKS
  0
ENDSEC
  0
SECTION
  2
ENTITIES
  0
POLYLINE
  8
GUIDE
 62
7
 66
1
 70
1
  0
VERTEX
  8
GUIDE
 10
16
 20
-60.35714200000001
 30
0
 42
0.4142139999999971
  0
VERTEX
  8
GUIDE
 10
17
 20
-61.35714200000001
 30
0
  0
VERTEX
  8
GUIDE
 10
26
 20
-61.35714200000001
 30
0
 42
0.414213999999997
  0
VERTEX
  8
GUIDE
 10
27
 20
-60.35714200000001
 30
0
  0
VERTEX
  8
GUIDE
 10
27
 20
-52.78571300000002
 30
0
 42
0.4142139999999991
  0
VERTEX
  8
GUIDE
 10
26
 20
-51.78571300000002
 30
0
  0
VERTEX
  8
GUIDE
 10
17
 20
-51.78571300000002
 30
0
 42
0.4142139999999993
  0
VERTEX
  8
GUIDE
 10
16
 20
-52.78571300000002
 30
0
  0
VERTEX
  8
GUIDE
 10
16
 20
-60.35714200000001
 30
0
  0
SEQEND
  8
GUIDE
  0
POLYLINE
  8
GUIDE
 62
7
 66
1
 70
1
  0
VERTEX
  8
GUIDE
 10
28.6
 20
-60.35714200000001
 30
0
 42
0.4142139999999971
  0
VERTEX
  8
GUIDE
 10
29.6
 20
-61.35714200000001
 30
0
  0
VERTEX
  8
GUIDE
 10
38.6
 20
-61.35714200000001
 30
0
 42
0.4142140000000001
  0
VERTEX
  8
GUIDE
 10
39.6
 20
-60.35714200000001
 30
0
  0
VERTEX
  8
GUIDE
 10
39.6
 20
-52.78571300000002
 30
0
 42
0.4142140000000022
  0
VERTEX
  8
GUIDE
 10
38.6
 20
-51.78571300000002
 30
0
  0
VERTEX
  8
GUIDE
 10
29.6
 20
-51.78571300000002
 30
0
 42
0.4142139999999993
  0
VERTEX
  8
GUIDE
 10
28.6
 20
-52.78571300000002
 30
0
  0
VERTEX
  8
GUIDE
 10
28.6
 20
-60.35714200000001
 30
0
  0
SEQEND
  8
GUIDE
  0
POLYLINE
  8
GUIDE
 62
7
 66
1
 70
1
  0
VERTEX
  8
GUIDE
 10
3.4
 20
-60.35714200000001
 30
0
 42
0.4142139999999979
  0
VERTEX
  8
GUIDE
 10
4.4
 20
-61.35714200000001
 30
0
  0
VERTEX
  8
GUIDE
 10
13.4
 20
-61.35714200000001
 30
0
 42
0.414213999999997
  0
VERTEX
  8
GUIDE
 10
14.4
 20
-60.35714200000001
 30
0
  0
VERTEX
  8
GUIDE
 10
14.4
 20
-52.78571300000002
 30
0
 42
0.4142139999999991
  0
VERTEX
  8
GUIDE
 10
13.4
 20
-51.78571300000002
 30
0
  0
VERTEX
  8
GUIDE
 10
4.4
 20
-51.78571300000002
 30
0
 42
0.414214
  0
VERTEX
  8
GUIDE
 10
3.4
 20
-52.78571300000002
 30
0
  0
VERTEX
  8
GUIDE
 10
3.4
 20
-60.35714200000001
 30
0
  0
SEQEND
  8
GUIDE
  0
POLYLINE
  8
GUIDE
 62
7
 66
1
 70
1
  0
VERTEX
  8
GUIDE
 10
16
 20
-69.92857100000001
 30
0
 42
0.4142139999999971
  0
VERTEX
  8
GUIDE
 10
17
 20
-70.92857100000001
 30
0
  0
VERTEX
  8
GUIDE
 10
26
 20
-70.92857100000001
 30
0
 42
0.414213999999997
  0
VERTEX
  8
GUIDE
 10
27
 20
-69.92857100000001
 30
0
  0
VERTEX
  8
GUIDE
 10
27
 20
-62.35714200000001
 30
0
 42
0.414213999999997
  0
VERTEX
  8
GUIDE
 10
26
 20
-61.35714200000001
 30
0
  0
VERTEX
  8
GUIDE
 10
17
 20
-61.35714200000001
 30
0
 42
0.4142139999999972
  0
VERTEX
  8
GUIDE
 10
16
 20
-62.35714200000001
 30
0
  0
VERTEX
  8
GUIDE
 10
16
 20
-69.92857100000001
 30
0
  0
SEQEND
  8
GUIDE
  0
POLYLINE
  8
GUIDE
 62
7
 66
1
 70
1
  0
VERTEX
  8
GUIDE
 10
28.6
 20
-69.92857100000001
 30
0
 42
0.4142139999999971
  0
VERTEX
  8
GUIDE
 10
29.6
 20
-70.92857100000001
 30
0
  0
VERTEX
  8
GUIDE
 10
38.6
 20
-70.92857100000001
 30
0
 42
0.4142140000000001
  0
VERTEX
  8
GUIDE
 10
39.6
 20
-69.92857100000001
 30
0
  0
VERTEX
  8
GUIDE
 10
39.6
 20
-62.35714200000001
 30
0
 42
0.4142140000000001
  0
VERTEX
  8
GUIDE
 10
38.6
 20
-61.35714200000001
 30
0
  0
VERTEX
  8
GUIDE
 10
29.6
 20
-61.35714200000001
 30
0
 42
0.4142139999999972
  0
VERTEX
  8
GUIDE
 10
28.6
 20
-62.35714200000001
 30
0
  0
VERTEX
  8
GUIDE
 10
28.6
 20
-69.92857100000001
 30
0
  0
SEQEND
  8
GUIDE
  0
POLYLINE
  8
GUIDE
 62
7
 66
1
 70
1
  0
VERTEX
  8
GUIDE
 10
3.4
 20
-69.92857100000001
 30
0
 42
0.4142139999999979
  0
VERTEX
  8
GUIDE
 10
4.4
 20
-70.92857100000001
 30
0
  0
VERTEX
  8
GUIDE
 10
13.4
 20
-70.92857100000001
 30
0
 42
0.414213999999997
  0
VERTEX
  8
GUIDE
 10
14.4
 20
-69.92857100000001
 30
0
  0
VERTEX
  8
GUIDE
 10
14.4
 20
-62.35714200000001
 30
0
 42
0.414213999999997
  0
VERTEX
  8
GUIDE
 10
13.4
 20
-61.35714200000001
 30
0
  0
VERTEX
  8
GUIDE
 10
4.4
 20
-61.35714200000001
 30
0
 42
0.414213999999998
  0
VERTEX
  8
GUIDE
 10
3.4
 20
-62.35714200000001
 30
0
  0
VERTEX
  8
GUIDE
 10
3.4
 20
-69.92857100000001
 30
0
  0
SEQEND
  8
GUIDE
  0
POLYLINE
  8
GUIDE
 62
7
 66
1
 70
1
  0
VERTEX
  8
GUIDE
 10
16
 20
-79.5
 30
0
 42
0.4142139999999971
  0
VERTEX
  8
GUIDE
 10
17
 20
-80.5
 30
0
  0
VERTEX
  8
GUIDE
 10
26
 20
-80.5
 30
0
 42
0.414213999999997
  0
VERTEX
  8
GUIDE
 10
27
 20
-79.5
 30
0
  0
VERTEX
  8
GUIDE
 10
27
 20
-71.92857100000001
 30
0
 42
0.414213999999997
  0
VERTEX
  8
GUIDE
 10
26
 20
-70.92857100000001
 30
0
  0
VERTEX
  8
GUIDE
 10
17
 20
-70.92857100000001
 30
0
 42
0.4142139999999972
  0
VERTEX
  8
GUIDE
 10
16
 20
-71.92857100000001
 30
0
  0
VERTEX
  8
GUIDE
 10
16
 20
-79.5
 30
0
  0
SEQEND
  8
GUIDE
  0
POLYLINE
  8
GUIDE
 62
7
 66
1
 70
1
  0
VERTEX
  8
GUIDE
 10
28.6
 20
-79.5
 30
0
 42
0.4142139999999971
  0
VERTEX
  8
GUIDE
 10
29.6
 20
-80.5
 30
0
  0
VERTEX
  8
GUIDE
 10
38.6
 20
-80.5
 30
0
 42
0.4142140000000001
  0
VERTEX
  8
GUIDE
 10
39.6
 20
-79.5
 30
0
  0
VERTEX
  8
GUIDE
 10
39.6
 20
-71.92857100000001
 30
0
 42
0.4142140000000001
  0
VERTEX
  8
GUIDE
 10
38.6
 20
-70.92857100000001
 30
0
  0
VERTEX
  8
GUIDE
 10
29.6
 20
-70.92857100000001
 30
0
 42
0.4142139999999972
  0
VERTEX
  8
GUIDE
 10
28.6
 20
-71.92857100000001
 30
0
  0
VERTEX
  8
GUIDE
 10
28.6
 20
-79.5
 30
0
  0
SEQEND
  8
GUIDE
  0
POLYLINE
  8
GUIDE
 62
7
 66
1
 70
1
  0
VERTEX
  8
GUIDE
 10
3.4
 20
-79.5
 30
0
 42
0.4142139999999979
  0
VERTEX
  8
GUIDE
 10
4.4
 20
-80.5
 30
0
  0
VERTEX
  8
GUIDE
 10
13.4
 20
-80.5
 30
0
 42
0.414213999999997
  0
VERTEX
  8
GUIDE
 10
14.4
 20
-79.5
 30
0
  0
VERTEX
  8
GUIDE
 10
14.4
 20
-71.92857100000001
 30
0
 42
0.414213999999997
  0
VERTEX
  8
GUIDE
 10
13.4
 20
-70.92857100000001
 30
0
  0
VERTEX
  8
GUIDE
 10
4.4
 20
-70.92857100000001
 30
0
 42
0.414213999999998
  0
VERTEX
  8
GUIDE
 10
3.4
 20
-71.92857100000001
 30
0
  0
VERTEX
  8
GUIDE
 10
3.4
 20
-79.5
 30
0
  0
SEQEND
  8
GUIDE
  0
POLYLINE
  8
GUIDE
 62
7
 66
1
 70
1
  0
VERTEX
  8
GUIDE
 10
111
 20
-52.78571300000002
 30
0
 42
0.4142140000000064
  0
VERTEX
  8
GUIDE
 10
110
 20
-51.78571300000002
 30
0
  0
VERTEX
  8
GUIDE
 10
101
 20
-51.78571300000002
 30
0
 42
0.4142140000000066
  0
VERTEX
  8
GUIDE
 10
100
 20
-52.78571300000002
 30
0
  0
VERTEX
  8
GUIDE
 10
100
 20
-60.35714200000001
 30
0
 42
0.4142140000000044
  0
VERTEX
  8
GUIDE
 10
101
 20
-61.35714200000001
 30
0
  0
VERTEX
  8
GUIDE
 10
110
 20
-61.35714200000001
 30
0
 42
0.4142140000000043
  0
VERTEX
  8
GUIDE
 10
111
 20
-60.35714200000001
 30
0
  0
VERTEX
  8
GUIDE
 10
111
 20
-52.78571300000002
 30
0
  0
SEQEND
  8
GUIDE
  0
POLYLINE
  8
GUIDE
 62
7
 66
1
 70
1
  0
VERTEX
  8
GUIDE
 10
111
 20
-62.35714200000001
 30
0
 42
0.4142140000000043
  0
VERTEX
  8
GUIDE
 10
110
 20
-61.35714200000001
 30
0
  0
VERTEX
  8
GUIDE
 10
101
 20
-61.35714200000001
 30
0
 42
0.4142140000000045
  0
VERTEX
  8
GUIDE
 10
100
 20
-62.35714200000001
 30
0
  0
VERTEX
  8
GUIDE
 10
100
 20
-69.92857100000001
 30
0
 42
0.4142140000000044
  0
VERTEX
  8
GUIDE
 10
101
 20
-70.92857100000001
 30
0
  0
VERTEX
  8
GUIDE
 10
110
 20
-70.92857100000001
 30
0
 42
0.4142140000000043
  0
VERTEX
  8
GUIDE
 10
111
 20
-69.92857100000001
 30
0
  0
VERTEX
  8
GUIDE
 10
111
 20
-62.35714200000001
 30
0
  0
SEQEND
  8
GUIDE
  0
POLYLINE
  8
GUIDE
 62
7
 66
1
 70
1
  0
VERTEX
  8
GUIDE
 10
111
 20
-71.92857100000001
 30
0
 42
0.4142140000000043
  0
VERTEX
  8
GUIDE
 10
110
 20
-70.92857100000001
 30
0
  0
VERTEX
  8
GUIDE
 10
101
 20
-70.92857100000001
 30
0
 42
0.4142140000000045
  0
VERTEX
  8
GUIDE
 10
100
 20
-71.92857100000001
 30
0
  0
VERTEX
  8
GUIDE
 10
100
 20
-79.5
 30
0
 42
0.4142140000000044
  0
VERTEX
  8
GUIDE
 10
101
 20
-80.5
 30
0
  0
VERTEX
  8
GUIDE
 10
110
 20
-80.5
 30
0
 42
0.4142140000000043
  0
VERTEX
  8
GUIDE
 10
111
 20
-79.5
 30
0
  0
VERTEX
  8
GUIDE
 10
111
 20
-71.92857100000001
 30
0
  0
SEQEND
  8
GUIDE
  0
POLYLINE
  8
GUIDE
 62
7
 66
1
 70
1
  0
VERTEX
  8
GUIDE
 10
111
 20
-110.214286
 30
0
 42
0.4142140000000126
  0
VERTEX
  8
GUIDE
 10
110
 20
-109.214286
 30
0
  0
VERTEX
  8
GUIDE
 10
101
 20
-109.214286
 30
0
 42
0.4142140000000128
  0
VERTEX
  8
GUIDE
 10
100
 20
-110.214286
 30
0
  0
VERTEX
  8
GUIDE
 10
100
 20
-117.785714
 30
0
 42
0.4142140000000127
  0
VERTEX
  8
GUIDE
 10
101
 20
-118.785714
 30
0
  0
VERTEX
  8
GUIDE
 10
110
 20
-118.785714
 30
0
 42
0.4142140000000126
  0
VERTEX
  8
GUIDE
 10
111
 20
-117.785714
 30
0
  0
VERTEX
  8
GUIDE
 10
111
 20
-110.214286
 30
0
  0
SEQEND
  8
GUIDE
  0
POLYLINE
  8
GUIDE
 62
7
 66
1
 70
1
  0
VERTEX
  8
GUIDE
 10
111
 20
-119.785714
 30
0
 42
0.4142140000000126
  0
VERTEX
  8
GUIDE
 10
110
 20
-118.785714
 30
0
  0
VERTEX
  8
GUIDE
 10
101
 20
-118.785714
 30
0
 42
0.4142140000000128
  0
VERTEX
  8
GUIDE
 10
100
 20
-119.785714
 30
0
  0
VERTEX
  8
GUIDE
 10
100
 20
-127.357143
 30
0
 42
0.4142140000000127
  0
VERTEX
  8
GUIDE
 10
101
 20
-128.357143
 30
0
  0
VERTEX
  8
GUIDE
 10
110
 20
-128.357143
 30
0
 42
0.4142140000000126
  0
VERTEX
  8
GUIDE
 10
111
 20
-127.357143
 30
0
  0
VERTEX
  8
GUIDE
 10
111
 20
-119.785714
 30
0
  0
SEQEND
  8
GUIDE
  0
POLYLINE
  8
GUIDE
 62
7
 66
1
 70
1
  0
VERTEX
  8
GUIDE
 10
111
 20
-129.357143
 30
0
 42
0.4142140000000126
  0
VERTEX
  8
GUIDE
 10
110
 20
-128.357143
 30
0
  0
VERTEX
  8
GUIDE
 10
101
 20
-128.357143
 30
0
 42
0.4142140000000128
  0
VERTEX
  8
GUIDE
 10
100
 20
-129.357143
 30
0
  0
VERTEX
  8
GUIDE
 10
100
 20
-136.928571
 30
0
 42
0.4142140000000127
  0
VERTEX
  8
GUIDE
 10
101
 20
-137.928571
 30
0
  0
VERTEX
  8
GUIDE
 10
110
 20
-137.928571
 30
0
 42
0.4142140000000126
  0
VERTEX
  8
GUIDE
 10
111
 20
-136.928571
 30
0
  0
VERTEX
  8
GUIDE
 10
111
 20
-129.357143
 30
0
  0
SEQEND
  8
GUIDE
  0
POLYLINE
  8
GUIDE
 62
7
 66
1
 70
1
  0
VERTEX
  8
GUIDE
 10
111
 20
-138.928571
 30
0
 42
0.4142140000000126
  0
VERTEX
  8
GUIDE
 10
110
 20
-137.928571
 30
0
  0
VERTEX
  8
GUIDE
 10
101
 20
-137.928571
 30
0
 42
0.4142140000000128
  0
VERTEX
  8
GUIDE
 10
100
 20
-138.928571
 30
0
  0
VERTEX
  8
GUIDE
 10
100
 20
-146.5
 30
0
 42
0.4142140000000127
  0
VERTEX
  8
GUIDE
 10
101
 20
-147.5
 30
0
  0
VERTEX
  8
GUIDE
 10
110
 20
-147.5
 30
0
 42
0.4142140000000126
  0
VERTEX
  8
GUIDE
 10
111
 20
-146.5
 30
0
  0
VERTEX
  8
GUIDE
 10
111
 20
-138.928571
 30
0
  0
SEQEND
  8
GUIDE
  0
POLYLINE
  8
GUIDE
 62
7
 66
1
 70
1
  0
VERTEX
  8
GUIDE
 10
111
 20
-81.5
 30
0
 42
0.4142140000000043
  0
VERTEX
  8
GUIDE
 10
110
 20
-80.5
 30
0
  0
VERTEX
  8
GUIDE
 10
101
 20
-80.5
 30
0
 42
0.4142140000000045
  0
VERTEX
  8
GUIDE
 10
100
 20
-81.5
 30
0
  0
VERTEX
  8
GUIDE
 10
100
 20
-89.071429
 30
0
 42
0.4142140000000044
  0
VERTEX
  8
GUIDE
 10
101
 20
-90.071429
 30
0
  0
VERTEX
  8
GUIDE
 10
110
 20
-90.071429
 30
0
 42
0.4142140000000043
  0
VERTEX
  8
GUIDE
 10
111
 20
-89.071429
 30
0
  0
VERTEX
  8
GUIDE
 10
111
 20
-81.5
 30
0
  0
SEQEND
  8
GUIDE
  0
POLYLINE
  8
GUIDE
 62
7
 66
1
 70
1
  0
VERTEX
  8
GUIDE
 10
111
 20
-91.071429
 30
0
 42
0.4142140000000043
  0
VERTEX
  8
GUIDE
 10
110
 20
-90.071429
 30
0
  0
VERTEX
  8
GUIDE
 10
101
 20
-90.071429
 30
0
 42
0.4142140000000045
  0
VERTEX
  8
GUIDE
 10
100
 20
-91.071429
 30
0
  0
VERTEX
  8
GUIDE
 10
100
 20
-98.64285700000001
 30
0
 42
0.4142140000000044
  0
VERTEX
  8
GUIDE
 10
101
 20
-99.64285700000001
 30
0
  0
VERTEX
  8
GUIDE
 10
110
 20
-99.64285700000001
 30
0
 42
0.4142140000000043
  0
VERTEX
  8
GUIDE
 10
111
 20
-98.64285700000001
 30
0
  0
VERTEX
  8
GUIDE
 10
111
 20
-91.071429
 30
0
  0
SEQEND
  8
GUIDE
  0
POLYLINE
  8
GUIDE
 62
7
 66
1
 70
1
  0
VERTEX
  8
GUIDE
 10
111
 20
-100.642857
 30
0
 42
0.4142140000000126
  0
VERTEX
  8
GUIDE
 10
110
 20
-99.64285700000001
 30
0
  0
VERTEX
  8
GUIDE
 10
101
 20
-99.64285700000001
 30
0
 42
0.4142140000000128
  0
VERTEX
  8
GUIDE
 10
100
 20
-100.642857
 30
0
  0
VERTEX
  8
GUIDE
 10
100
 20
-108.214286
 30
0
 42
0.4142140000000127
  0
VERTEX
  8
GUIDE
 10
101
 20
-109.214286
 30
0
  0
VERTEX
  8
GUIDE
 10
110
 20
-109.214286
 30
0
 42
0.4142140000000126
  0
VERTEX
  8
GUIDE
 10
111
 20
-108.214286
 30
0
  0
VERTEX
  8
GUIDE
 10
111
 20
-100.642857
 30
0
  0
SEQEND
  8
GUIDE
  0
POLYLINE
  8
GUIDE
 62
7
 66
1
  0
VERTEX
  8
GUIDE
 10
11.15
 20
-25.913556
 30
0
  0
VERTEX
  8
GUIDE
 10
1
 20
-25.913556
 30
0
  0
SEQEND
  8
GUIDE
  0
POLYLINE
  8
GUIDE
 62
7
 66
1
  0
VERTEX
  8
GUIDE
 10
38.5
 20
-47.5
 30
0
  0
VERTEX
  8
GUIDE
 10
38.5
 20
-42.5
 30
0
  0
VERTEX
  8
GUIDE
 10
1.8
 20
-42.5
 30
0
  0
VERTEX
  8
GUIDE
 10
1.8
 20
-49.5
 30
0
  0
SEQEND
  8
GUIDE
  0
POLYLINE
  8
GUIDE
 62
7
 66
1
 70
1
  0
VERTEX
  8
GUIDE
 10
16
 20
-108.214286
 30
0
 42
0.4142140000000055
  0
VERTEX
  8
GUIDE
 10
17
 20
-109.214286
 30
0
  0
VERTEX
  8
GUIDE
 10
26
 20
-109.214286
 30
0
 42
0.4142140000000053
  0
VERTEX
  8
GUIDE
 10
27
 20
-108.214286
 30
0
  0
VERTEX
  8
GUIDE
 10
27
 20
-100.642857
 30
0
 42
0.4142140000000053
  0
VERTEX
  8
GUIDE
 10
26
 20
-99.64285700000001
 30
0
  0
VERTEX
  8
GUIDE
 10
17
 20
-99.64285700000001
 30
0
 42
0.4142140000000055
  0
VERTEX
  8
GUIDE
 10
16
 20
-100.642857
 30
0
  0
VERTEX
  8
GUIDE
 10
16
 20
-108.214286
 30
0
  0
SEQEND
  8
GUIDE
  0
POLYLINE
  8
GUIDE
 62
7
 66
1
 70
1
  0
VERTEX
  8
GUIDE
 10
16
 20
-98.64285700000001
 30
0
 42
0.4142139999999971
  0
VERTEX
  8
GUIDE
 10
17
 20
-99.64285700000001
 30
0
  0
VERTEX
  8
GUIDE
 10
26
 20
-99.64285700000001
 30
0
 42
0.414213999999997
  0
VERTEX
  8
GUIDE
 10
27
 20
-98.64285700000001
 30
0
  0
VERTEX
  8
GUIDE
 10
27
 20
-91.071429
 30
0
 42
0.414213999999997
  0
VERTEX
  8
GUIDE
 10
26
 20
-90.071429
 30
0
  0
VERTEX
  8
GUIDE
 10
17
 20
-90.071429
 30
0
 42
0.4142139999999972
  0
VERTEX
  8
GUIDE
 10
16
 20
-91.071429
 30
0
  0
VERTEX
  8
GUIDE
 10
16
 20
-98.64285700000001
 30
0
  0
SEQEND
  8
GUIDE
  0
POLYLINE
  8
GUIDE
 62
7
 66
1
 70
1
  0
VERTEX
  8
GUIDE
 10
16
 20
-89.071429
 30
0
 42
0.4142139999999971
  0
VERTEX
  8
GUIDE
 10
17
 20
-90.071429
 30
0
  0
VERTEX
  8
GUIDE
 10
26
 20
-90.071429
 30
0
 42
0.414213999999997
  0
VERTEX
  8
GUIDE
 10
27
 20
-89.071429
 30
0
  0
VERTEX
  8
GUIDE
 10
27
 20
-81.5
 30
0
 42
0.414213999999997
  0
VERTEX
  8
GUIDE
 10
26
 20
-80.5
 30
0
  0
VERTEX
  8
GUIDE
 10
17
 20
-80.5
 30
0
 42
0.4142139999999972
  0
VERTEX
  8
GUIDE
 10
16
 20
-81.5
 30
0
  0
VERTEX
  8
GUIDE
 10
16
 20
-89.071429
 30
0
  0
SEQEND
  8
GUIDE
  0
POLYLINE
  8
GUIDE
 62
7
 66
1
 70
1
  0
VERTEX
  8
GUIDE
 10
16
 20
-146.5
 30
0
 42
0.4142140000000055
  0
VERTEX
  8
GUIDE
 10
17
 20
-147.5
 30
0
  0
VERTEX
  8
GUIDE
 10
26
 20
-147.5
 30
0
 42
0.4142140000000053
  0
VERTEX
  8
GUIDE
 10
27
 20
-146.5
 30
0
  0
VERTEX
  8
GUIDE
 10
27
 20
-138.928571
 30
0
 42
0.4142140000000053
  0
VERTEX
  8
GUIDE
 10
26
 20
-137.928571
 30
0
  0
VERTEX
  8
GUIDE
 10
17
 20
-137.928571
 30
0
 42
0.4142140000000055
  0
VERTEX
  8
GUIDE
 10
16
 20
-138.928571
 30
0
  0
VERTEX
  8
GUIDE
 10
16
 20
-146.5
 30
0
  0
SEQEND
  8
GUIDE
  0
POLYLINE
  8
GUIDE
 62
7
 66
1
 70
1
  0
VERTEX
  8
GUIDE
 10
16
 20
-136.928571
 30
0
 42
0.4142140000000055
  0
VERTEX
  8
GUIDE
 10
17
 20
-137.928571
 30
0
  0
VERTEX
  8
GUIDE
 10
26
 20
-137.928571
 30
0
 42
0.4142140000000053
  0
VERTEX
  8
GUIDE
 10
27
 20
-136.928571
 30
0
  0
VERTEX
  8
GUIDE
 10
27
 20
-129.357143
 30
0
 42
0.4142140000000053
  0
VERTEX
  8
GUIDE
 10
26
 20
-128.357143
 30
0
  0
VERTEX
  8
GUIDE
 10
17
 20
-128.357143
 30
0
 42
0.4142140000000055
  0
VERTEX
  8
GUIDE
 10
16
 20
-129.357143
 30
0
  0
VERTEX
  8
GUIDE
 10
16
 20
-136.928571
 30
0
  0
SEQEND
  8
GUIDE
  0
POLYLINE
  8
GUIDE
 62
7
 66
1
 70
1
  0
VERTEX
  8
GUIDE
 10
16
 20
-127.357143
 30
0
 42
0.4142140000000055
  0
VERTEX
  8
GUIDE
 10
17
 20
-128.357143
 30
0
  0
VERTEX
  8
GUIDE
 10
26
 20
-128.357143
 30
0
 42
0.4142140000000053
  0
VERTEX
  8
GUIDE
 10
27
 20
-127.357143
 30
0
  0
VERTEX
  8
GUIDE
 10
27
 20
-119.785714
 30
0
 42
0.4142140000000053
  0
VERTEX
  8
GUIDE
 10
26
 20
-118.785714
 30
0
  0
VERTEX
  8
GUIDE
 10
17
 20
-118.785714
 30
0
 42
0.4142140000000055
  0
VERTEX
  8
GUIDE
 10
16
 20
-119.785714
 30
0
  0
VERTEX
  8
GUIDE
 10
16
 20
-127.357143
 30
0
  0
SEQEND
  8
GUIDE
  0
POLYLINE
  8
GUIDE
 62
7
 66
1
 70
1
  0
VERTEX
  8
GUIDE
 10
16
 20
-117.785714
 30
0
 42
0.4142140000000055
  0
VERTEX
  8
GUIDE
 10
17
 20
-118.785714
 30
0
  0
VERTEX
  8
GUIDE
 10
26
 20
-118.785714
 30
0
 42
0.4142140000000053
  0
VERTEX
  8
GUIDE
 10
27
 20
-117.785714
 30
0
  0
VERTEX
  8
GUIDE
 10
27
 20
-110.214286
 30
0
 42
0.4142140000000053
  0
VERTEX
  8
GUIDE
 10
26
 20
-109.214286
 30
0
  0
VERTEX
  8
GUIDE
 10
17
 20
-109.214286
 30
0
 42
0.4142140000000055
  0
VERTEX
  8
GUIDE
 10
16
 20
-110.214286
 30
0
  0
VERTEX
  8
GUIDE
 10
16
 20
-117.785714
 30
0
  0
SEQEND
  8
GUIDE
  0
POLYLINE
  8
GUIDE
 62
7
 66
1
  0
VERTEX
  8
GUIDE
 10
0
 20
-152.9
 30
0
  0
VERTEX
  8
GUIDE
 10
0
 20
-150.5
 30
0
  0
SEQEND
  8
GUIDE
  0
POLYLINE
  8
GUIDE
 62
7
 66
1
  0
VERTEX
  8
GUIDE
 10
0
 20
-157.5
 30
0
  0
VERTEX
  8
GUIDE
 10
0
 20
-155.1
 30
0
  0
SEQEND
  8
GUIDE
  0
POLYLINE
  8
GUIDE
 62
7
 66
1
 70
1
  0
VERTEX
  8
GUIDE
 10
28.6
 20
-89.071429
 30
0
 42
0.4142139999999971
  0
VERTEX
  8
GUIDE
 10
29.6
 20
-90.071429
 30
0
  0
VERTEX
  8
GUIDE
 10
38.6
 20
-90.071429
 30
0
 42
0.4142140000000001
  0
VERTEX
  8
GUIDE
 10
39.6
 20
-89.071429
 30
0
  0
VERTEX
  8
GUIDE
 10
39.6
 20
-81.5
 30
0
 42
0.4142140000000001
  0
VERTEX
  8
GUIDE
 10
38.6
 20
-80.5
 30
0
  0
VERTEX
  8
GUIDE
 10
29.6
 20
-80.5
 30
0
 42
0.4142139999999972
  0
VERTEX
  8
GUIDE
 10
28.6
 20
-81.5
 30
0
  0
VERTEX
  8
GUIDE
 10
28.6
 20
-89.071429
 30
0
  0
SEQEND
  8
GUIDE
  0
POLYLINE
  8
GUIDE
 62
7
 66
1
 70
1
  0
VERTEX
  8
GUIDE
 10
3.4
 20
-89.071429
 30
0
 42
0.4142139999999979
  0
VERTEX
  8
GUIDE
 10
4.4
 20
-90.071429
 30
0
  0
VERTEX
  8
GUIDE
 10
13.4
 20
-90.071429
 30
0
 42
0.414213999999997
  0
VERTEX
  8
GUIDE
 10
14.4
 20
-89.071429
 30
0
  0
VERTEX
  8
GUIDE
 10
14.4
 20
-81.5
 30
0
 42
0.414213999999997
  0
VERTEX
  8
GUIDE
 10
13.4
 20
-80.5
 30
0
  0
VERTEX
  8
GUIDE
 10
4.4
 20
-80.5
 30
0
 42
0.414213999999998
  0
VERTEX
  8
GUIDE
 10
3.4
 20
-81.5
 30
0
  0
VERTEX
  8
GUIDE
 10
3.4
 20
-89.071429
 30
0
  0
SEQEND
  8
GUIDE
  0
POLYLINE
  8
GUIDE
 62
7
 66
1
 70
1
  0
VERTEX
  8
GUIDE
 10
28.6
 20
-98.64285700000001
 30
0
 42
0.4142139999999971
  0
VERTEX
  8
GUIDE
 10
29.6
 20
-99.64285700000001
 30
0
  0
VERTEX
  8
GUIDE
 10
38.6
 20
-99.64285700000001
 30
0
 42
0.4142140000000001
  0
VERTEX
  8
GUIDE
 10
39.6
 20
-98.64285700000001
 30
0
  0
VERTEX
  8
GUIDE
 10
39.6
 20
-91.071429
 30
0
 42
0.4142140000000001
  0
VERTEX
  8
GUIDE
 10
38.6
 20
-90.071429
 30
0
  0
VERTEX
  8
GUIDE
 10
29.6
 20
-90.071429
 30
0
 42
0.4142139999999972
  0
VERTEX
  8
GUIDE
 10
28.6
 20
-91.071429
 30
0
  0
VERTEX
  8
GUIDE
 10
28.6
 20
-98.64285700000001
 30
0
  0
SEQEND
  8
GUIDE
  0
POLYLINE
  8
GUIDE
 62
7
 66
1
 70
1
  0
VERTEX
  8
GUIDE
 10
3.4
 20
-98.64285700000001
 30
0
 42
0.4142139999999979
  0
VERTEX
  8
GUIDE
 10
4.4
 20
-99.64285700000001
 30
0
  0
VERTEX
  8
GUIDE
 10
13.4
 20
-99.64285700000001
 30
0
 42
0.414213999999997
  0
VERTEX
  8
GUIDE
 10
14.4
 20
-98.64285700000001
 30
0
  0
VERTEX
  8
GUIDE
 10
14.4
 20
-91.071429
 30
0
 42
0.414213999999997
  0
VERTEX
  8
GUIDE
 10
13.4
 20
-90.071429
 30
0
  0
VERTEX
  8
GUIDE
 10
4.4
 20
-90.071429
 30
0
 42
0.414213999999998
  0
VERTEX
  8
GUIDE
 10
3.4
 20
-91.071429
 30
0
  0
VERTEX
  8
GUIDE
 10
3.4
 20
-98.64285700000001
 30
0
  0
SEQEND
  8
GUIDE
  0
POLYLINE
  8
GUIDE
 62
7
 66
1
 70
1
  0
VERTEX
  8
GUIDE
 10
28.6
 20
-108.214286
 30
0
 42
0.4142140000000055
  0
VERTEX
  8
GUIDE
 10
29.6
 20
-109.214286
 30
0
  0
VERTEX
  8
GUIDE
 10
38.6
 20
-109.214286
 30
0
 42
0.4142140000000085
  0
VERTEX
  8
GUIDE
 10
39.6
 20
-108.214286
 30
0
  0
VERTEX
  8
GUIDE
 10
39.6
 20
-100.642857
 30
0
 42
0.4142140000000085
  0
VERTEX
  8
GUIDE
 10
38.6
 20
-99.64285700000001
 30
0
  0
VERTEX
  8
GUIDE
 10
29.6
 20
-99.64285700000001
 30
0
 42
0.4142140000000055
  0
VERTEX
  8
GUIDE
 10
28.6
 20
-100.642857
 30
0
  0
VERTEX
  8
GUIDE
 10
28.6
 20
-108.214286
 30
0
  0
SEQEND
  8
GUIDE
  0
POLYLINE
  8
GUIDE
 62
7
 66
1
 70
1
  0
VERTEX
  8
GUIDE
 10
3.4
 20
-108.214286
 30
0
 42
0.4142140000000062
  0
VERTEX
  8
GUIDE
 10
4.4
 20
-109.214286
 30
0
  0
VERTEX
  8
GUIDE
 10
13.4
 20
-109.214286
 30
0
 42
0.4142140000000053
  0
VERTEX
  8
GUIDE
 10
14.4
 20
-108.214286
 30
0
  0
VERTEX
  8
GUIDE
 10
14.4
 20
-100.642857
 30
0
 42
0.4142140000000053
  0
VERTEX
  8
GUIDE
 10
13.4
 20
-99.64285700000001
 30
0
  0
VERTEX
  8
GUIDE
 10
4.4
 20
-99.64285700000001
 30
0
 42
0.4142140000000063
  0
VERTEX
  8
GUIDE
 10
3.4
 20
-100.642857
 30
0
  0
VERTEX
  8
GUIDE
 10
3.4
 20
-108.214286
 30
0
  0
SEQEND
  8
GUIDE
  0
POLYLINE
  8
GUIDE
 62
7
 66
1
 70
1
  0
VERTEX
  8
GUIDE
 10
28.6
 20
-117.785714
 30
0
 42
0.4142140000000055
  0
VERTEX
  8
GUIDE
 10
29.6
 20
-118.785714
 30
0
  0
VERTEX
  8
GUIDE
 10
38.6
 20
-118.785714
 30
0
 42
0.4142140000000085
  0
VERTEX
  8
GUIDE
 10
39.6
 20
-117.785714
 30
0
  0
VERTEX
  8
GUIDE
 10
39.6
 20
-110.214286
 30
0
 42
0.4142140000000085
  0
VERTEX
  8
GUIDE
 10
38.6
 20
-109.214286
 30
0
  0
VERTEX
  8
GUIDE
 10
29.6
 20
-109.214286
 30
0
 42
0.4142140000000055
  0
VERTEX
  8
GUIDE
 10
28.6
 20
-110.214286
 30
0
  0
VERTEX
  8
GUIDE
 10
28.6
 20
-117.785714
 30
0
  0
SEQEND
  8
GUIDE
  0
POLYLINE
  8
GUIDE
 62
7
 66
1
 70
1
  0
VERTEX
  8
GUIDE
 10
3.4
 20
-117.785714
 30
0
 42
0.4142140000000062
  0
VERTEX
  8
GUIDE
 10
4.4
 20
-118.785714
 30
0
  0
VERTEX
  8
GUIDE
 10
13.4
 20
-118.785714
 30
0
 42
0.4142140000000053
  0
VERTEX
  8
GUIDE
 10
14.4
 20
-117.785714
 30
0
  0
VERTEX
  8
GUIDE
 10
14.4
 20
-110.214286
 30
0
 42
0.4142140000000053
  0
VERTEX
  8
GUIDE
 10
13.4
 20
-109.214286
 30
0
  0
VERTEX
  8
GUIDE
 10
4.4
 20
-109.214286
 30
0
 42
0.4142140000000063
  0
VERTEX
  8
GUIDE
 10
3.4
 20
-110.214286
 30
0
  0
VERTEX
  8
GUIDE
 10
3.4
 20
-117.785714
 30
0
  0
SEQEND
  8
GUIDE
  0
POLYLINE
  8
GUIDE
 62
7
 66
1
 70
1
  0
VERTEX
  8
GUIDE
 10
28.6
 20
-127.357143
 30
0
 42
0.4142140000000055
  0
VERTEX
  8
GUIDE
 10
29.6
 20
-128.357143
 30
0
  0
VERTEX
  8
GUIDE
 10
38.6
 20
-128.357143
 30
0
 42
0.4142140000000085
  0
VERTEX
  8
GUIDE
 10
39.6
 20
-127.357143
 30
0
  0
VERTEX
  8
GUIDE
 10
39.6
 20
-119.785714
 30
0
 42
0.4142140000000085
  0
VERTEX
  8
GUIDE
 10
38.6
 20
-118.785714
 30
0
  0
VERTEX
  8
GUIDE
 10
29.6
 20
-118.785714
 30
0
 42
0.4142140000000055
  0
VERTEX
  8
GUIDE
 10
28.6
 20
-119.785714
 30
0
  0
VERTEX
  8
GUIDE
 10
28.6
 20
-127.357143
 30
0
  0
SEQEND
  8
GUIDE
  0
POLYLINE
  8
GUIDE
 62
7
 66
1
 70
1
  0
VERTEX
  8
GUIDE
 10
3.4
 20
-127.357143
 30
0
 42
0.4142140000000062
  0
VERTEX
  8
GUIDE
 10
4.4
 20
-128.357143
 30
0
  0
VERTEX
  8
GUIDE
 10
13.4
 20
-128.357143
 30
0
 42
0.4142140000000053
  0
VERTEX
  8
GUIDE
 10
14.4
 20
-127.357143
 30
0
  0
VERTEX
  8
GUIDE
 10
14.4
 20
-119.785714
 30
0
 42
0.4142140000000053
  0
VERTEX
  8
GUIDE
 10
13.4
 20
-118.785714
 30
0
  0
VERTEX
  8
GUIDE
 10
4.4
 20
-118.785714
 30
0
 42
0.4142140000000063
  0
VERTEX
  8
GUIDE
 10
3.4
 20
-119.785714
 30
0
  0
VERTEX
  8
GUIDE
 10
3.4
 20
-127.357143
 30
0
  0
SEQEND
  8
GUIDE
  0
POLYLINE
  8
GUIDE
 62
7
 66
1
 70
1
  0
VERTEX
  8
GUIDE
 10
28.6
 20
-136.928571
 30
0
 42
0.4142140000000055
  0
VERTEX
  8
GUIDE
 10
29.6
 20
-137.928571
 30
0
  0
VERTEX
  8
GUIDE
 10
38.6
 20
-137.928571
 30
0
 42
0.4142140000000085
  0
VERTEX
  8
GUIDE
 10
39.6
 20
-136.928571
 30
0
  0
VERTEX
  8
GUIDE
 10
39.6
 20
-129.357143
 30
0
 42
0.4142140000000085
  0
VERTEX
  8
GUIDE
 10
38.6
 20
-128.357143
 30
0
  0
VERTEX
  8
GUIDE
 10
29.6
 20
-128.357143
 30
0
 42
0.4142140000000055
  0
VERTEX
  8
GUIDE
 10
28.6
 20
-129.357143
 30
0
  0
VERTEX
  8
GUIDE
 10
28.6
 20
-136.928571
 30
0
  0
SEQEND
  8
GUIDE
  0
POLYLINE
  8
GUIDE
 62
7
 66
1
 70
1
  0
VERTEX
  8
GUIDE
 10
3.4
 20
-136.928571
 30
0
 42
0.4142140000000062
  0
VERTEX
  8
GUIDE
 10
4.4
 20
-137.928571
 30
0
  0
VERTEX
  8
GUIDE
 10
13.4
 20
-137.928571
 30
0
 42
0.4142140000000053
  0
VERTEX
  8
GUIDE
 10
14.4
 20
-136.928571
 30
0
  0
VERTEX
  8
GUIDE
 10
14.4
 20
-129.357143
 30
0
 42
0.4142140000000053
  0
VERTEX
  8
GUIDE
 10
13.4
 20
-128.357143
 30
0
  0
VERTEX
  8
GUIDE
 10
4.4
 20
-128.357143
 30
0
 42
0.4142140000000063
  0
VERTEX
  8
GUIDE
 10
3.4
 20
-129.357143
 30
0
  0
VERTEX
  8
GUIDE
 10
3.4
 20
-136.928571
 30
0
  0
SEQEND
  8
GUIDE
  0
POLYLINE
  8
GUIDE
 62
7
 66
1
 70
1
  0
VERTEX
  8
GUIDE
 10
28.6
 20
-146.5
 30
0
 42
0.4142140000000055
  0
VERTEX
  8
GUIDE
 10
29.6
 20
-147.5
 30
0
  0
VERTEX
  8
GUIDE
 10
38.6
 20
-147.5
 30
0
 42
0.4142140000000085
  0
VERTEX
  8
GUIDE
 10
39.6
 20
-146.5
 30
0
  0
VERTEX
  8
GUIDE
 10
39.6
 20
-138.928571
 30
0
 42
0.4142140000000085
  0
VERTEX
  8
GUIDE
 10
38.6
 20
-137.928571
 30
0
  0
VERTEX
  8
GUIDE
 10
29.6
 20
-137.928571
 30
0
 42
0.4142140000000055
  0
VERTEX
  8
GUIDE
 10
28.6
 20
-138.928571
 30
0
  0
VERTEX
  8
GUIDE
 10
28.6
 20
-146.5
 30
0
  0
SEQEND
  8
GUIDE
  0
POLYLINE
  8
GUIDE
 62
7
 66
1
 70
1
  0
VERTEX
  8
GUIDE
 10
3.4
 20
-146.5
 30
0
 42
0.4142140000000062
  0
VERTEX
  8
GUIDE
 10
4.4
 20
-147.5
 30
0
  0
VERTEX
  8
GUIDE
 10
13.4
 20
-147.5
 30
0
 42
0.4142140000000053
  0
VERTEX
  8
GUIDE
 10
14.4
 20
-146.5
 30
0
  0
VERTEX
  8
GUIDE
 10
14.4
 20
-138.928571
 30
0
 42
0.4142140000000053
  0
VERTEX
  8
GUIDE
 10
13.4
 20
-137.928571
 30
0
  0
VERTEX
  8
GUIDE
 10
4.4
 20
-137.928571
 30
0
 42
0.4142140000000063
  0
VERTEX
  8
GUIDE
 10
3.4
 20
-138.928571
 30
0
  0
VERTEX
  8
GUIDE
 10
3.4
 20
-146.5
 30
0
  0
SEQEND
  8
GUIDE
  0
LINE
  8
1
 62
2
  6
DASHED
 10
14.4
 20
-16.3367644582996
 30
0
 11
14.4
 21
-28.3367644582996
 31
0
  0
LINE
  8
1
 62
7
 10
11.15
 20
-25.913556
 30
0
 11
17.65
 21
-25.913556
 31
0
  0
LINE
  8
1
 62
7
 10
17.65
 20
-22.413556
 30
0
 11
17.65
 21
-25.913556
 31
0
  0
LINE
  8
1
 62
7
 10
11.15
 20
-22.413556
 30
0
 11
11.15
 21
-25.913556
 31
0
  0
LINE
  8
1
 62
7
 10
8.650000000000002
 20
-22.413556
 30
0
 11
20.15
 21
-22.413556
 31
0
  0
LINE
  8
1
 62
7
 10
20.15
 20
-18.413556
 30
0
 11
20.15
 21
-22.413556
 31
0
  0
LINE
  8
1
 62
7
 10
8.650000000000002
 20
-18.413556
 30
0
 11
20.15
 21
-18.413556
 31
0
  0
LINE
  8
1
 62
7
 10
8.650000000000002
 20
-22.413556
 30
0
 11
8.650000000000002
 21
-18.413556
 31
0
  0
LINE
  8
GUIDE
 62
7
 10
99
 20
-94
 30
0
 11
88.5
 21
-94
 31
0
  0
LINE
  8
GUIDE
 62
7
 10
88.5
 20
-152.575478
 30
0
 11
109.9
 21
-152.575478
 31
0
  0
LINE
  8
GUIDE
 62
7
 10
109.9
 20
-44.9
 30
0
 11
88.5
 21
-44.9
 31
0
  0
LINE
  8
GUIDE
 62
7
 10
109.9
 20
-47.1
 30
0
 11
88.5
 21
-47.1
 31
0
  0
LINE
  8
GUIDE
 62
7
 10
99
 20
-69
 30
0
 11
88.5
 21
-69
 31
0
  0
LINE
  8
GUIDE
 62
7
 10
99
 20
-100
 30
0
 11
88.5
 21
-100
 31
0
  0
LINE
  8
GUIDE
 62
7
 10
99
 20
-106
 30
0
 11
88.5
 21
-106
 31
0
  0
LINE
  8
GUIDE
 62
7
 10
88.5
 20
-155.424522
 30
0
 11
109.9
 21
-155.424522
 31
0
  0
LINE
  8
GUIDE
 62
7
 10
99
 20
-131
 30
0
 11
88.5
 21
-131
 31
0
  0
LINE
  8
GUIDE
 62
7
 10
103
 20
-49.5
 30
0
 11
108
 21
-49.5
 31
0
  0
LINE
  8
GUIDE
 62
7
 10
108
 20
-51.78571300000002
 30
0
 11
108
 21
-49.5
 31
0
  0
LINE
  8
GUIDE
 62
7
 10
103
 20
-51.78571300000002
 30
0
 11
103
 21
-49.5
 31
0
  0
LINE
  8
GUIDE
 62
7
 10
103
 20
-150.5
 30
0
 11
108
 21
-150.5
 31
0
  0
LINE
  8
GUIDE
 62
7
 10
103
 20
-150.5
 30
0
 11
103
 21
-147.5
 31
0
  0
LINE
  8
GUIDE
 62
7
 10
108
 20
-150.5
 30
0
 11
108
 21
-147.5
 31
0
  0
LINE
  8
GUIDE
 62
7
 10
109.9
 20
-49.5
 30
0
 11
109.9
 21
-42.5
 31
0
  0
LINE
  8
GUIDE
 62
7
 10
99
 20
-150.5
 30
0
 11
99
 21
-49.49999999999999
 31
0
  0
LINE
  8
GUIDE
 62
7
 10
88.5
 20
-157.5
 30
0
 11
88.5
 21
-42.5
 31
0
  0
LINE
  8
GUIDE
 62
7
 10
109.9
 20
-157.5
 30
0
 11
109.9
 21
-150.5
 31
0
  0
LINE
  8
GUIDE
 62
7
 10
109.9
 20
-49.5
 30
0
 11
99
 21
-49.49999999999999
 31
0
  0
LINE
  8
GUIDE
 62
7
 10
109.9
 20
-150.5
 30
0
 11
99
 21
-150.5
 31
0
  0
LINE
  8
GUIDE
 62
7
 10
109.9
 20
-42.5
 30
0
 11
88.5
 21
-42.5
 31
0
  0
LINE
  8
GUIDE
 62
7
 10
109.9
 20
-157.5
 30
0
 11
88.5
 21
-157.5
 31
0
  0
LINE
  8
GUIDE
 62
7
 10
26.2
 20
-25.913556
 30
0
 11
17.65
 21
-25.913556
 31
0
  0
LINE
  8
GUIDE
 62
7
 10
4
 20
-4.513556
 30
0
 11
33.3
 21
-4.513556
 31
0
  0
LINE
  8
GUIDE
 62
7
 10
1
 20
-25.913556
 30
0
 11
1
 21
-7.513556
 31
0
  0
LINE
  8
GUIDE
 62
7
 10
37.7
 20
-15.913556
 30
0
 11
37.7
 21
-8.913556
 31
0
  0
LINE
  8
GUIDE
 62
7
 10
0
 20
-24.913556
 30
0
 11
0
 21
-8.513556
 31
0
  0
LINE
  8
GUIDE
 62
7
 10
1.8
 20
-106
 30
0
 11
1.8
 21
-131
 31
0
  0
LINE
  8
GUIDE
 62
7
 10
1.8
 20
-94
 30
0
 11
1.8
 21
-100
 31
0
  0
LINE
  8
GUIDE
 62
7
 10
25.5
 20
-150.5
 30
0
 11
25.5
 21
-152.5
 31
0
  0
LINE
  8
GUIDE
 62
7
 10
17.5
 20
-150.5
 30
0
 11
17.5
 21
-152.5
 31
0
  0
LINE
  8
GUIDE
 62
7
 10
17.5
 20
-150.5
 30
0
 11
25.5
 21
-150.5
 31
0
  0
LINE
  8
GUIDE
 62
7
 10
24
 20
-150.5
 30
0
 11
19
 21
-150.5
 31
0
  0
LINE
  8
GUIDE
 62
7
 10
38.5
 20
-157.5
 30
0
 11
0
 21
-157.5
 31
0
  0
LINE
  8
GUIDE
 62
7
 10
38.5
 20
-152.5
 30
0
 11
38.5
 21
-157.5
 31
0
  0
LINE
  8
GUIDE
 62
7
 10
37.57
 20
-150.5
 30
0
 11
38.07
 21
-152.5
 31
0
  0
LINE
  8
GUIDE
 62
7
 10
38.07
 20
-152.5
 30
0
 11
38.5
 21
-152.5
 31
0
  0
LINE
  8
GUIDE
 62
7
 10
38.07
 20
-47.5
 30
0
 11
38.5
 21
-47.5
 31
0
  0
LINE
  8
GUIDE
 62
7
 10
37.57
 20
-49.5
 30
0
 11
38.07
 21
-47.5
 31
0
  0
LINE
  8
GUIDE
 62
7
 10
17.5
 20
-49.5
 30
0
 11
25.5
 21
-49.5
 31
0
  0
LINE
  8
GUIDE
 62
7
 10
25.5
 20
-49.5
 30
0
 11
25.5
 21
-47.5
 31
0
  0
LINE
  8
GUIDE
 62
7
 10
17.5
 20
-49.5
 30
0
 11
17.5
 21
-47.5
 31
0
  0
LINE
  8
GUIDE
 62
7
 10
24
 20
-147.5
 30
0
 11
24
 21
-150.5
 31
0
  0
LINE
  8
GUIDE
 62
7
 10
19
 20
-147.5
 30
0
 11
19
 21
-150.5
 31
0
  0
LINE
  8
GUIDE
 62
7
 10
24
 20
-150.5
 30
0
 11
19
 21
-150.5
 31
0
  0
LINE
  8
GUIDE
 62
7
 10
24
 20
-49.5
 30
0
 11
24
 21
-51.78571300000002
 31
0
  0
LINE
  8
GUIDE
 62
7
 10
19
 20
-49.5
 30
0
 11
19
 21
-51.78571300000002
 31
0
  0
LINE
  8
GUIDE
 62
7
 10
24
 20
-49.5
 30
0
 11
19
 21
-49.5
 31
0
  0
LINE
  8
GUIDE
 62
7
 10
1.8
 20
-49.5
 30
0
 11
1.8
 21
-69
 31
0
  0
LINE
  8
GUIDE
 62
7
 10
0.933918
 20
-155.424522
 30
0
 11
0
 21
-155.1
 31
0
  0
LINE
  8
GUIDE
 62
7
 10
0.933918
 20
-152.575478
 30
0
 11
0
 21
-152.9
 31
0
  0
LINE
  8
GUIDE
 62
7
 10
1.5
 20
-153.071092
 30
0
 11
1.5
 21
-154.928908
 31
0
  0
LINE
  8
GUIDE
 62
7
 10
0.066082
 20
-47.424522
 30
0
 11
1.8
 21
-47.1
 31
0
  0
LINE
  8
GUIDE
 62
7
 10
0.066082
 20
-44.575478
 30
0
 11
1.8
 21
-44.9
 31
0
  0
LINE
  8
GUIDE
 62
7
 10
-0.5
 20
-46.928908
 30
0
 11
-0.5
 21
-45.071092
 31
0
  0
LINE
  8
GUIDE
 62
7
 10
11.9
 20
-150.5
 30
0
 11
0
 21
-150.5
 31
0
  0
LINE
  8
GUIDE
 62
7
 10
30.43
 20
-150.5
 30
0
 11
29.93
 21
-152.5
 31
0
  0
LINE
  8
GUIDE
 62
7
 10
11.9
 20
-150.5
 30
0
 11
12.4
 21
-152.5
 31
0
  0
LINE
  8
GUIDE
 62
7
 10
29.93
 20
-152.5
 30
0
 11
12.4
 21
-152.5
 31
0
  0
LINE
  8
GUIDE
 62
7
 10
30.43
 20
-49.5
 30
0
 11
37.57
 21
-49.5
 31
0
  0
LINE
  8
GUIDE
 62
7
 10
30.43
 20
-49.5
 30
0
 11
29.93
 21
-47.5
 31
0
  0
LINE
  8
GUIDE
 62
7
 10
11.9
 20
-49.5
 30
0
 11
12.4
 21
-47.5
 31
0
  0
LINE
  8
GUIDE
 62
7
 10
29.93
 20
-47.5
 30
0
 11
12.4
 21
-47.5
 31
0
  0
LINE
  8
GUIDE
 62
7
 10
37.57
 20
-150.5
 30
0
 11
30.43
 21
-150.5
 31
0
  0
LINE
  8
GUIDE
 62
7
 10
1.8
 20
-49.5
 30
0
 11
11.9
 21
-49.5
 31
0
  0
LINE
  8
GUIDE
 62
7
 10
31.59999999999999
 20
-49.5
 30
0
 11
36.60000000000002
 21
-49.5
 31
0
  0
LINE
  8
GUIDE
 62
7
 10
11.40000000000001
 20
-150.5
 30
0
 11
6.399999999999999
 21
-150.5
 31
0
  0
LINE
  8
GUIDE
 62
7
 10
36.6
 20
-147.5
 30
0
 11
36.60000000000002
 21
-150.5
 31
0
  0
LINE
  8
GUIDE
 62
7
 10
31.6
 20
-147.5
 30
0
 11
31.59999999999999
 21
-150.5
 31
0
  0
LINE
  8
GUIDE
 62
7
 10
11.4
 20
-147.5
 30
0
 11
11.40000000000001
 21
-150.5
 31
0
  0
LINE
  8
GUIDE
 62
7
 10
6.4
 20
-147.5
 30
0
 11
6.399999999999999
 21
-150.5
 31
0
  0
LINE
  8
GUIDE
 62
7
 10
36.60000000000002
 20
-49.5
 30
0
 11
36.6
 21
-51.78571300000002
 31
0
  0
LINE
  8
GUIDE
 62
7
 10
31.59999999999999
 20
-49.5
 30
0
 11
31.6
 21
-51.78571300000002
 31
0
  0
LINE
  8
GUIDE
 62
7
 10
6.399999999999999
 20
-49.5
 30
0
 11
6.4
 21
-51.78571300000002
 31
0
  0
LINE
  8
GUIDE
 62
7
 10
11.40000000000001
 20
-49.5
 30
0
 11
11.4
 21
-51.78571300000002
 31
0
  0
LINE
  8
GUIDE
 62
7
 10
31.59999999999999
 20
-150.5
 30
0
 11
36.60000000000002
 21
-150.5
 31
0
  0
LINE
  8
GUIDE
 62
7
 10
11.40000000000001
 20
-49.5
 30
0
 11
6.399999999999999
 21
-49.5
 31
0
  0
LINE
  8
GUIDE
 62
7
 10
1.8
 20
-131
 30
0
 11
0
 21
-131
 31
0
  0
LINE
  8
GUIDE
 62
7
 10
0
 20
-131
 30
0
 11
0
 21
-150.5
 31
0
  0
LINE
  8
GUIDE
 62
7
 10
1.8
 20
-69
 30
0
 11
0
 21
-69
 31
0
  0
LINE
  8
GUIDE
 62
7
 10
1.8
 20
-94
 30
0
 11
0
 21
-94
 31
0
  0
LINE
  8
GUIDE
 62
7
 10
0
 20
-94
 30
0
 11
0
 21
-69
 31
0
  0
LINE
  8
GUIDE
 62
7
 10
0
 20
-106
 30
0
 11
1.8
 21
-106
 31
0
  0
LINE
  8
GUIDE
 62
7
 10
0
 20
-100
 30
0
 11
1.8
 21
-100
 31
0
  0
LINE
  8
GUIDE
 62
7
 10
0
 20
-100
 30
0
 11
0
 21
-106
 31
0
  0
LINE
  8
GUIDE
 62
7
 10
0
 20
-150.5
 30
0
 11
1
 21
-150.5
 31
0
  0
ARC
  8
GUIDE
 62
7
 10
33.3
 20
-8.913556
 30
0
 40
4.400000000000006
 50
0
 51
90
  0
ARC
  8
GUIDE
 62
7
 10
43.007152
 20
-33.629281
 30
0
 40
18.493588
 50
106.676794
 51
155.341379
  0
ARC
  8
GUIDE
 62
7
 10
33.3
 20
-8.913556
 30
0
 40
5.500000000000007
 50
323.130102
 51
126.869898
  0
ARC
  8
GUIDE
 62
7
 10
33.3
 20
-8.913556
 30
0
 40
5.500000000000002
 50
126.869898
 51
323.130102
  0
ARC
  8
GUIDE
 62
7
 10
4
 20
-7.513556
 30
0
 40
3
 50
90
 51
180
  0
ARC
  8
GUIDE
 62
7
 10
1
 20
-24.913556
 30
0
 40
1
 50
180
 51
270
  0
ARC
  8
GUIDE
 62
7
 10
1
 20
-8.513556
 30
0
 40
0.9999999999999991
 50
90
 51
180
  0
ARC
  8
GUIDE
 62
7
 10
20.7
 20
-8.913556
 30
0
 40
5.499999999999995
 50
126.8698979999999
 51
53.13010199999996
  0
ARC
  8
GUIDE
 62
7
 10
20.7
 20
-8.913556
 30
0
 40
5.500000000000003
 50
53.13010199999996
 51
126.8698979999999
  0
ARC
  8
GUIDE
 62
7
 10
8.1
 20
-8.913556
 30
0
 40
5.500000000000002
 50
53.13010199999997
 51
126.869898
  0
ARC
  8
GUIDE
 62
7
 10
8.1
 20
-8.913556
 30
0
 40
5.500000000000001
 50
126.869898
 51
53.13010199999997
  0
ARC
  8
GUIDE
 62
7
 10
1
 20
-154.928908
 30
0
 40
0.4999999999999671
 50
262.4053569999995
 51
0
  0
ARC
  8
GUIDE
 62
7
 10
1
 20
-153.071092
 30
0
 40
0.5
 50
0
 51
97.59464300000052
  0
ARC
  8
GUIDE
 62
7
 10
0
 20
-46.928908
 30
0
 40
0.5
 50
180
 51
277.594643
  0
ARC
  8
GUIDE
 62
7
 10
0
 20
-45.071092
 30
0
 40
0.5000000000000024
 50
82.40535700000004
 51
180
  0
CIRCLE
  8
GUIDE
 62
7
 10
33.3
 20
-8.913556
 30
0
 40
2.5
  0
CIRCLE
  8
GUIDE
 62
7
 10
8.1
 20
-8.913556
 30
0
 40
2.5
  0
CIRCLE
  8
GUIDE
 62
7
 10
20.7
 20
-8.913556
 30
0
 40
2.5
  0
ENDSEC
  0
EOF
