  0
SECTION
  2
HEADER
  9
$ACADVER
  1
AC1012
  9
$DWGCODEPAGE
  3
ansi_1252
  9
$INSBASE
 10
0.0
 20
0.0
 30
0.0
  9
$EXTMIN
 10
-0.612403
 20
-142.5
 30
0.0
  9
$EXTMAX
 10
111.207107
 20
-1.174469
 30
0.0
  9
$LIMMIN
 10
0.0
 20
0.0
  9
$LIMMAX
 10
12.0
 20
9.0
  9
$ORTHOMODE
 70
     1
  9
$REGENMODE
 70
     1
  9
$FILLMODE
 70
     1
  9
$QTEXTMODE
 70
     0
  9
$MIRRTEXT
 70
     1
  9
$DRAGMODE
 70
     2
  9
$LTSCALE
 40
1.0
  9
$OSMODE
 70
    37
  9
$ATTMODE
 70
     1
  9
$TEXTSIZE
 40
0.2
  9
$TRACEWID
 40
0.05
  9
$TEXTSTYLE
  7
STANDARD
  9
$CLAYER
  8
0
  9
$CELTYPE
  6
BYLAYER
  9
$CECOLOR
 62
   256
  9
$CELTSCALE
 40
1.0
  9
$DELOBJ
 70
     1
  9
$DISPSILH
 70
     0
  9
$DIMSCALE
 40
1.0
  9
$DIMASZ
 40
0.18
  9
$DIMEXO
 40
0.0625
  9
$DIMDLI
 40
0.38
  9
$DIMRND
 40
0.0
  9
$DIMDLE
 40
0.0
  9
$DIMEXE
 40
0.18
  9
$DIMTP
 40
0.0
  9
$DIMTM
 40
0.0
  9
$DIMTXT
 40
0.18
  9
$DIMCEN
 40
0.09
  9
$DIMTSZ
 40
0.0
  9
$DIMTOL
 70
     0
  9
$DIMLIM
 70
     0
  9
$DIMTIH
 70
     1
  9
$DIMTOH
 70
     1
  9
$DIMSE1
 70
     0
  9
$DIMSE2
 70
     0
  9
$DIMTAD
 70
     0
  9
$DIMZIN
 70
     0
  9
$DIMBLK
  1

  9
$DIMASO
 70
     1
  9
$DIMSHO
 70
     1
  9
$DIMPOST
  1

  9
$DIMAPOST
  1

  9
$DIMALT
 70
     0
  9
$DIMALTD
 70
     2
  9
$DIMALTF
 40
25.4
  9
$DIMLFAC
 40
1.0
  9
$DIMTOFL
 70
     0
  9
$DIMTVP
 40
0.0
  9
$DIMTIX
 70
     0
  9
$DIMSOXD
 70
     0
  9
$DIMSAH
 70
     0
  9
$DIMBLK1
  1

  9
$DIMBLK2
  1

  9
$DIMSTYLE
  2
STANDARD
  9
$DIMCLRD
 70
     0
  9
$DIMCLRE
 70
     0
  9
$DIMCLRT
 70
     0
  9
$DIMTFAC
 40
1.0
  9
$DIMGAP
 40
0.09
  9
$DIMJUST
 70
     0
  9
$DIMSD1
 70
     0
  9
$DIMSD2
 70
     0
  9
$DIMTOLJ
 70
     1
  9
$DIMTZIN
 70
     0
  9
$DIMALTZ
 70
     0
  9
$DIMALTTZ
 70
     0
  9
$DIMFIT
 70
     3
  9
$DIMUPT
 70
     0
  9
$DIMUNIT
 70
     2
  9
$DIMDEC
 70
     4
  9
$DIMTDEC
 70
     4
  9
$DIMALTU
 70
     2
  9
$DIMALTTD
 70
     2
  9
$DIMTXSTY
  7
STANDARD
  9
$DIMAUNIT
 70
     0
  9
$LUNITS
 70
     2
  9
$LUPREC
 70
     4
  9
$SKETCHINC
 40
0.1
  9
$FILLETRAD
 40
0.0
  9
$AUNITS
 70
     0
  9
$AUPREC
 70
     0
  9
$MENU
  1
acad
  9
$ELEVATION
 40
0.0
  9
$PELEVATION
 40
0.0
  9
$THICKNESS
 40
0.0
  9
$LIMCHECK
 70
     0
  9
$CHAMFERA
 40
0.0
  9
$CHAMFERB
 40
0.0
  9
$CHAMFERC
 40
0.0
  9
$CHAMFERD
 40
0.0
  9
$SKPOLY
 70
     0
  9
$TDCREATE
 40
2447893.083333334
  9
$TDUPDATE
 40
2447893.083333334
  9
$TDINDWG
 40
0.0032033565
  9
$TDUSRTIMER
 40
0.0032033565
  9
$USRTIMER
 70
     1
  9
$ANGBASE
 50
0.0
  9
$ANGDIR
 70
     0
  9
$PDMODE
 70
     0
  9
$PDSIZE
 40
0.0
  9
$PLINEWID
 40
0.0
  9
$COORDS
 70
     1
  9
$SPLFRAME
 70
     0
  9
$SPLINETYPE
 70
     6
  9
$SPLINESEGS
 70
     8
  9
$ATTDIA
 70
     0
  9
$ATTREQ
 70
     1
  9
$HANDLING
 70
     1
  9
$HANDSEED
  5
5CC
  9
$SURFTAB1
 70
     6
  9
$SURFTAB2
 70
     6
  9
$SURFTYPE
 70
     6
  9
$SURFU
 70
     6
  9
$SURFV
 70
     6
  9
$UCSNAME
  2

  9
$UCSORG
 10
0.0
 20
0.0
 30
0.0
  9
$UCSXDIR
 10
1.0
 20
0.0
 30
0.0
  9
$UCSYDIR
 10
0.0
 20
1.0
 30
0.0
  9
$PUCSNAME
  2

  9
$PUCSORG
 10
0.0
 20
0.0
 30
0.0
  9
$PUCSXDIR
 10
1.0
 20
0.0
 30
0.0
  9
$PUCSYDIR
 10
0.0
 20
1.0
 30
0.0
  9
$USERI1
 70
     0
  9
$USERI2
 70
     0
  9
$USERI3
 70
     0
  9
$USERI4
 70
     0
  9
$USERI5
 70
     0
  9
$USERR1
 40
0.0
  9
$USERR2
 40
0.0
  9
$USERR3
 40
0.0
  9
$USERR4
 40
0.0
  9
$USERR5
 40
0.0
  9
$WORLDVIEW
 70
     1
  9
$SHADEDGE
 70
     3
  9
$SHADEDIF
 70
    70
  9
$TILEMODE
 70
     1
  9
$MAXACTVP
 70
    16
  9
$PINSBASE
 10
0.0
 20
0.0
 30
0.0
  9
$PLIMCHECK
 70
     0
  9
$PEXTMIN
 10
1.000000000000000E+20
 20
1.000000000000000E+20
 30
1.000000000000000E+20
  9
$PEXTMAX
 10
-1.000000000000000E+20
 20
-1.000000000000000E+20
 30
-1.000000000000000E+20
  9
$PLIMMIN
 10
0.0
 20
0.0
  9
$PLIMMAX
 10
12.0
 20
9.0
  9
$UNITMODE
 70
     0
  9
$VISRETAIN
 70
     0
  9
$PLINEGEN
 70
     0
  9
$PSLTSCALE
 70
     1
  9
$TREEDEPTH
 70
  3020
  9
$PICKSTYLE
 70
     1
  9
$CMLSTYLE
  2
STANDARD
  9
$CMLJUST
 70
     0
  9
$CMLSCALE
 40
1.0
  9
$SAVEIMAGES
 70
     1
  0
ENDSEC
  0
SECTION
  2
CLASSES
  0
CLASS
  1
XRECORD
  2
AcDbXrecord
  3
AutoCAD 2000
 90
    32768
280
     0
281
     0
  0
CLASS
  1
LWPOLYLINE
  2
AcDbPolyline
  3
AutoCAD 2000
 90
    32768
280
     0
281
     1
  0
CLASS
  1
HATCH
  2
AcDbHatch
  3
AutoCAD 2000
 90
    32768
280
     0
281
     1
  0
CLASS
  1
ACDBPLACEHOLDER
  2
AcDbPlaceHolder
  3
ObjectDBX Classes
 90
        0
280
     0
281
     0
  0
CLASS
  1
LAYOUT
  2
AcDbLayout
  3
ObjectDBX Classes
 90
        0
280
     0
281
     0
  0
ENDSEC
  0
SECTION
  2
TABLES
  0
TABLE
  2
VPORT
  5
8
330
0
100
AcDbSymbolTable
 70
     1
  0
VPORT
  5
381
102
{ACAD_XDICTIONARY
360
5CA
102
}
330
8
100
AcDbSymbolTableRecord
100
AcDbViewportTableRecord
  2
*ACTIVE
 70
     0
 10
0.0
 20
0.0
 11
1.0
 21
1.0
 12
144.974282
 22
-67.01031399999999
 13
0.0
 23
0.0
 14
1.0
 24
1.0
 15
0.0
 25
0.0
 16
0.0
 26
0.0
 36
1.0
 17
0.0
 27
0.0
 37
0.0
 40
304.041258
 41
1.915354
 42
50.0
 43
0.0
 44
0.0
 50
0.0
 51
0.0
 71
     0
 72
   100
 73
     1
 74
     1
 75
     0
 76
     0
 77
     0
 78
     0
  0
ENDTAB
  0
TABLE
  2
LTYPE
  5
5
330
0
100
AcDbSymbolTable
 70
     1
  0
LTYPE
  5
14
330
5
100
AcDbSymbolTableRecord
100
AcDbLinetypeTableRecord
  2
BYBLOCK
 70
     0
  3

 72
    65
 73
     0
 40
0.0
  0
LTYPE
  5
15
330
5
100
AcDbSymbolTableRecord
100
AcDbLinetypeTableRecord
  2
BYLAYER
 70
     0
  3

 72
    65
 73
     0
 40
0.0
  0
LTYPE
  5
16
330
5
100
AcDbSymbolTableRecord
100
AcDbLinetypeTableRecord
  2
CONTINUOUS
 70
     0
  3
Solid line
 72
    65
 73
     0
 40
0.0
  0
ENDTAB
  0
TABLE
  2
LAYER
  5
2
330
0
100
AcDbSymbolTable
 70
     2
  0
LAYER
  5
F
330
2
100
AcDbSymbolTableRecord
100
AcDbLayerTableRecord
  2
0
 70
     0
 62
     7
  6
CONTINUOUS
  0
LAYER
  5
28
330
2
100
AcDbSymbolTableRecord
100
AcDbLayerTableRecord
  2
GUIDE
 70
     0
 62
     7
  6
CONTINUOUS
  0
ENDTAB
  0
TABLE
  2
STYLE
  5
3
330
0
100
AcDbSymbolTable
 70
     1
  0
STYLE
  5
10
330
3
100
AcDbSymbolTableRecord
100
AcDbTextStyleTableRecord
  2
STANDARD
 70
     0
 40
0.0
 41
1.0
 50
0.0
 71
     0
 42
0.2
  3
txt
  4

  0
ENDTAB
  0
TABLE
  2
VIEW
  5
6
330
0
100
AcDbSymbolTable
 70
     0
  0
ENDTAB
  0
TABLE
  2
UCS
  5
7
330
0
100
AcDbSymbolTable
 70
     0
  0
ENDTAB
  0
TABLE
  2
APPID
  5
9
330
0
100
AcDbSymbolTable
 70
     1
  0
APPID
  5
11
330
9
100
AcDbSymbolTableRecord
100
AcDbRegAppTableRecord
  2
ACAD
 70
     0
  0
ENDTAB
  0
TABLE
  2
DIMSTYLE
  5
A
330
0
100
AcDbSymbolTable
 70
     1
  0
DIMSTYLE
105
1D
330
A
100
AcDbSymbolTableRecord
100
AcDbDimStyleTableRecord
  2
STANDARD
 70
     0
  3

  4

  5

  6

  7

 40
1.0
 41
0.18
 42
0.0625
 43
0.38
 44
0.18
 45
0.0
 46
0.0
 47
0.0
 48
0.0
140
0.18
141
0.09
142
0.0
143
25.4
144
1.0
145
0.0
146
1.0
147
0.09
 71
     0
 72
     0
 73
     1
 74
     1
 75
     0
 76
     0
 77
     0
 78
     0
170
     0
171
     2
172
     0
173
     0
174
     0
175
     0
176
     0
177
     0
178
     0
270
     2
271
     4
272
     4
273
     2
274
     2
340
10
275
     0
280
     0
281
     0
282
     0
283
     1
284
     0
285
     0
286
     0
287
     3
288
     0
  0
ENDTAB
  0
TABLE
  2
BLOCK_RECORD
  5
1
330
0
100
AcDbSymbolTable
 70
     0
  0
BLOCK_RECORD
  5
1A
330
1
100
AcDbSymbolTableRecord
100
AcDbBlockTableRecord
  2
*MODEL_SPACE
  0
BLOCK_RECORD
  5
17
330
1
100
AcDbSymbolTableRecord
100
AcDbBlockTableRecord
  2
*PAPER_SPACE
  0
ENDTAB
  0
ENDSEC
  0
SECTION
  2
BLOCKS
  0
BLOCK
  5
1B
330
1A
100
AcDbEntity
  8
0
100
AcDbBlockBegin
  2
*MODEL_SPACE
 70
     0
 71
     0
 10
0.0
 20
0.0
 30
0.0
  3
*MODEL_SPACE
  1

  0
ENDBLK
  5
1C
330
1A
100
AcDbEntity
  8
0
100
AcDbBlockEnd
  0
BLOCK
  5
18
330
17
100
AcDbEntity
 67
     1
  8
0
100
AcDbBlockBegin
  2
*PAPER_SPACE
 70
     0
 71
     0
 10
0.0
 20
0.0
 30
0.0
  3
*PAPER_SPACE
  1

  0
ENDBLK
  5
19
330
17
100
AcDbEntity
 67
     1
  8
0
100
AcDbBlockEnd
  0
ENDSEC
  0
SECTION
  2
ENTITIES
  0
LINE
  5
1DE
330
1A
100
AcDbEntity
  8
GUIDE
100
AcDbLine
 10
0.0
 20
-135.5
 30
0.0
 11
1.0
 21
-135.5
 31
0.0
  0
LINE
  5
1DF
330
1A
100
AcDbEntity
  8
GUIDE
100
AcDbLine
 10
0.0
 20
-100.0
 30
0.0
 11
0.0
 21
-106.0
 31
0.0
  0
LINE
  5
1E0
330
1A
100
AcDbEntity
  8
GUIDE
100
AcDbLine
 10
0.0
 20
-100.0
 30
0.0
 11
1.8
 21
-100.0
 31
0.0
  0
LINE
  5
1E1
330
1A
100
AcDbEntity
  8
GUIDE
100
AcDbLine
 10
0.0
 20
-106.0
 30
0.0
 11
1.8
 21
-106.0
 31
0.0
  0
LINE
  5
1E2
330
1A
100
AcDbEntity
  8
GUIDE
100
AcDbLine
 10
0.0
 20
-94.0
 30
0.0
 11
0.0
 21
-69.0
 31
0.0
  0
LINE
  5
1E3
330
1A
100
AcDbEntity
  8
GUIDE
100
AcDbLine
 10
1.8
 20
-94.0
 30
0.0
 11
0.0
 21
-94.0
 31
0.0
  0
LINE
  5
1E4
330
1A
100
AcDbEntity
  8
GUIDE
100
AcDbLine
 10
1.8
 20
-69.0
 30
0.0
 11
0.0
 21
-69.0
 31
0.0
  0
LINE
  5
1E5
330
1A
100
AcDbEntity
  8
GUIDE
100
AcDbLine
 10
0.0
 20
-131.0
 30
0.0
 11
0.0
 21
-135.5
 31
0.0
  0
LINE
  5
1E6
330
1A
100
AcDbEntity
  8
GUIDE
100
AcDbLine
 10
1.8
 20
-131.0
 30
0.0
 11
0.0
 21
-131.0
 31
0.0
  0
LINE
  5
1E7
330
1A
100
AcDbEntity
  8
GUIDE
100
AcDbLine
 10
11.4
 20
-64.5
 30
0.0
 11
6.4
 21
-64.5
 31
0.0
  0
LINE
  5
1E8
330
1A
100
AcDbEntity
  8
GUIDE
100
AcDbLine
 10
31.6
 20
-135.5
 30
0.0
 11
36.6
 21
-135.5
 31
0.0
  0
POLYLINE
  5
1E9
330
1A
100
AcDbEntity
  8
GUIDE
100
AcDb2dPolyline
 66
     1
 10
0.0
 20
0.0
 30
0.0
 70
     1
  0
VERTEX
  5
4BC
330
1E9
100
AcDbEntity
  8
GUIDE
100
AcDbVertex
100
AcDb2dVertex
 10
3.4
 20
-132.5
 30
0.0
  0
VERTEX
  5
4BD
330
1E9
100
AcDbEntity
  8
GUIDE
100
AcDbVertex
100
AcDb2dVertex
 10
3.4
 20
-124.928571
 30
0.0
 42
-0.414214
  0
VERTEX
  5
4BE
330
1E9
100
AcDbEntity
  8
GUIDE
100
AcDbVertex
100
AcDb2dVertex
 10
4.4
 20
-123.928571
 30
0.0
  0
VERTEX
  5
4BF
330
1E9
100
AcDbEntity
  8
GUIDE
100
AcDbVertex
100
AcDb2dVertex
 10
13.4
 20
-123.928571
 30
0.0
 42
-0.414214
  0
VERTEX
  5
4C0
330
1E9
100
AcDbEntity
  8
GUIDE
100
AcDbVertex
100
AcDb2dVertex
 10
14.4
 20
-124.928571
 30
0.0
  0
VERTEX
  5
4C1
330
1E9
100
AcDbEntity
  8
GUIDE
100
AcDbVertex
100
AcDb2dVertex
 10
14.4
 20
-132.5
 30
0.0
 42
-0.414214
  0
VERTEX
  5
4C2
330
1E9
100
AcDbEntity
  8
GUIDE
100
AcDbVertex
100
AcDb2dVertex
 10
13.4
 20
-133.5
 30
0.0
  0
VERTEX
  5
4C3
330
1E9
100
AcDbEntity
  8
GUIDE
100
AcDbVertex
100
AcDb2dVertex
 10
4.4
 20
-133.5
 30
0.0
 42
-0.414214
  0
SEQEND
  5
4BB
330
1E9
100
AcDbEntity
  8
GUIDE
  0
POLYLINE
  5
1F3
330
1A
100
AcDbEntity
  8
GUIDE
100
AcDb2dPolyline
 66
     1
 10
0.0
 20
0.0
 30
0.0
 70
     1
  0
VERTEX
  5
4C5
330
1F3
100
AcDbEntity
  8
GUIDE
100
AcDbVertex
100
AcDb2dVertex
 10
28.6
 20
-132.5
 30
0.0
  0
VERTEX
  5
4C6
330
1F3
100
AcDbEntity
  8
GUIDE
100
AcDbVertex
100
AcDb2dVertex
 10
28.6
 20
-124.928571
 30
0.0
 42
-0.414214
  0
VERTEX
  5
4C7
330
1F3
100
AcDbEntity
  8
GUIDE
100
AcDbVertex
100
AcDb2dVertex
 10
29.6
 20
-123.928571
 30
0.0
  0
VERTEX
  5
4C8
330
1F3
100
AcDbEntity
  8
GUIDE
100
AcDbVertex
100
AcDb2dVertex
 10
38.6
 20
-123.928571
 30
0.0
 42
-0.414214
  0
VERTEX
  5
4C9
330
1F3
100
AcDbEntity
  8
GUIDE
100
AcDbVertex
100
AcDb2dVertex
 10
39.6
 20
-124.928571
 30
0.0
  0
VERTEX
  5
4CA
330
1F3
100
AcDbEntity
  8
GUIDE
100
AcDbVertex
100
AcDb2dVertex
 10
39.6
 20
-132.5
 30
0.0
 42
-0.414214
  0
VERTEX
  5
4CB
330
1F3
100
AcDbEntity
  8
GUIDE
100
AcDbVertex
100
AcDb2dVertex
 10
38.6
 20
-133.5
 30
0.0
  0
VERTEX
  5
4CC
330
1F3
100
AcDbEntity
  8
GUIDE
100
AcDbVertex
100
AcDb2dVertex
 10
29.6
 20
-133.5
 30
0.0
 42
-0.414214
  0
SEQEND
  5
4C4
330
1F3
100
AcDbEntity
  8
GUIDE
  0
POLYLINE
  5
1FD
330
1A
100
AcDbEntity
  8
GUIDE
100
AcDb2dPolyline
 66
     1
 10
0.0
 20
0.0
 30
0.0
 70
     1
  0
VERTEX
  5
4CE
330
1FD
100
AcDbEntity
  8
GUIDE
100
AcDbVertex
100
AcDb2dVertex
 10
3.4
 20
-122.928571
 30
0.0
  0
VERTEX
  5
4CF
330
1FD
100
AcDbEntity
  8
GUIDE
100
AcDbVertex
100
AcDb2dVertex
 10
3.4
 20
-115.357143
 30
0.0
 42
-0.414214
  0
VERTEX
  5
4D0
330
1FD
100
AcDbEntity
  8
GUIDE
100
AcDbVertex
100
AcDb2dVertex
 10
4.4
 20
-114.357143
 30
0.0
  0
VERTEX
  5
4D1
330
1FD
100
AcDbEntity
  8
GUIDE
100
AcDbVertex
100
AcDb2dVertex
 10
13.4
 20
-114.357143
 30
0.0
 42
-0.414214
  0
VERTEX
  5
4D2
330
1FD
100
AcDbEntity
  8
GUIDE
100
AcDbVertex
100
AcDb2dVertex
 10
14.4
 20
-115.357143
 30
0.0
  0
VERTEX
  5
4D3
330
1FD
100
AcDbEntity
  8
GUIDE
100
AcDbVertex
100
AcDb2dVertex
 10
14.4
 20
-122.928571
 30
0.0
 42
-0.414214
  0
VERTEX
  5
4D4
330
1FD
100
AcDbEntity
  8
GUIDE
100
AcDbVertex
100
AcDb2dVertex
 10
13.4
 20
-123.928571
 30
0.0
  0
VERTEX
  5
4D5
330
1FD
100
AcDbEntity
  8
GUIDE
100
AcDbVertex
100
AcDb2dVertex
 10
4.4
 20
-123.928571
 30
0.0
 42
-0.414214
  0
SEQEND
  5
4CD
330
1FD
100
AcDbEntity
  8
GUIDE
  0
POLYLINE
  5
207
330
1A
100
AcDbEntity
  8
GUIDE
100
AcDb2dPolyline
 66
     1
 10
0.0
 20
0.0
 30
0.0
 70
     1
  0
VERTEX
  5
4D7
330
207
100
AcDbEntity
  8
GUIDE
100
AcDbVertex
100
AcDb2dVertex
 10
28.6
 20
-122.928571
 30
0.0
  0
VERTEX
  5
4D8
330
207
100
AcDbEntity
  8
GUIDE
100
AcDbVertex
100
AcDb2dVertex
 10
28.6
 20
-115.357143
 30
0.0
 42
-0.414214
  0
VERTEX
  5
4D9
330
207
100
AcDbEntity
  8
GUIDE
100
AcDbVertex
100
AcDb2dVertex
 10
29.6
 20
-114.357143
 30
0.0
  0
VERTEX
  5
4DA
330
207
100
AcDbEntity
  8
GUIDE
100
AcDbVertex
100
AcDb2dVertex
 10
38.6
 20
-114.357143
 30
0.0
 42
-0.414214
  0
VERTEX
  5
4DB
330
207
100
AcDbEntity
  8
GUIDE
100
AcDbVertex
100
AcDb2dVertex
 10
39.6
 20
-115.357143
 30
0.0
  0
VERTEX
  5
4DC
330
207
100
AcDbEntity
  8
GUIDE
100
AcDbVertex
100
AcDb2dVertex
 10
39.6
 20
-122.928571
 30
0.0
 42
-0.414214
  0
VERTEX
  5
4DD
330
207
100
AcDbEntity
  8
GUIDE
100
AcDbVertex
100
AcDb2dVertex
 10
38.6
 20
-123.928571
 30
0.0
  0
VERTEX
  5
4DE
330
207
100
AcDbEntity
  8
GUIDE
100
AcDbVertex
100
AcDb2dVertex
 10
29.6
 20
-123.928571
 30
0.0
 42
-0.414214
  0
SEQEND
  5
4D6
330
207
100
AcDbEntity
  8
GUIDE
  0
POLYLINE
  5
211
330
1A
100
AcDbEntity
  8
GUIDE
100
AcDb2dPolyline
 66
     1
 10
0.0
 20
0.0
 30
0.0
 70
     1
  0
VERTEX
  5
4E0
330
211
100
AcDbEntity
  8
GUIDE
100
AcDbVertex
100
AcDb2dVertex
 10
3.4
 20
-113.357143
 30
0.0
  0
VERTEX
  5
4E1
330
211
100
AcDbEntity
  8
GUIDE
100
AcDbVertex
100
AcDb2dVertex
 10
3.4
 20
-105.785714
 30
0.0
 42
-0.414214
  0
VERTEX
  5
4E2
330
211
100
AcDbEntity
  8
GUIDE
100
AcDbVertex
100
AcDb2dVertex
 10
4.4
 20
-104.785714
 30
0.0
  0
VERTEX
  5
4E3
330
211
100
AcDbEntity
  8
GUIDE
100
AcDbVertex
100
AcDb2dVertex
 10
13.4
 20
-104.785714
 30
0.0
 42
-0.414214
  0
VERTEX
  5
4E4
330
211
100
AcDbEntity
  8
GUIDE
100
AcDbVertex
100
AcDb2dVertex
 10
14.4
 20
-105.785714
 30
0.0
  0
VERTEX
  5
4E5
330
211
100
AcDbEntity
  8
GUIDE
100
AcDbVertex
100
AcDb2dVertex
 10
14.4
 20
-113.357143
 30
0.0
 42
-0.414214
  0
VERTEX
  5
4E6
330
211
100
AcDbEntity
  8
GUIDE
100
AcDbVertex
100
AcDb2dVertex
 10
13.4
 20
-114.357143
 30
0.0
  0
VERTEX
  5
4E7
330
211
100
AcDbEntity
  8
GUIDE
100
AcDbVertex
100
AcDb2dVertex
 10
4.4
 20
-114.357143
 30
0.0
 42
-0.414214
  0
SEQEND
  5
4DF
330
211
100
AcDbEntity
  8
GUIDE
  0
POLYLINE
  5
21B
330
1A
100
AcDbEntity
  8
GUIDE
100
AcDb2dPolyline
 66
     1
 10
0.0
 20
0.0
 30
0.0
 70
     1
  0
VERTEX
  5
4E9
330
21B
100
AcDbEntity
  8
GUIDE
100
AcDbVertex
100
AcDb2dVertex
 10
28.6
 20
-113.357143
 30
0.0
  0
VERTEX
  5
4EA
330
21B
100
AcDbEntity
  8
GUIDE
100
AcDbVertex
100
AcDb2dVertex
 10
28.6
 20
-105.785714
 30
0.0
 42
-0.414214
  0
VERTEX
  5
4EB
330
21B
100
AcDbEntity
  8
GUIDE
100
AcDbVertex
100
AcDb2dVertex
 10
29.6
 20
-104.785714
 30
0.0
  0
VERTEX
  5
4EC
330
21B
100
AcDbEntity
  8
GUIDE
100
AcDbVertex
100
AcDb2dVertex
 10
38.6
 20
-104.785714
 30
0.0
 42
-0.414214
  0
VERTEX
  5
4ED
330
21B
100
AcDbEntity
  8
GUIDE
100
AcDbVertex
100
AcDb2dVertex
 10
39.6
 20
-105.785714
 30
0.0
  0
VERTEX
  5
4EE
330
21B
100
AcDbEntity
  8
GUIDE
100
AcDbVertex
100
AcDb2dVertex
 10
39.6
 20
-113.357143
 30
0.0
 42
-0.414214
  0
VERTEX
  5
4EF
330
21B
100
AcDbEntity
  8
GUIDE
100
AcDbVertex
100
AcDb2dVertex
 10
38.6
 20
-114.357143
 30
0.0
  0
VERTEX
  5
4F0
330
21B
100
AcDbEntity
  8
GUIDE
100
AcDbVertex
100
AcDb2dVertex
 10
29.6
 20
-114.357143
 30
0.0
 42
-0.414214
  0
SEQEND
  5
4E8
330
21B
100
AcDbEntity
  8
GUIDE
  0
POLYLINE
  5
225
330
1A
100
AcDbEntity
  8
GUIDE
100
AcDb2dPolyline
 66
     1
 10
0.0
 20
0.0
 30
0.0
 70
     1
  0
VERTEX
  5
4F2
330
225
100
AcDbEntity
  8
GUIDE
100
AcDbVertex
100
AcDb2dVertex
 10
3.4
 20
-103.785714
 30
0.0
  0
VERTEX
  5
4F3
330
225
100
AcDbEntity
  8
GUIDE
100
AcDbVertex
100
AcDb2dVertex
 10
3.4
 20
-96.214286
 30
0.0
 42
-0.414214
  0
VERTEX
  5
4F4
330
225
100
AcDbEntity
  8
GUIDE
100
AcDbVertex
100
AcDb2dVertex
 10
4.4
 20
-95.214286
 30
0.0
  0
VERTEX
  5
4F5
330
225
100
AcDbEntity
  8
GUIDE
100
AcDbVertex
100
AcDb2dVertex
 10
13.4
 20
-95.214286
 30
0.0
 42
-0.414214
  0
VERTEX
  5
4F6
330
225
100
AcDbEntity
  8
GUIDE
100
AcDbVertex
100
AcDb2dVertex
 10
14.4
 20
-96.214286
 30
0.0
  0
VERTEX
  5
4F7
330
225
100
AcDbEntity
  8
GUIDE
100
AcDbVertex
100
AcDb2dVertex
 10
14.4
 20
-103.785714
 30
0.0
 42
-0.414214
  0
VERTEX
  5
4F8
330
225
100
AcDbEntity
  8
GUIDE
100
AcDbVertex
100
AcDb2dVertex
 10
13.4
 20
-104.785714
 30
0.0
  0
VERTEX
  5
4F9
330
225
100
AcDbEntity
  8
GUIDE
100
AcDbVertex
100
AcDb2dVertex
 10
4.4
 20
-104.785714
 30
0.0
 42
-0.414214
  0
SEQEND
  5
4F1
330
225
100
AcDbEntity
  8
GUIDE
  0
POLYLINE
  5
22F
330
1A
100
AcDbEntity
  8
GUIDE
100
AcDb2dPolyline
 66
     1
 10
0.0
 20
0.0
 30
0.0
 70
     1
  0
VERTEX
  5
4FB
330
22F
100
AcDbEntity
  8
GUIDE
100
AcDbVertex
100
AcDb2dVertex
 10
28.6
 20
-103.785714
 30
0.0
  0
VERTEX
  5
4FC
330
22F
100
AcDbEntity
  8
GUIDE
100
AcDbVertex
100
AcDb2dVertex
 10
28.6
 20
-96.214286
 30
0.0
 42
-0.414214
  0
VERTEX
  5
4FD
330
22F
100
AcDbEntity
  8
GUIDE
100
AcDbVertex
100
AcDb2dVertex
 10
29.6
 20
-95.214286
 30
0.0
  0
VERTEX
  5
4FE
330
22F
100
AcDbEntity
  8
GUIDE
100
AcDbVertex
100
AcDb2dVertex
 10
38.6
 20
-95.214286
 30
0.0
 42
-0.414214
  0
VERTEX
  5
4FF
330
22F
100
AcDbEntity
  8
GUIDE
100
AcDbVertex
100
AcDb2dVertex
 10
39.6
 20
-96.214286
 30
0.0
  0
VERTEX
  5
500
330
22F
100
AcDbEntity
  8
GUIDE
100
AcDbVertex
100
AcDb2dVertex
 10
39.6
 20
-103.785714
 30
0.0
 42
-0.414214
  0
VERTEX
  5
501
330
22F
100
AcDbEntity
  8
GUIDE
100
AcDbVertex
100
AcDb2dVertex
 10
38.6
 20
-104.785714
 30
0.0
  0
VERTEX
  5
502
330
22F
100
AcDbEntity
  8
GUIDE
100
AcDbVertex
100
AcDb2dVertex
 10
29.6
 20
-104.785714
 30
0.0
 42
-0.414214
  0
SEQEND
  5
4FA
330
22F
100
AcDbEntity
  8
GUIDE
  0
POLYLINE
  5
239
330
1A
100
AcDbEntity
  8
GUIDE
100
AcDb2dPolyline
 66
     1
 10
0.0
 20
0.0
 30
0.0
 70
     1
  0
VERTEX
  5
504
330
239
100
AcDbEntity
  8
GUIDE
100
AcDbVertex
100
AcDb2dVertex
 10
3.4
 20
-94.214286
 30
0.0
  0
VERTEX
  5
505
330
239
100
AcDbEntity
  8
GUIDE
100
AcDbVertex
100
AcDb2dVertex
 10
3.4
 20
-86.64285700000001
 30
0.0
 42
-0.414214
  0
VERTEX
  5
506
330
239
100
AcDbEntity
  8
GUIDE
100
AcDbVertex
100
AcDb2dVertex
 10
4.4
 20
-85.64285700000001
 30
0.0
  0
VERTEX
  5
507
330
239
100
AcDbEntity
  8
GUIDE
100
AcDbVertex
100
AcDb2dVertex
 10
13.4
 20
-85.64285700000001
 30
0.0
 42
-0.414214
  0
VERTEX
  5
508
330
239
100
AcDbEntity
  8
GUIDE
100
AcDbVertex
100
AcDb2dVertex
 10
14.4
 20
-86.64285700000001
 30
0.0
  0
VERTEX
  5
509
330
239
100
AcDbEntity
  8
GUIDE
100
AcDbVertex
100
AcDb2dVertex
 10
14.4
 20
-94.214286
 30
0.0
 42
-0.414214
  0
VERTEX
  5
50A
330
239
100
AcDbEntity
  8
GUIDE
100
AcDbVertex
100
AcDb2dVertex
 10
13.4
 20
-95.214286
 30
0.0
  0
VERTEX
  5
50B
330
239
100
AcDbEntity
  8
GUIDE
100
AcDbVertex
100
AcDb2dVertex
 10
4.4
 20
-95.214286
 30
0.0
 42
-0.414214
  0
SEQEND
  5
503
330
239
100
AcDbEntity
  8
GUIDE
  0
POLYLINE
  5
243
330
1A
100
AcDbEntity
  8
GUIDE
100
AcDb2dPolyline
 66
     1
 10
0.0
 20
0.0
 30
0.0
 70
     1
  0
VERTEX
  5
50D
330
243
100
AcDbEntity
  8
GUIDE
100
AcDbVertex
100
AcDb2dVertex
 10
28.6
 20
-94.214286
 30
0.0
  0
VERTEX
  5
50E
330
243
100
AcDbEntity
  8
GUIDE
100
AcDbVertex
100
AcDb2dVertex
 10
28.6
 20
-86.64285700000001
 30
0.0
 42
-0.414214
  0
VERTEX
  5
50F
330
243
100
AcDbEntity
  8
GUIDE
100
AcDbVertex
100
AcDb2dVertex
 10
29.6
 20
-85.64285700000001
 30
0.0
  0
VERTEX
  5
510
330
243
100
AcDbEntity
  8
GUIDE
100
AcDbVertex
100
AcDb2dVertex
 10
38.6
 20
-85.64285700000001
 30
0.0
 42
-0.414214
  0
VERTEX
  5
511
330
243
100
AcDbEntity
  8
GUIDE
100
AcDbVertex
100
AcDb2dVertex
 10
39.6
 20
-86.64285700000001
 30
0.0
  0
VERTEX
  5
512
330
243
100
AcDbEntity
  8
GUIDE
100
AcDbVertex
100
AcDb2dVertex
 10
39.6
 20
-94.214286
 30
0.0
 42
-0.414214
  0
VERTEX
  5
513
330
243
100
AcDbEntity
  8
GUIDE
100
AcDbVertex
100
AcDb2dVertex
 10
38.6
 20
-95.214286
 30
0.0
  0
VERTEX
  5
514
330
243
100
AcDbEntity
  8
GUIDE
100
AcDbVertex
100
AcDb2dVertex
 10
29.6
 20
-95.214286
 30
0.0
 42
-0.414214
  0
SEQEND
  5
50C
330
243
100
AcDbEntity
  8
GUIDE
  0
POLYLINE
  5
24D
330
1A
100
AcDbEntity
  8
GUIDE
100
AcDb2dPolyline
 66
     1
 10
0.0
 20
0.0
 30
0.0
 70
     1
  0
VERTEX
  5
516
330
24D
100
AcDbEntity
  8
GUIDE
100
AcDbVertex
100
AcDb2dVertex
 10
3.4
 20
-84.64285700000001
 30
0.0
  0
VERTEX
  5
517
330
24D
100
AcDbEntity
  8
GUIDE
100
AcDbVertex
100
AcDb2dVertex
 10
3.4
 20
-77.071429
 30
0.0
 42
-0.414214
  0
VERTEX
  5
518
330
24D
100
AcDbEntity
  8
GUIDE
100
AcDbVertex
100
AcDb2dVertex
 10
4.4
 20
-76.071429
 30
0.0
  0
VERTEX
  5
519
330
24D
100
AcDbEntity
  8
GUIDE
100
AcDbVertex
100
AcDb2dVertex
 10
13.4
 20
-76.071429
 30
0.0
 42
-0.414214
  0
VERTEX
  5
51A
330
24D
100
AcDbEntity
  8
GUIDE
100
AcDbVertex
100
AcDb2dVertex
 10
14.4
 20
-77.071429
 30
0.0
  0
VERTEX
  5
51B
330
24D
100
AcDbEntity
  8
GUIDE
100
AcDbVertex
100
AcDb2dVertex
 10
14.4
 20
-84.64285700000001
 30
0.0
 42
-0.414214
  0
VERTEX
  5
51C
330
24D
100
AcDbEntity
  8
GUIDE
100
AcDbVertex
100
AcDb2dVertex
 10
13.4
 20
-85.64285700000001
 30
0.0
  0
VERTEX
  5
51D
330
24D
100
AcDbEntity
  8
GUIDE
100
AcDbVertex
100
AcDb2dVertex
 10
4.4
 20
-85.64285700000001
 30
0.0
 42
-0.414214
  0
SEQEND
  5
515
330
24D
100
AcDbEntity
  8
GUIDE
  0
POLYLINE
  5
257
330
1A
100
AcDbEntity
  8
GUIDE
100
AcDb2dPolyline
 66
     1
 10
0.0
 20
0.0
 30
0.0
 70
     1
  0
VERTEX
  5
51F
330
257
100
AcDbEntity
  8
GUIDE
100
AcDbVertex
100
AcDb2dVertex
 10
28.6
 20
-84.64285700000001
 30
0.0
  0
VERTEX
  5
520
330
257
100
AcDbEntity
  8
GUIDE
100
AcDbVertex
100
AcDb2dVertex
 10
28.6
 20
-77.071429
 30
0.0
 42
-0.414214
  0
VERTEX
  5
521
330
257
100
AcDbEntity
  8
GUIDE
100
AcDbVertex
100
AcDb2dVertex
 10
29.6
 20
-76.071429
 30
0.0
  0
VERTEX
  5
522
330
257
100
AcDbEntity
  8
GUIDE
100
AcDbVertex
100
AcDb2dVertex
 10
38.6
 20
-76.071429
 30
0.0
 42
-0.414214
  0
VERTEX
  5
523
330
257
100
AcDbEntity
  8
GUIDE
100
AcDbVertex
100
AcDb2dVertex
 10
39.6
 20
-77.071429
 30
0.0
  0
VERTEX
  5
524
330
257
100
AcDbEntity
  8
GUIDE
100
AcDbVertex
100
AcDb2dVertex
 10
39.6
 20
-84.64285700000001
 30
0.0
 42
-0.414214
  0
VERTEX
  5
525
330
257
100
AcDbEntity
  8
GUIDE
100
AcDbVertex
100
AcDb2dVertex
 10
38.6
 20
-85.64285700000001
 30
0.0
  0
VERTEX
  5
526
330
257
100
AcDbEntity
  8
GUIDE
100
AcDbVertex
100
AcDb2dVertex
 10
29.6
 20
-85.64285700000001
 30
0.0
 42
-0.414214
  0
SEQEND
  5
51E
330
257
100
AcDbEntity
  8
GUIDE
  0
POLYLINE
  5
261
330
1A
100
AcDbEntity
  8
GUIDE
100
AcDb2dPolyline
 66
     1
 10
0.0
 20
0.0
 30
0.0
 70
     1
  0
VERTEX
  5
528
330
261
100
AcDbEntity
  8
GUIDE
100
AcDbVertex
100
AcDb2dVertex
 10
3.4
 20
-75.071429
 30
0.0
  0
VERTEX
  5
529
330
261
100
AcDbEntity
  8
GUIDE
100
AcDbVertex
100
AcDb2dVertex
 10
3.4
 20
-67.5
 30
0.0
 42
-0.414214
  0
VERTEX
  5
52A
330
261
100
AcDbEntity
  8
GUIDE
100
AcDbVertex
100
AcDb2dVertex
 10
4.4
 20
-66.5
 30
0.0
  0
VERTEX
  5
52B
330
261
100
AcDbEntity
  8
GUIDE
100
AcDbVertex
100
AcDb2dVertex
 10
13.4
 20
-66.5
 30
0.0
 42
-0.414214
  0
VERTEX
  5
52C
330
261
100
AcDbEntity
  8
GUIDE
100
AcDbVertex
100
AcDb2dVertex
 10
14.4
 20
-67.5
 30
0.0
  0
VERTEX
  5
52D
330
261
100
AcDbEntity
  8
GUIDE
100
AcDbVertex
100
AcDb2dVertex
 10
14.4
 20
-75.071429
 30
0.0
 42
-0.414214
  0
VERTEX
  5
52E
330
261
100
AcDbEntity
  8
GUIDE
100
AcDbVertex
100
AcDb2dVertex
 10
13.4
 20
-76.071429
 30
0.0
  0
VERTEX
  5
52F
330
261
100
AcDbEntity
  8
GUIDE
100
AcDbVertex
100
AcDb2dVertex
 10
4.4
 20
-76.071429
 30
0.0
 42
-0.414214
  0
SEQEND
  5
527
330
261
100
AcDbEntity
  8
GUIDE
  0
POLYLINE
  5
26B
330
1A
100
AcDbEntity
  8
GUIDE
100
AcDb2dPolyline
 66
     1
 10
0.0
 20
0.0
 30
0.0
 70
     1
  0
VERTEX
  5
531
330
26B
100
AcDbEntity
  8
GUIDE
100
AcDbVertex
100
AcDb2dVertex
 10
28.6
 20
-75.071429
 30
0.0
  0
VERTEX
  5
532
330
26B
100
AcDbEntity
  8
GUIDE
100
AcDbVertex
100
AcDb2dVertex
 10
28.6
 20
-67.5
 30
0.0
 42
-0.414214
  0
VERTEX
  5
533
330
26B
100
AcDbEntity
  8
GUIDE
100
AcDbVertex
100
AcDb2dVertex
 10
29.6
 20
-66.5
 30
0.0
  0
VERTEX
  5
534
330
26B
100
AcDbEntity
  8
GUIDE
100
AcDbVertex
100
AcDb2dVertex
 10
38.6
 20
-66.5
 30
0.0
 42
-0.414214
  0
VERTEX
  5
535
330
26B
100
AcDbEntity
  8
GUIDE
100
AcDbVertex
100
AcDb2dVertex
 10
39.6
 20
-67.5
 30
0.0
  0
VERTEX
  5
536
330
26B
100
AcDbEntity
  8
GUIDE
100
AcDbVertex
100
AcDb2dVertex
 10
39.6
 20
-75.071429
 30
0.0
 42
-0.414214
  0
VERTEX
  5
537
330
26B
100
AcDbEntity
  8
GUIDE
100
AcDbVertex
100
AcDb2dVertex
 10
38.6
 20
-76.071429
 30
0.0
  0
VERTEX
  5
538
330
26B
100
AcDbEntity
  8
GUIDE
100
AcDbVertex
100
AcDb2dVertex
 10
29.6
 20
-76.071429
 30
0.0
 42
-0.414214
  0
SEQEND
  5
530
330
26B
100
AcDbEntity
  8
GUIDE
  0
LINE
  5
275
330
1A
100
AcDbEntity
  8
GUIDE
100
AcDbLine
 10
11.4
 20
-64.5
 30
0.0
 11
11.4
 21
-66.5
 31
0.0
  0
LINE
  5
276
330
1A
100
AcDbEntity
  8
GUIDE
100
AcDbLine
 10
6.4
 20
-64.5
 30
0.0
 11
6.4
 21
-66.5
 31
0.0
  0
LINE
  5
277
330
1A
100
AcDbEntity
  8
GUIDE
100
AcDbLine
 10
31.6
 20
-64.5
 30
0.0
 11
31.6
 21
-66.5
 31
0.0
  0
LINE
  5
278
330
1A
100
AcDbEntity
  8
GUIDE
100
AcDbLine
 10
36.6
 20
-64.5
 30
0.0
 11
36.6
 21
-66.5
 31
0.0
  0
LINE
  5
279
330
1A
100
AcDbEntity
  8
GUIDE
100
AcDbLine
 10
6.4
 20
-133.5
 30
0.0
 11
6.4
 21
-135.5
 31
0.0
  0
LINE
  5
27A
330
1A
100
AcDbEntity
  8
GUIDE
100
AcDbLine
 10
11.4
 20
-133.5
 30
0.0
 11
11.4
 21
-135.5
 31
0.0
  0
LINE
  5
27B
330
1A
100
AcDbEntity
  8
GUIDE
100
AcDbLine
 10
31.6
 20
-133.5
 30
0.0
 11
31.6
 21
-135.5
 31
0.0
  0
LINE
  5
27C
330
1A
100
AcDbEntity
  8
GUIDE
100
AcDbLine
 10
36.6
 20
-133.5
 30
0.0
 11
36.6
 21
-135.5
 31
0.0
  0
LINE
  5
27D
330
1A
100
AcDbEntity
  8
GUIDE
100
AcDbLine
 10
11.4
 20
-135.5
 30
0.0
 11
6.4
 21
-135.5
 31
0.0
  0
LINE
  5
27E
330
1A
100
AcDbEntity
  8
GUIDE
100
AcDbLine
 10
31.6
 20
-64.5
 30
0.0
 11
36.6
 21
-64.5
 31
0.0
  0
LINE
  5
27F
330
1A
100
AcDbEntity
  8
GUIDE
100
AcDbLine
 10
1.8
 20
-64.5
 30
0.0
 11
11.9
 21
-64.5
 31
0.0
  0
LINE
  5
280
330
1A
100
AcDbEntity
  8
GUIDE
100
AcDbLine
 10
37.57
 20
-135.5
 30
0.0
 11
30.43
 21
-135.5
 31
0.0
  0
LINE
  5
281
330
1A
100
AcDbEntity
  8
GUIDE
100
AcDbLine
 10
29.93
 20
-62.5
 30
0.0
 11
12.4
 21
-62.5
 31
0.0
  0
LINE
  5
282
330
1A
100
AcDbEntity
  8
GUIDE
100
AcDbLine
 10
11.9
 20
-64.5
 30
0.0
 11
12.4
 21
-62.5
 31
0.0
  0
LINE
  5
283
330
1A
100
AcDbEntity
  8
GUIDE
100
AcDbLine
 10
30.43
 20
-64.5
 30
0.0
 11
29.93
 21
-62.5
 31
0.0
  0
LINE
  5
284
330
1A
100
AcDbEntity
  8
GUIDE
100
AcDbLine
 10
30.43
 20
-64.5
 30
0.0
 11
37.57
 21
-64.5
 31
0.0
  0
LINE
  5
285
330
1A
100
AcDbEntity
  8
GUIDE
100
AcDbLine
 10
29.93
 20
-137.5
 30
0.0
 11
12.4
 21
-137.5
 31
0.0
  0
LINE
  5
286
330
1A
100
AcDbEntity
  8
GUIDE
100
AcDbLine
 10
11.9
 20
-135.5
 30
0.0
 11
12.4
 21
-137.5
 31
0.0
  0
LINE
  5
287
330
1A
100
AcDbEntity
  8
GUIDE
100
AcDbLine
 10
30.43
 20
-135.5
 30
0.0
 11
29.93
 21
-137.5
 31
0.0
  0
LINE
  5
288
330
1A
100
AcDbEntity
  8
GUIDE
100
AcDbLine
 10
11.9
 20
-135.5
 30
0.0
 11
0.0
 21
-135.5
 31
0.0
  0
LINE
  5
289
330
1A
100
AcDbEntity
  8
GUIDE
100
AcDbLine
 10
-0.5
 20
-61.928908
 30
0.0
 11
-0.5
 21
-60.071092
 31
0.0
  0
LINE
  5
28A
330
1A
100
AcDbEntity
  8
GUIDE
100
AcDbLine
 10
0.066082
 20
-59.575478
 30
0.0
 11
1.8
 21
-59.9
 31
0.0
  0
LINE
  5
28B
330
1A
100
AcDbEntity
  8
GUIDE
100
AcDbLine
 10
0.066082
 20
-62.424522
 30
0.0
 11
1.8
 21
-62.1
 31
0.0
  0
ARC
  5
28C
330
1A
100
AcDbEntity
  8
GUIDE
100
AcDbCircle
 10
0.0
 20
-60.071092
 30
0.0
 40
0.5
100
AcDbArc
 50
82.405357
 51
180.0
  0
ARC
  5
28D
330
1A
100
AcDbEntity
  8
GUIDE
100
AcDbCircle
 10
0.0
 20
-61.928908
 30
0.0
 40
0.5
100
AcDbArc
 50
180.0
 51
277.5946430000001
  0
LINE
  5
28E
330
1A
100
AcDbEntity
  8
GUIDE
100
AcDbLine
 10
1.5
 20
-138.071092
 30
0.0
 11
1.5
 21
-139.928908
 31
0.0
  0
LINE
  5
28F
330
1A
100
AcDbEntity
  8
GUIDE
100
AcDbLine
 10
0.933918
 20
-137.575478
 30
0.0
 11
0.0
 21
-137.9
 31
0.0
  0
ARC
  5
290
330
1A
100
AcDbEntity
  8
GUIDE
100
AcDbCircle
 10
1.0
 20
-138.071092
 30
0.0
 40
0.5
100
AcDbArc
 50
0.0
 51
97.59464300000001
  0
LINE
  5
291
330
1A
100
AcDbEntity
  8
GUIDE
100
AcDbLine
 10
0.933918
 20
-140.424522
 30
0.0
 11
0.0
 21
-140.1
 31
0.0
  0
ARC
  5
292
330
1A
100
AcDbEntity
  8
GUIDE
100
AcDbCircle
 10
1.0
 20
-139.928908
 30
0.0
 40
0.5
100
AcDbArc
 50
262.405357
 51
0.0
  0
POLYLINE
  5
293
330
1A
100
AcDbEntity
  8
GUIDE
100
AcDb2dPolyline
 66
     1
 10
0.0
 20
0.0
 30
0.0
  0
VERTEX
  5
53A
330
293
100
AcDbEntity
  8
GUIDE
100
AcDbVertex
100
AcDb2dVertex
 10
0.0
 20
-142.5
 30
0.0
  0
VERTEX
  5
53B
330
293
100
AcDbEntity
  8
GUIDE
100
AcDbVertex
100
AcDb2dVertex
 10
0.0
 20
-140.1
 30
0.0
  0
SEQEND
  5
539
330
293
100
AcDbEntity
  8
GUIDE
  0
POLYLINE
  5
297
330
1A
100
AcDbEntity
  8
GUIDE
100
AcDb2dPolyline
 66
     1
 10
0.0
 20
0.0
 30
0.0
  0
VERTEX
  5
53D
330
297
100
AcDbEntity
  8
GUIDE
100
AcDbVertex
100
AcDb2dVertex
 10
0.0
 20
-137.9
 30
0.0
  0
VERTEX
  5
53E
330
297
100
AcDbEntity
  8
GUIDE
100
AcDbVertex
100
AcDb2dVertex
 10
0.0
 20
-135.5
 30
0.0
  0
SEQEND
  5
53C
330
297
100
AcDbEntity
  8
GUIDE
  0
LINE
  5
29B
330
1A
100
AcDbEntity
  8
GUIDE
100
AcDbLine
 10
1.8
 20
-64.5
 30
0.0
 11
1.8
 21
-69.0
 31
0.0
  0
LINE
  5
29C
330
1A
100
AcDbEntity
  8
GUIDE
100
AcDbLine
 10
24.0
 20
-64.5
 30
0.0
 11
19.0
 21
-64.5
 31
0.0
  0
LINE
  5
29D
330
1A
100
AcDbEntity
  8
GUIDE
100
AcDbLine
 10
19.0
 20
-64.5
 30
0.0
 11
19.0
 21
-66.5
 31
0.0
  0
LINE
  5
29E
330
1A
100
AcDbEntity
  8
GUIDE
100
AcDbLine
 10
24.0
 20
-64.5
 30
0.0
 11
24.0
 21
-66.5
 31
0.0
  0
LINE
  5
29F
330
1A
100
AcDbEntity
  8
GUIDE
100
AcDbLine
 10
24.0
 20
-135.5
 30
0.0
 11
19.0
 21
-135.5
 31
0.0
  0
LINE
  5
2A0
330
1A
100
AcDbEntity
  8
GUIDE
100
AcDbLine
 10
19.0
 20
-133.5
 30
0.0
 11
19.0
 21
-135.5
 31
0.0
  0
LINE
  5
2A1
330
1A
100
AcDbEntity
  8
GUIDE
100
AcDbLine
 10
24.0
 20
-133.5
 30
0.0
 11
24.0
 21
-135.5
 31
0.0
  0
POLYLINE
  5
2A2
330
1A
100
AcDbEntity
  8
GUIDE
100
AcDb2dPolyline
 66
     1
 10
0.0
 20
0.0
 30
0.0
 70
     1
  0
VERTEX
  5
540
330
2A2
100
AcDbEntity
  8
GUIDE
100
AcDbVertex
100
AcDb2dVertex
 10
16.0
 20
-103.785714
 30
0.0
  0
VERTEX
  5
541
330
2A2
100
AcDbEntity
  8
GUIDE
100
AcDbVertex
100
AcDb2dVertex
 10
16.0
 20
-96.214286
 30
0.0
 42
-0.414214
  0
VERTEX
  5
542
330
2A2
100
AcDbEntity
  8
GUIDE
100
AcDbVertex
100
AcDb2dVertex
 10
17.0
 20
-95.214286
 30
0.0
  0
VERTEX
  5
543
330
2A2
100
AcDbEntity
  8
GUIDE
100
AcDbVertex
100
AcDb2dVertex
 10
26.0
 20
-95.214286
 30
0.0
 42
-0.414214
  0
VERTEX
  5
544
330
2A2
100
AcDbEntity
  8
GUIDE
100
AcDbVertex
100
AcDb2dVertex
 10
27.0
 20
-96.214286
 30
0.0
  0
VERTEX
  5
545
330
2A2
100
AcDbEntity
  8
GUIDE
100
AcDbVertex
100
AcDb2dVertex
 10
27.0
 20
-103.785714
 30
0.0
 42
-0.414214
  0
VERTEX
  5
546
330
2A2
100
AcDbEntity
  8
GUIDE
100
AcDbVertex
100
AcDb2dVertex
 10
26.0
 20
-104.785714
 30
0.0
  0
VERTEX
  5
547
330
2A2
100
AcDbEntity
  8
GUIDE
100
AcDbVertex
100
AcDb2dVertex
 10
17.0
 20
-104.785714
 30
0.0
 42
-0.414214
  0
SEQEND
  5
53F
330
2A2
100
AcDbEntity
  8
GUIDE
  0
POLYLINE
  5
2AC
330
1A
100
AcDbEntity
  8
GUIDE
100
AcDb2dPolyline
 66
     1
 10
0.0
 20
0.0
 30
0.0
 70
     1
  0
VERTEX
  5
549
330
2AC
100
AcDbEntity
  8
GUIDE
100
AcDbVertex
100
AcDb2dVertex
 10
16.0
 20
-113.357143
 30
0.0
  0
VERTEX
  5
54A
330
2AC
100
AcDbEntity
  8
GUIDE
100
AcDbVertex
100
AcDb2dVertex
 10
16.0
 20
-105.785714
 30
0.0
 42
-0.414214
  0
VERTEX
  5
54B
330
2AC
100
AcDbEntity
  8
GUIDE
100
AcDbVertex
100
AcDb2dVertex
 10
17.0
 20
-104.785714
 30
0.0
  0
VERTEX
  5
54C
330
2AC
100
AcDbEntity
  8
GUIDE
100
AcDbVertex
100
AcDb2dVertex
 10
26.0
 20
-104.785714
 30
0.0
 42
-0.414214
  0
VERTEX
  5
54D
330
2AC
100
AcDbEntity
  8
GUIDE
100
AcDbVertex
100
AcDb2dVertex
 10
27.0
 20
-105.785714
 30
0.0
  0
VERTEX
  5
54E
330
2AC
100
AcDbEntity
  8
GUIDE
100
AcDbVertex
100
AcDb2dVertex
 10
27.0
 20
-113.357143
 30
0.0
 42
-0.414214
  0
VERTEX
  5
54F
330
2AC
100
AcDbEntity
  8
GUIDE
100
AcDbVertex
100
AcDb2dVertex
 10
26.0
 20
-114.357143
 30
0.0
  0
VERTEX
  5
550
330
2AC
100
AcDbEntity
  8
GUIDE
100
AcDbVertex
100
AcDb2dVertex
 10
17.0
 20
-114.357143
 30
0.0
 42
-0.414214
  0
SEQEND
  5
548
330
2AC
100
AcDbEntity
  8
GUIDE
  0
POLYLINE
  5
2B6
330
1A
100
AcDbEntity
  8
GUIDE
100
AcDb2dPolyline
 66
     1
 10
0.0
 20
0.0
 30
0.0
 70
     1
  0
VERTEX
  5
552
330
2B6
100
AcDbEntity
  8
GUIDE
100
AcDbVertex
100
AcDb2dVertex
 10
16.0
 20
-122.928571
 30
0.0
  0
VERTEX
  5
553
330
2B6
100
AcDbEntity
  8
GUIDE
100
AcDbVertex
100
AcDb2dVertex
 10
16.0
 20
-115.357143
 30
0.0
 42
-0.414214
  0
VERTEX
  5
554
330
2B6
100
AcDbEntity
  8
GUIDE
100
AcDbVertex
100
AcDb2dVertex
 10
17.0
 20
-114.357143
 30
0.0
  0
VERTEX
  5
555
330
2B6
100
AcDbEntity
  8
GUIDE
100
AcDbVertex
100
AcDb2dVertex
 10
26.0
 20
-114.357143
 30
0.0
 42
-0.414214
  0
VERTEX
  5
556
330
2B6
100
AcDbEntity
  8
GUIDE
100
AcDbVertex
100
AcDb2dVertex
 10
27.0
 20
-115.357143
 30
0.0
  0
VERTEX
  5
557
330
2B6
100
AcDbEntity
  8
GUIDE
100
AcDbVertex
100
AcDb2dVertex
 10
27.0
 20
-122.928571
 30
0.0
 42
-0.414214
  0
VERTEX
  5
558
330
2B6
100
AcDbEntity
  8
GUIDE
100
AcDbVertex
100
AcDb2dVertex
 10
26.0
 20
-123.928571
 30
0.0
  0
VERTEX
  5
559
330
2B6
100
AcDbEntity
  8
GUIDE
100
AcDbVertex
100
AcDb2dVertex
 10
17.0
 20
-123.928571
 30
0.0
 42
-0.414214
  0
SEQEND
  5
551
330
2B6
100
AcDbEntity
  8
GUIDE
  0
POLYLINE
  5
2C0
330
1A
100
AcDbEntity
  8
GUIDE
100
AcDb2dPolyline
 66
     1
 10
0.0
 20
0.0
 30
0.0
 70
     1
  0
VERTEX
  5
55B
330
2C0
100
AcDbEntity
  8
GUIDE
100
AcDbVertex
100
AcDb2dVertex
 10
16.0
 20
-132.5
 30
0.0
  0
VERTEX
  5
55C
330
2C0
100
AcDbEntity
  8
GUIDE
100
AcDbVertex
100
AcDb2dVertex
 10
16.0
 20
-124.928571
 30
0.0
 42
-0.414214
  0
VERTEX
  5
55D
330
2C0
100
AcDbEntity
  8
GUIDE
100
AcDbVertex
100
AcDb2dVertex
 10
17.0
 20
-123.928571
 30
0.0
  0
VERTEX
  5
55E
330
2C0
100
AcDbEntity
  8
GUIDE
100
AcDbVertex
100
AcDb2dVertex
 10
26.0
 20
-123.928571
 30
0.0
 42
-0.414214
  0
VERTEX
  5
55F
330
2C0
100
AcDbEntity
  8
GUIDE
100
AcDbVertex
100
AcDb2dVertex
 10
27.0
 20
-124.928571
 30
0.0
  0
VERTEX
  5
560
330
2C0
100
AcDbEntity
  8
GUIDE
100
AcDbVertex
100
AcDb2dVertex
 10
27.0
 20
-132.5
 30
0.0
 42
-0.414214
  0
VERTEX
  5
561
330
2C0
100
AcDbEntity
  8
GUIDE
100
AcDbVertex
100
AcDb2dVertex
 10
26.0
 20
-133.5
 30
0.0
  0
VERTEX
  5
562
330
2C0
100
AcDbEntity
  8
GUIDE
100
AcDbVertex
100
AcDb2dVertex
 10
17.0
 20
-133.5
 30
0.0
 42
-0.414214
  0
SEQEND
  5
55A
330
2C0
100
AcDbEntity
  8
GUIDE
  0
POLYLINE
  5
2CA
330
1A
100
AcDbEntity
  8
GUIDE
100
AcDb2dPolyline
 66
     1
 10
0.0
 20
0.0
 30
0.0
 70
     1
  0
VERTEX
  5
564
330
2CA
100
AcDbEntity
  8
GUIDE
100
AcDbVertex
100
AcDb2dVertex
 10
16.0
 20
-75.071429
 30
0.0
  0
VERTEX
  5
565
330
2CA
100
AcDbEntity
  8
GUIDE
100
AcDbVertex
100
AcDb2dVertex
 10
16.0
 20
-67.5
 30
0.0
 42
-0.414214
  0
VERTEX
  5
566
330
2CA
100
AcDbEntity
  8
GUIDE
100
AcDbVertex
100
AcDb2dVertex
 10
17.0
 20
-66.5
 30
0.0
  0
VERTEX
  5
567
330
2CA
100
AcDbEntity
  8
GUIDE
100
AcDbVertex
100
AcDb2dVertex
 10
26.0
 20
-66.5
 30
0.0
 42
-0.414214
  0
VERTEX
  5
568
330
2CA
100
AcDbEntity
  8
GUIDE
100
AcDbVertex
100
AcDb2dVertex
 10
27.0
 20
-67.5
 30
0.0
  0
VERTEX
  5
569
330
2CA
100
AcDbEntity
  8
GUIDE
100
AcDbVertex
100
AcDb2dVertex
 10
27.0
 20
-75.071429
 30
0.0
 42
-0.414214
  0
VERTEX
  5
56A
330
2CA
100
AcDbEntity
  8
GUIDE
100
AcDbVertex
100
AcDb2dVertex
 10
26.0
 20
-76.071429
 30
0.0
  0
VERTEX
  5
56B
330
2CA
100
AcDbEntity
  8
GUIDE
100
AcDbVertex
100
AcDb2dVertex
 10
17.0
 20
-76.071429
 30
0.0
 42
-0.414214
  0
SEQEND
  5
563
330
2CA
100
AcDbEntity
  8
GUIDE
  0
POLYLINE
  5
2D4
330
1A
100
AcDbEntity
  8
GUIDE
100
AcDb2dPolyline
 66
     1
 10
0.0
 20
0.0
 30
0.0
 70
     1
  0
VERTEX
  5
56D
330
2D4
100
AcDbEntity
  8
GUIDE
100
AcDbVertex
100
AcDb2dVertex
 10
16.0
 20
-84.64285700000001
 30
0.0
  0
VERTEX
  5
56E
330
2D4
100
AcDbEntity
  8
GUIDE
100
AcDbVertex
100
AcDb2dVertex
 10
16.0
 20
-77.071429
 30
0.0
 42
-0.414214
  0
VERTEX
  5
56F
330
2D4
100
AcDbEntity
  8
GUIDE
100
AcDbVertex
100
AcDb2dVertex
 10
17.0
 20
-76.071429
 30
0.0
  0
VERTEX
  5
570
330
2D4
100
AcDbEntity
  8
GUIDE
100
AcDbVertex
100
AcDb2dVertex
 10
26.0
 20
-76.071429
 30
0.0
 42
-0.414214
  0
VERTEX
  5
571
330
2D4
100
AcDbEntity
  8
GUIDE
100
AcDbVertex
100
AcDb2dVertex
 10
27.0
 20
-77.071429
 30
0.0
  0
VERTEX
  5
572
330
2D4
100
AcDbEntity
  8
GUIDE
100
AcDbVertex
100
AcDb2dVertex
 10
27.0
 20
-84.64285700000001
 30
0.0
 42
-0.414214
  0
VERTEX
  5
573
330
2D4
100
AcDbEntity
  8
GUIDE
100
AcDbVertex
100
AcDb2dVertex
 10
26.0
 20
-85.64285700000001
 30
0.0
  0
VERTEX
  5
574
330
2D4
100
AcDbEntity
  8
GUIDE
100
AcDbVertex
100
AcDb2dVertex
 10
17.0
 20
-85.64285700000001
 30
0.0
 42
-0.414214
  0
SEQEND
  5
56C
330
2D4
100
AcDbEntity
  8
GUIDE
  0
POLYLINE
  5
2DE
330
1A
100
AcDbEntity
  8
GUIDE
100
AcDb2dPolyline
 66
     1
 10
0.0
 20
0.0
 30
0.0
 70
     1
  0
VERTEX
  5
576
330
2DE
100
AcDbEntity
  8
GUIDE
100
AcDbVertex
100
AcDb2dVertex
 10
16.0
 20
-94.214286
 30
0.0
  0
VERTEX
  5
577
330
2DE
100
AcDbEntity
  8
GUIDE
100
AcDbVertex
100
AcDb2dVertex
 10
16.0
 20
-86.64285700000001
 30
0.0
 42
-0.414214
  0
VERTEX
  5
578
330
2DE
100
AcDbEntity
  8
GUIDE
100
AcDbVertex
100
AcDb2dVertex
 10
17.0
 20
-85.64285700000001
 30
0.0
  0
VERTEX
  5
579
330
2DE
100
AcDbEntity
  8
GUIDE
100
AcDbVertex
100
AcDb2dVertex
 10
26.0
 20
-85.64285700000001
 30
0.0
 42
-0.414214
  0
VERTEX
  5
57A
330
2DE
100
AcDbEntity
  8
GUIDE
100
AcDbVertex
100
AcDb2dVertex
 10
27.0
 20
-86.64285700000001
 30
0.0
  0
VERTEX
  5
57B
330
2DE
100
AcDbEntity
  8
GUIDE
100
AcDbVertex
100
AcDb2dVertex
 10
27.0
 20
-94.214286
 30
0.0
 42
-0.414214
  0
VERTEX
  5
57C
330
2DE
100
AcDbEntity
  8
GUIDE
100
AcDbVertex
100
AcDb2dVertex
 10
26.0
 20
-95.214286
 30
0.0
  0
VERTEX
  5
57D
330
2DE
100
AcDbEntity
  8
GUIDE
100
AcDbVertex
100
AcDb2dVertex
 10
17.0
 20
-95.214286
 30
0.0
 42
-0.414214
  0
SEQEND
  5
575
330
2DE
100
AcDbEntity
  8
GUIDE
  0
LINE
  5
2E8
330
1A
100
AcDbEntity
  8
GUIDE
100
AcDbLine
 10
17.5
 20
-64.5
 30
0.0
 11
17.5
 21
-62.5
 31
0.0
  0
LINE
  5
2E9
330
1A
100
AcDbEntity
  8
GUIDE
100
AcDbLine
 10
25.5
 20
-64.5
 30
0.0
 11
25.5
 21
-62.5
 31
0.0
  0
LINE
  5
2EA
330
1A
100
AcDbEntity
  8
GUIDE
100
AcDbLine
 10
17.5
 20
-64.5
 30
0.0
 11
25.5
 21
-64.5
 31
0.0
  0
LINE
  5
2EB
330
1A
100
AcDbEntity
  8
GUIDE
100
AcDbLine
 10
37.57
 20
-64.5
 30
0.0
 11
38.07
 21
-62.5
 31
0.0
  0
LINE
  5
2EC
330
1A
100
AcDbEntity
  8
GUIDE
100
AcDbLine
 10
38.07
 20
-62.5
 30
0.0
 11
38.5
 21
-62.5
 31
0.0
  0
POLYLINE
  5
2ED
330
1A
100
AcDbEntity
  8
GUIDE
100
AcDb2dPolyline
 66
     1
 10
0.0
 20
0.0
 30
0.0
  0
VERTEX
  5
57F
330
2ED
100
AcDbEntity
  8
GUIDE
100
AcDbVertex
100
AcDb2dVertex
 10
1.8
 20
-64.5
 30
0.0
  0
VERTEX
  5
580
330
2ED
100
AcDbEntity
  8
GUIDE
100
AcDbVertex
100
AcDb2dVertex
 10
1.8
 20
-57.5
 30
0.0
  0
VERTEX
  5
581
330
2ED
100
AcDbEntity
  8
GUIDE
100
AcDbVertex
100
AcDb2dVertex
 10
38.5
 20
-57.5
 30
0.0
  0
VERTEX
  5
582
330
2ED
100
AcDbEntity
  8
GUIDE
100
AcDbVertex
100
AcDb2dVertex
 10
38.5
 20
-62.5
 30
0.0
  0
SEQEND
  5
57E
330
2ED
100
AcDbEntity
  8
GUIDE
  0
LINE
  5
2F3
330
1A
100
AcDbEntity
  8
GUIDE
100
AcDbLine
 10
38.07
 20
-137.5
 30
0.0
 11
38.5
 21
-137.5
 31
0.0
  0
LINE
  5
2F4
330
1A
100
AcDbEntity
  8
GUIDE
100
AcDbLine
 10
37.57
 20
-135.5
 30
0.0
 11
38.07
 21
-137.5
 31
0.0
  0
LINE
  5
2F5
330
1A
100
AcDbEntity
  8
GUIDE
100
AcDbLine
 10
38.5
 20
-137.5
 30
0.0
 11
38.5
 21
-142.5
 31
0.0
  0
LINE
  5
2F6
330
1A
100
AcDbEntity
  8
GUIDE
100
AcDbLine
 10
38.5
 20
-142.5
 30
0.0
 11
0.0
 21
-142.5
 31
0.0
  0
LINE
  5
2F7
330
1A
100
AcDbEntity
  8
GUIDE
100
AcDbLine
 10
24.0
 20
-135.5
 30
0.0
 11
19.0
 21
-135.5
 31
0.0
  0
LINE
  5
2F8
330
1A
100
AcDbEntity
  8
GUIDE
100
AcDbLine
 10
17.5
 20
-135.5
 30
0.0
 11
25.5
 21
-135.5
 31
0.0
  0
LINE
  5
2F9
330
1A
100
AcDbEntity
  8
GUIDE
100
AcDbLine
 10
17.5
 20
-135.5
 30
0.0
 11
17.5
 21
-137.5
 31
0.0
  0
LINE
  5
2FA
330
1A
100
AcDbEntity
  8
GUIDE
100
AcDbLine
 10
25.5
 20
-135.5
 30
0.0
 11
25.5
 21
-137.5
 31
0.0
  0
LINE
  5
2FB
330
1A
100
AcDbEntity
  8
GUIDE
100
AcDbLine
 10
1.8
 20
-94.0
 30
0.0
 11
1.8
 21
-100.0
 31
0.0
  0
LINE
  5
2FC
330
1A
100
AcDbEntity
  8
GUIDE
100
AcDbLine
 10
1.8
 20
-106.0
 30
0.0
 11
1.8
 21
-131.0
 31
0.0
  0
ARC
  5
2FD
330
1A
100
AcDbEntity
  8
GUIDE
 48
10.0
100
AcDbCircle
 10
8.1
 20
-8.913556
 30
0.0
 40
5.5
100
AcDbArc
 50
126.869898
 51
53.130102
  0
ARC
  5
2FE
330
1A
100
AcDbEntity
  8
GUIDE
100
AcDbCircle
 10
8.1
 20
-8.913556
 30
0.0
 40
5.5
100
AcDbArc
 50
53.130102
 51
126.869898
  0
CIRCLE
  5
2FF
330
1A
100
AcDbEntity
  8
GUIDE
100
AcDbCircle
 10
20.7
 20
-8.913556
 30
0.0
 40
2.5
  0
CIRCLE
  5
300
330
1A
100
AcDbEntity
  8
GUIDE
100
AcDbCircle
 10
8.1
 20
-8.913556
 30
0.0
 40
2.5
  0
ARC
  5
301
330
1A
100
AcDbEntity
  8
GUIDE
100
AcDbCircle
 10
20.7
 20
-8.913556
 30
0.0
 40
5.5
100
AcDbArc
 50
53.130102
 51
126.869898
  0
ARC
  5
302
330
1A
100
AcDbEntity
  8
GUIDE
 48
10.0
100
AcDbCircle
 10
20.7
 20
-8.913556
 30
0.0
 40
5.5
100
AcDbArc
 50
126.869898
 51
53.130102
  0
LINE
  5
303
330
1A
100
AcDbEntity
  8
GUIDE
100
AcDbLine
 10
11.9
 20
-36.913556
 30
0.0
 11
11.9
 21
-21.913556
 31
0.0
  0
LINE
  5
304
330
1A
100
AcDbEntity
  8
GUIDE
100
AcDbLine
 10
16.9
 20
-36.913556
 30
0.0
 11
16.9
 21
-21.913556
 31
0.0
  0
LINE
  5
305
330
1A
100
AcDbEntity
  8
GUIDE
100
AcDbLine
 10
12.9
 20
-37.913556
 30
0.0
 11
15.9
 21
-37.913556
 31
0.0
  0
LINE
  5
306
330
1A
100
AcDbEntity
  8
GUIDE
100
AcDbLine
 10
11.9
 20
-21.913556
 30
0.0
 11
16.9
 21
-21.913556
 31
0.0
  0
POLYLINE
  5
307
330
1A
100
AcDbEntity
  8
GUIDE
100
AcDb2dPolyline
 66
     1
 10
0.0
 20
0.0
 30
0.0
 70
     1
  0
VERTEX
  5
584
330
307
100
AcDbEntity
  8
GUIDE
100
AcDbVertex
100
AcDb2dVertex
 10
9.4
 20
-21.913556
 30
0.0
  0
VERTEX
  5
585
330
307
100
AcDbEntity
  8
GUIDE
100
AcDbVertex
100
AcDb2dVertex
 10
9.4
 20
-18.913556
 30
0.0
  0
VERTEX
  5
586
330
307
100
AcDbEntity
  8
GUIDE
100
AcDbVertex
100
AcDb2dVertex
 10
19.4
 20
-18.913556
 30
0.0
  0
VERTEX
  5
587
330
307
100
AcDbEntity
  8
GUIDE
100
AcDbVertex
100
AcDb2dVertex
 10
19.4
 20
-21.913556
 30
0.0
  0
SEQEND
  5
583
330
307
100
AcDbEntity
  8
GUIDE
  0
LINE
  5
30D
330
1A
100
AcDbEntity
  8
GUIDE
100
AcDbLine
 10
12.9
 20
-37.913556
 30
0.0
 11
11.9
 21
-36.913556
 31
0.0
  0
LINE
  5
30E
330
1A
100
AcDbEntity
  8
GUIDE
100
AcDbLine
 10
15.9
 20
-37.913556
 30
0.0
 11
16.9
 21
-36.913556
 31
0.0
  0
LINE
  5
30F
330
1A
100
AcDbEntity
  8
GUIDE
100
AcDbLine
 10
11.9
 20
-36.913556
 30
0.0
 11
16.9
 21
-36.913556
 31
0.0
  0
LINE
  5
310
330
1A
100
AcDbEntity
  8
GUIDE
100
AcDbLine
 10
12.9
 20
-37.913556
 30
0.0
 11
12.9
 21
-21.913556
 31
0.0
  0
LINE
  5
311
330
1A
100
AcDbEntity
  8
GUIDE
100
AcDbLine
 10
15.9
 20
-37.913556
 30
0.0
 11
15.9
 21
-21.913556
 31
0.0
  0
POLYLINE
  5
312
330
1A
100
AcDbEntity
  8
GUIDE
100
AcDb2dPolyline
 66
     1
 10
0.0
 20
0.0
 30
0.0
  0
VERTEX
  5
589
330
312
100
AcDbEntity
  8
GUIDE
100
AcDbVertex
100
AcDb2dVertex
 10
11.9
 20
-25.913556
 30
0.0
  0
VERTEX
  5
58A
330
312
100
AcDbEntity
  8
GUIDE
100
AcDbVertex
100
AcDb2dVertex
 10
1.0
 20
-25.913556
 30
0.0
  0
SEQEND
  5
588
330
312
100
AcDbEntity
  8
GUIDE
  0
LINE
  5
316
330
1A
100
AcDbEntity
  8
GUIDE
100
AcDbLine
 10
0.0
 20
-24.913556
 30
0.0
 11
0.0
 21
-8.513556
 31
0.0
  0
LINE
  5
317
330
1A
100
AcDbEntity
  8
GUIDE
100
AcDbLine
 10
1.0
 20
-7.513556
 30
0.0
 11
1.0
 21
-7.513556
 31
0.0
  0
ARC
  5
318
330
1A
100
AcDbEntity
  8
GUIDE
100
AcDbCircle
 10
1.0
 20
-8.513556
 30
0.0
 40
1.0
100
AcDbArc
 50
90.0
 51
180.0
  0
ARC
  5
319
330
1A
100
AcDbEntity
  8
GUIDE
100
AcDbCircle
 10
1.0
 20
-24.913556
 30
0.0
 40
1.0
100
AcDbArc
 50
180.0
 51
270.0
  0
LINE
  5
31A
330
1A
100
AcDbEntity
  8
GUIDE
100
AcDbLine
 10
37.7
 20
-15.913556
 30
0.0
 11
37.7
 21
-8.913556
 31
0.0
  0
LINE
  5
31B
330
1A
100
AcDbEntity
  8
GUIDE
100
AcDbLine
 10
1.0
 20
-25.913556
 30
0.0
 11
1.0
 21
-7.513556
 31
0.0
  0
ARC
  5
31C
330
1A
100
AcDbEntity
  8
GUIDE
100
AcDbCircle
 10
4.0
 20
-7.513556
 30
0.0
 40
3.0
100
AcDbArc
 50
90.0
 51
180.0
  0
LINE
  5
31D
330
1A
100
AcDbEntity
  8
GUIDE
100
AcDbLine
 10
4.0
 20
-4.513556
 30
0.0
 11
33.3
 21
-4.513556
 31
0.0
  0
LINE
  5
31E
330
1A
100
AcDbEntity
  8
GUIDE
100
AcDbLine
 10
26.2
 20
-25.913556
 30
0.0
 11
16.9
 21
-25.913556
 31
0.0
  0
CIRCLE
  5
31F
330
1A
100
AcDbEntity
  8
GUIDE
100
AcDbCircle
 10
33.3
 20
-8.913556
 30
0.0
 40
2.5
  0
ARC
  5
320
330
1A
100
AcDbEntity
  8
GUIDE
 48
10.0
100
AcDbCircle
 10
33.3
 20
-8.913556
 30
0.0
 40
5.5
100
AcDbArc
 50
126.869898
 51
323.130102
  0
ARC
  5
321
330
1A
100
AcDbEntity
  8
GUIDE
100
AcDbCircle
 10
33.3
 20
-8.913556
 30
0.0
 40
5.5
100
AcDbArc
 50
323.130102
 51
126.869898
  0
ARC
  5
322
330
1A
100
AcDbEntity
  8
GUIDE
100
AcDbCircle
 10
43.007152
 20
-33.629281
 30
0.0
 40
18.493588
100
AcDbArc
 50
106.676794
 51
155.341379
  0
ARC
  5
323
330
1A
100
AcDbEntity
  8
GUIDE
100
AcDbCircle
 10
33.3
 20
-8.913556
 30
0.0
 40
4.4
100
AcDbArc
 50
0.0
 51
90.0
  0
LINE
  5
324
330
1A
100
AcDbEntity
  8
GUIDE
100
AcDbLine
 10
109.9
 20
-142.5
 30
0.0
 11
88.5
 21
-142.5
 31
0.0
  0
LINE
  5
325
330
1A
100
AcDbEntity
  8
GUIDE
100
AcDbLine
 10
109.9
 20
-57.5
 30
0.0
 11
88.5
 21
-57.5
 31
0.0
  0
LINE
  5
326
330
1A
100
AcDbEntity
  8
GUIDE
100
AcDbLine
 10
109.9
 20
-135.5
 30
0.0
 11
99.0
 21
-135.5
 31
0.0
  0
LINE
  5
327
330
1A
100
AcDbEntity
  8
GUIDE
100
AcDbLine
 10
109.9
 20
-64.5
 30
0.0
 11
99.0
 21
-64.5
 31
0.0
  0
LINE
  5
328
330
1A
100
AcDbEntity
  8
GUIDE
100
AcDbLine
 10
109.9
 20
-142.5
 30
0.0
 11
109.9
 21
-135.5
 31
0.0
  0
LINE
  5
329
330
1A
100
AcDbEntity
  8
GUIDE
100
AcDbLine
 10
88.5
 20
-142.5
 30
0.0
 11
88.5
 21
-57.5
 31
0.0
  0
LINE
  5
32A
330
1A
100
AcDbEntity
  8
GUIDE
100
AcDbLine
 10
99.0
 20
-135.5
 30
0.0
 11
99.0
 21
-64.5
 31
0.0
  0
LINE
  5
32B
330
1A
100
AcDbEntity
  8
GUIDE
100
AcDbLine
 10
109.9
 20
-64.5
 30
0.0
 11
109.9
 21
-57.5
 31
0.0
  0
LINE
  5
32C
330
1A
100
AcDbEntity
  8
GUIDE
100
AcDbLine
 10
108.0
 20
-135.5
 30
0.0
 11
108.0
 21
-133.5
 31
0.0
  0
LINE
  5
32D
330
1A
100
AcDbEntity
  8
GUIDE
100
AcDbLine
 10
103.0
 20
-135.5
 30
0.0
 11
103.0
 21
-133.5
 31
0.0
  0
LINE
  5
32E
330
1A
100
AcDbEntity
  8
GUIDE
100
AcDbLine
 10
103.0
 20
-135.5
 30
0.0
 11
108.0
 21
-135.5
 31
0.0
  0
POLYLINE
  5
32F
330
1A
100
AcDbEntity
  8
GUIDE
100
AcDb2dPolyline
 66
     1
 10
0.0
 20
0.0
 30
0.0
 70
     1
  0
VERTEX
  5
58C
330
32F
100
AcDbEntity
  8
GUIDE
100
AcDbVertex
100
AcDb2dVertex
 10
111.0
 20
-86.64285700000001
 30
0.0
  0
VERTEX
  5
58D
330
32F
100
AcDbEntity
  8
GUIDE
100
AcDbVertex
100
AcDb2dVertex
 10
111.0
 20
-94.214286
 30
0.0
 42
-0.414214
  0
VERTEX
  5
58E
330
32F
100
AcDbEntity
  8
GUIDE
100
AcDbVertex
100
AcDb2dVertex
 10
110.0
 20
-95.214286
 30
0.0
  0
VERTEX
  5
58F
330
32F
100
AcDbEntity
  8
GUIDE
100
AcDbVertex
100
AcDb2dVertex
 10
101.0
 20
-95.214286
 30
0.0
 42
-0.414214
  0
VERTEX
  5
590
330
32F
100
AcDbEntity
  8
GUIDE
100
AcDbVertex
100
AcDb2dVertex
 10
100.0
 20
-94.214286
 30
0.0
  0
VERTEX
  5
591
330
32F
100
AcDbEntity
  8
GUIDE
100
AcDbVertex
100
AcDb2dVertex
 10
100.0
 20
-86.64285700000001
 30
0.0
 42
-0.414214
  0
VERTEX
  5
592
330
32F
100
AcDbEntity
  8
GUIDE
100
AcDbVertex
100
AcDb2dVertex
 10
101.0
 20
-85.64285700000001
 30
0.0
  0
VERTEX
  5
593
330
32F
100
AcDbEntity
  8
GUIDE
100
AcDbVertex
100
AcDb2dVertex
 10
110.0
 20
-85.64285700000001
 30
0.0
 42
-0.414214
  0
SEQEND
  5
58B
330
32F
100
AcDbEntity
  8
GUIDE
  0
POLYLINE
  5
339
330
1A
100
AcDbEntity
  8
GUIDE
100
AcDb2dPolyline
 66
     1
 10
0.0
 20
0.0
 30
0.0
 70
     1
  0
VERTEX
  5
595
330
339
100
AcDbEntity
  8
GUIDE
100
AcDbVertex
100
AcDb2dVertex
 10
111.0
 20
-77.071429
 30
0.0
  0
VERTEX
  5
596
330
339
100
AcDbEntity
  8
GUIDE
100
AcDbVertex
100
AcDb2dVertex
 10
111.0
 20
-84.64285700000001
 30
0.0
 42
-0.414214
  0
VERTEX
  5
597
330
339
100
AcDbEntity
  8
GUIDE
100
AcDbVertex
100
AcDb2dVertex
 10
110.0
 20
-85.64285700000001
 30
0.0
  0
VERTEX
  5
598
330
339
100
AcDbEntity
  8
GUIDE
100
AcDbVertex
100
AcDb2dVertex
 10
101.0
 20
-85.64285700000001
 30
0.0
 42
-0.414214
  0
VERTEX
  5
599
330
339
100
AcDbEntity
  8
GUIDE
100
AcDbVertex
100
AcDb2dVertex
 10
100.0
 20
-84.64285700000001
 30
0.0
  0
VERTEX
  5
59A
330
339
100
AcDbEntity
  8
GUIDE
100
AcDbVertex
100
AcDb2dVertex
 10
100.0
 20
-77.071429
 30
0.0
 42
-0.414214
  0
VERTEX
  5
59B
330
339
100
AcDbEntity
  8
GUIDE
100
AcDbVertex
100
AcDb2dVertex
 10
101.0
 20
-76.071429
 30
0.0
  0
VERTEX
  5
59C
330
339
100
AcDbEntity
  8
GUIDE
100
AcDbVertex
100
AcDb2dVertex
 10
110.0
 20
-76.071429
 30
0.0
 42
-0.414214
  0
SEQEND
  5
594
330
339
100
AcDbEntity
  8
GUIDE
  0
POLYLINE
  5
343
330
1A
100
AcDbEntity
  8
GUIDE
100
AcDb2dPolyline
 66
     1
 10
0.0
 20
0.0
 30
0.0
 70
     1
  0
VERTEX
  5
59E
330
343
100
AcDbEntity
  8
GUIDE
100
AcDbVertex
100
AcDb2dVertex
 10
111.0
 20
-67.5
 30
0.0
  0
VERTEX
  5
59F
330
343
100
AcDbEntity
  8
GUIDE
100
AcDbVertex
100
AcDb2dVertex
 10
111.0
 20
-75.071429
 30
0.0
 42
-0.414214
  0
VERTEX
  5
5A0
330
343
100
AcDbEntity
  8
GUIDE
100
AcDbVertex
100
AcDb2dVertex
 10
110.0
 20
-76.071429
 30
0.0
  0
VERTEX
  5
5A1
330
343
100
AcDbEntity
  8
GUIDE
100
AcDbVertex
100
AcDb2dVertex
 10
101.0
 20
-76.071429
 30
0.0
 42
-0.414214
  0
VERTEX
  5
5A2
330
343
100
AcDbEntity
  8
GUIDE
100
AcDbVertex
100
AcDb2dVertex
 10
100.0
 20
-75.071429
 30
0.0
  0
VERTEX
  5
5A3
330
343
100
AcDbEntity
  8
GUIDE
100
AcDbVertex
100
AcDb2dVertex
 10
100.0
 20
-67.5
 30
0.0
 42
-0.414214
  0
VERTEX
  5
5A4
330
343
100
AcDbEntity
  8
GUIDE
100
AcDbVertex
100
AcDb2dVertex
 10
101.0
 20
-66.5
 30
0.0
  0
VERTEX
  5
5A5
330
343
100
AcDbEntity
  8
GUIDE
100
AcDbVertex
100
AcDb2dVertex
 10
110.0
 20
-66.5
 30
0.0
 42
-0.414214
  0
SEQEND
  5
59D
330
343
100
AcDbEntity
  8
GUIDE
  0
POLYLINE
  5
34D
330
1A
100
AcDbEntity
  8
GUIDE
100
AcDb2dPolyline
 66
     1
 10
0.0
 20
0.0
 30
0.0
 70
     1
  0
VERTEX
  5
5A7
330
34D
100
AcDbEntity
  8
GUIDE
100
AcDbVertex
100
AcDb2dVertex
 10
111.0
 20
-124.928571
 30
0.0
  0
VERTEX
  5
5A8
330
34D
100
AcDbEntity
  8
GUIDE
100
AcDbVertex
100
AcDb2dVertex
 10
111.0
 20
-132.5
 30
0.0
 42
-0.414214
  0
VERTEX
  5
5A9
330
34D
100
AcDbEntity
  8
GUIDE
100
AcDbVertex
100
AcDb2dVertex
 10
110.0
 20
-133.5
 30
0.0
  0
VERTEX
  5
5AA
330
34D
100
AcDbEntity
  8
GUIDE
100
AcDbVertex
100
AcDb2dVertex
 10
101.0
 20
-133.5
 30
0.0
 42
-0.414214
  0
VERTEX
  5
5AB
330
34D
100
AcDbEntity
  8
GUIDE
100
AcDbVertex
100
AcDb2dVertex
 10
100.0
 20
-132.5
 30
0.0
  0
VERTEX
  5
5AC
330
34D
100
AcDbEntity
  8
GUIDE
100
AcDbVertex
100
AcDb2dVertex
 10
100.0
 20
-124.928571
 30
0.0
 42
-0.414214
  0
VERTEX
  5
5AD
330
34D
100
AcDbEntity
  8
GUIDE
100
AcDbVertex
100
AcDb2dVertex
 10
101.0
 20
-123.928571
 30
0.0
  0
VERTEX
  5
5AE
330
34D
100
AcDbEntity
  8
GUIDE
100
AcDbVertex
100
AcDb2dVertex
 10
110.0
 20
-123.928571
 30
0.0
 42
-0.414214
  0
SEQEND
  5
5A6
330
34D
100
AcDbEntity
  8
GUIDE
  0
POLYLINE
  5
357
330
1A
100
AcDbEntity
  8
GUIDE
100
AcDb2dPolyline
 66
     1
 10
0.0
 20
0.0
 30
0.0
 70
     1
  0
VERTEX
  5
5B0
330
357
100
AcDbEntity
  8
GUIDE
100
AcDbVertex
100
AcDb2dVertex
 10
111.0
 20
-115.357143
 30
0.0
  0
VERTEX
  5
5B1
330
357
100
AcDbEntity
  8
GUIDE
100
AcDbVertex
100
AcDb2dVertex
 10
111.0
 20
-122.928571
 30
0.0
 42
-0.414214
  0
VERTEX
  5
5B2
330
357
100
AcDbEntity
  8
GUIDE
100
AcDbVertex
100
AcDb2dVertex
 10
110.0
 20
-123.928571
 30
0.0
  0
VERTEX
  5
5B3
330
357
100
AcDbEntity
  8
GUIDE
100
AcDbVertex
100
AcDb2dVertex
 10
101.0
 20
-123.928571
 30
0.0
 42
-0.414214
  0
VERTEX
  5
5B4
330
357
100
AcDbEntity
  8
GUIDE
100
AcDbVertex
100
AcDb2dVertex
 10
100.0
 20
-122.928571
 30
0.0
  0
VERTEX
  5
5B5
330
357
100
AcDbEntity
  8
GUIDE
100
AcDbVertex
100
AcDb2dVertex
 10
100.0
 20
-115.357143
 30
0.0
 42
-0.414214
  0
VERTEX
  5
5B6
330
357
100
AcDbEntity
  8
GUIDE
100
AcDbVertex
100
AcDb2dVertex
 10
101.0
 20
-114.357143
 30
0.0
  0
VERTEX
  5
5B7
330
357
100
AcDbEntity
  8
GUIDE
100
AcDbVertex
100
AcDb2dVertex
 10
110.0
 20
-114.357143
 30
0.0
 42
-0.414214
  0
SEQEND
  5
5AF
330
357
100
AcDbEntity
  8
GUIDE
  0
POLYLINE
  5
361
330
1A
100
AcDbEntity
  8
GUIDE
100
AcDb2dPolyline
 66
     1
 10
0.0
 20
0.0
 30
0.0
 70
     1
  0
VERTEX
  5
5B9
330
361
100
AcDbEntity
  8
GUIDE
100
AcDbVertex
100
AcDb2dVertex
 10
111.0
 20
-105.785714
 30
0.0
  0
VERTEX
  5
5BA
330
361
100
AcDbEntity
  8
GUIDE
100
AcDbVertex
100
AcDb2dVertex
 10
111.0
 20
-113.357143
 30
0.0
 42
-0.414214
  0
VERTEX
  5
5BB
330
361
100
AcDbEntity
  8
GUIDE
100
AcDbVertex
100
AcDb2dVertex
 10
110.0
 20
-114.357143
 30
0.0
  0
VERTEX
  5
5BC
330
361
100
AcDbEntity
  8
GUIDE
100
AcDbVertex
100
AcDb2dVertex
 10
101.0
 20
-114.357143
 30
0.0
 42
-0.414214
  0
VERTEX
  5
5BD
330
361
100
AcDbEntity
  8
GUIDE
100
AcDbVertex
100
AcDb2dVertex
 10
100.0
 20
-113.357143
 30
0.0
  0
VERTEX
  5
5BE
330
361
100
AcDbEntity
  8
GUIDE
100
AcDbVertex
100
AcDb2dVertex
 10
100.0
 20
-105.785714
 30
0.0
 42
-0.414214
  0
VERTEX
  5
5BF
330
361
100
AcDbEntity
  8
GUIDE
100
AcDbVertex
100
AcDb2dVertex
 10
101.0
 20
-104.785714
 30
0.0
  0
VERTEX
  5
5C0
330
361
100
AcDbEntity
  8
GUIDE
100
AcDbVertex
100
AcDb2dVertex
 10
110.0
 20
-104.785714
 30
0.0
 42
-0.414214
  0
SEQEND
  5
5B8
330
361
100
AcDbEntity
  8
GUIDE
  0
POLYLINE
  5
36B
330
1A
100
AcDbEntity
  8
GUIDE
100
AcDb2dPolyline
 66
     1
 10
0.0
 20
0.0
 30
0.0
 70
     1
  0
VERTEX
  5
5C2
330
36B
100
AcDbEntity
  8
GUIDE
100
AcDbVertex
100
AcDb2dVertex
 10
111.0
 20
-96.214286
 30
0.0
  0
VERTEX
  5
5C3
330
36B
100
AcDbEntity
  8
GUIDE
100
AcDbVertex
100
AcDb2dVertex
 10
111.0
 20
-103.785714
 30
0.0
 42
-0.414214
  0
VERTEX
  5
5C4
330
36B
100
AcDbEntity
  8
GUIDE
100
AcDbVertex
100
AcDb2dVertex
 10
110.0
 20
-104.785714
 30
0.0
  0
VERTEX
  5
5C5
330
36B
100
AcDbEntity
  8
GUIDE
100
AcDbVertex
100
AcDb2dVertex
 10
101.0
 20
-104.785714
 30
0.0
 42
-0.414214
  0
VERTEX
  5
5C6
330
36B
100
AcDbEntity
  8
GUIDE
100
AcDbVertex
100
AcDb2dVertex
 10
100.0
 20
-103.785714
 30
0.0
  0
VERTEX
  5
5C7
330
36B
100
AcDbEntity
  8
GUIDE
100
AcDbVertex
100
AcDb2dVertex
 10
100.0
 20
-96.214286
 30
0.0
 42
-0.414214
  0
VERTEX
  5
5C8
330
36B
100
AcDbEntity
  8
GUIDE
100
AcDbVertex
100
AcDb2dVertex
 10
101.0
 20
-95.214286
 30
0.0
  0
VERTEX
  5
5C9
330
36B
100
AcDbEntity
  8
GUIDE
100
AcDbVertex
100
AcDb2dVertex
 10
110.0
 20
-95.214286
 30
0.0
 42
-0.414214
  0
SEQEND
  5
5C1
330
36B
100
AcDbEntity
  8
GUIDE
  0
LINE
  5
375
330
1A
100
AcDbEntity
  8
GUIDE
100
AcDbLine
 10
103.0
 20
-66.5
 30
0.0
 11
103.0
 21
-64.5
 31
0.0
  0
LINE
  5
376
330
1A
100
AcDbEntity
  8
GUIDE
100
AcDbLine
 10
108.0
 20
-66.5
 30
0.0
 11
108.0
 21
-64.5
 31
0.0
  0
LINE
  5
377
330
1A
100
AcDbEntity
  8
GUIDE
100
AcDbLine
 10
103.0
 20
-64.5
 30
0.0
 11
108.0
 21
-64.5
 31
0.0
  0
LINE
  5
378
330
1A
100
AcDbEntity
  8
GUIDE
100
AcDbLine
 10
99.0
 20
-131.0
 30
0.0
 11
88.5
 21
-131.0
 31
0.0
  0
LINE
  5
379
330
1A
100
AcDbEntity
  8
GUIDE
100
AcDbLine
 10
88.5
 20
-140.424522
 30
0.0
 11
109.9
 21
-140.424522
 31
0.0
  0
LINE
  5
37A
330
1A
100
AcDbEntity
  8
GUIDE
100
AcDbLine
 10
99.0
 20
-106.0
 30
0.0
 11
88.5
 21
-106.0
 31
0.0
  0
LINE
  5
37B
330
1A
100
AcDbEntity
  8
GUIDE
100
AcDbLine
 10
99.0
 20
-100.0
 30
0.0
 11
88.5
 21
-100.0
 31
0.0
  0
LINE
  5
37C
330
1A
100
AcDbEntity
  8
GUIDE
100
AcDbLine
 10
99.0
 20
-69.0
 30
0.0
 11
88.5
 21
-69.0
 31
0.0
  0
LINE
  5
37D
330
1A
100
AcDbEntity
  8
GUIDE
100
AcDbLine
 10
109.9
 20
-62.1
 30
0.0
 11
88.5
 21
-62.1
 31
0.0
  0
LINE
  5
37E
330
1A
100
AcDbEntity
  8
GUIDE
100
AcDbLine
 10
109.9
 20
-59.9
 30
0.0
 11
88.5
 21
-59.9
 31
0.0
  0
LINE
  5
37F
330
1A
100
AcDbEntity
  8
GUIDE
100
AcDbLine
 10
88.5
 20
-137.575478
 30
0.0
 11
109.9
 21
-137.575478
 31
0.0
  0
LINE
  5
380
330
1A
100
AcDbEntity
  8
GUIDE
100
AcDbLine
 10
99.0
 20
-94.0
 30
0.0
 11
88.5
 21
-94.0
 31
0.0
  0
ENDSEC
  0
SECTION
  2
OBJECTS
  0
DICTIONARY
  5
C
330
0
100
AcDbDictionary
  3
ACAD_GROUP
350
D
  3
ACAD_LAYOUT
350
382
  3
ACAD_MLINESTYLE
350
E
1001
ACAD
1000
TREAT_AS_HARD
1070
     0
  0
DICTIONARY
  5
5CA
330
381
100
AcDbDictionary
  3
ACAD_XREC_ROUNDTRIP
360
5CB
  0
DICTIONARY
  5
D
102
{ACAD_REACTORS
330
C
102
}
330
C
100
AcDbDictionary
1001
ACAD
1000
TREAT_AS_HARD
1070
     0
  0
DICTIONARY
  5
382
102
{ACAD_REACTORS
330
C
102
}
330
C
100
AcDbDictionary
1001
ACAD
1000
TREAT_AS_HARD
1070
     0
  0
DICTIONARY
  5
E
102
{ACAD_REACTORS
330
C
102
}
330
C
100
AcDbDictionary
  3
STANDARD
350
13
1001
ACAD
1000
TREAT_AS_HARD
1070
     0
  0
XRECORD
  5
5CB
102
{ACAD_REACTORS
330
5CA
102
}
330
5CA
100
AcDbXrecord
102
UCS
 74
     0
 71
     1
 10
0.0
 20
0.0
 30
0.0
 10
1.0
 20
0.0
 30
0.0
 10
0.0
 20
1.0
 30
0.0
146
0.0
 79
     0
102
VIEW
281
     0
  0
MLINESTYLE
  5
13
102
{ACAD_REACTORS
330
E
102
}
330
E
100
AcDbMlineStyle
  2
STANDARD
 70
     0
  3

 62
     0
 51
90.0
 52
90.0
 71
     2
 49
0.5
 62
   256
  6
BYLAYER
 49
-0.5
 62
   256
  6
BYLAYER
  0
ENDSEC
  0
EOF
