  0
SECTION
  2
HEADER
  9
$ACADVER
  1
AC1009
  9
$INSBASE
 10
0
 20
0
  9
$EXTMIN
 10
-27.7
 20
-157.5
  9
$EXTMAX
 10
72.50000000000028
 20
-5.234773999999996
  9
$LIMMIN
 10
-27.7
 20
-157.5
  9
$LIMMAX
 10
72.50000000000028
 20
-5.234773999999996
  9
$VIEWCTR
 10
10
 20
10
  9
$VIEWSIZE
 40
10
  9
$SNAPMODE
 70
0
  9
$SNAPUNIT
 10
1
 20
1
  9
$SNAPBASE
 10
0
 20
0
  9
$SNAPANG
 50
0
  9
$SNAPSTYLE
 70
0
  9
$SNAPISOPAIR
 70
0
  9
$GRIDMODE
 70
0
  9
$GRIDUNIT
 10
0
 20
0
  9
$ORTHOMODE
 70
0
  9
$REGENMODE
 70
1
  9
$FILLMODE
 70
1
  9
$QTEXTMODE
 70
0
  9
$DRAGMODE
 70
2
  9
$LTSCALE
 40
1
  9
$OSMODE
 70
0
  9
$ATTMODE
 70
1
  9
$TEXTSIZE
 40
3.5
  9
$TRACEWID
 40
0.5
  9
$TEXTSTYLE
  7
STANDARD
  9
$CLAYER
  8
0
  9
$CELTYPE
  6
BYLAYER
  9
$CECOLOR
 62
256
  9
$DIMSCALE
 40
1
  9
$DIMASZ
 40
0.18
  9
$DIMEXO
 40
0.0625
  9
$DIMDLI
 40
0.38
  9
$DIMRND
 40
0
  9
$DIMDLE
 40
0
  9
$DIMEXE
 40
0.18
  9
$DIMTP
 40
0
  9
$DIMTM
 40
0
  9
$DIMTXT
 40
0.18
  9
$DIMCEN
 40
0.09
  9
$DIMTSZ
 40
0
  9
$DIMTOL
 70
0
  9
$DIMLIM
 70
0
  9
$DIMTIH
 70
1
  9
$DIMTOH
 70
1
  9
$DIMSE1
 70
0
  9
$DIMSE2
 70
0
  9
$DIMTAD
 70
0
  9
$DIMZIN
 70
0
  9
$DIMBLK
  1

  9
$DIMASO
 70
1
  9
$DIMSHO
 70
1
  9
$DIMPOST
  1

  9
$DIMAPOST
  1

  9
$DIMALT
 70
0
  9
$DIMALTD
 70
2
  9
$DIMALTF
 40
25.4
  9
$DIMLFAC
 40
1
  9
$DIMTOFL
 70
0
  9
$DIMTVP
 40
0
  9
$DIMTIX
 70
0
  9
$DIMSOXD
 70
0
  9
$DIMSAH
 70
0
  9
$DIMBLK1
  1

  9
$DIMBLK2
  1

  9
$DIMSTYLE
  2
*UNNAMED
  9
$DIMCLRD
 70
0
  9
$DIMCLRE
 70
0
  9
$DIMCLRT
 70
0
  9
$DIMTFAC
 40
1
  9
$DIMGAP
 40
0.09
  9
$LUNITS
 70
2
  9
$LUPREC
 70
4
  9
$AXISMODE
 70
0
  9
$AXISUNIT
 10
0
 20
0
  9
$SKETCHINC
 40
0.1
  9
$FILLETRAD
 40
2
  9
$AUNITS
 70
0
  9
$AUPREC
 70
0
  9
$MENU
  1
ACAD
  9
$ELEVATION
 40
0
  9
$THICKNESS
 40
0
  9
$VIEWDIR
 10
0
 20
0
 30
1
  9
$LIMCHECK
 70
0
  9
$BLIPMODE
 70
1
  9
$CHAMFERA
 40
0
  9
$CHAMFERB
 40
0
  9
$FASTZOOM
 70
1
  9
$SKPOLY
 70
0
  9
$ANGBASE
 50
0
  9
$ANGDIR
 70
0
  9
$PDMODE
 70
0
  9
$PDSIZE
 40
0
  9
$PLINEWID
 40
0
  9
$COORDS
 70
2
  0
ENDSEC
  0
SECTION
  2
TABLES
  0
TABLE
  2
DIMSTYLE
 70
0
  0
ENDTAB
  0
TABLE
  2
LTYPE
 70
9
  0
LTYPE
  2
CONTINUOUS
 70
64
  3
Solid line
 72
65
 73
0
 40
0
  0
LTYPE
  2
BORDER
 70
64
  3
__ __ . __ __ .
 72
65
 73
6
 40
7.012214355263159
 49
2.003489815789474
 49
-1.001744907894737
 49
2.003489815789474
 49
-1.001744907894737
 49
0
 49
-1.001744907894737
  0
LTYPE
  2
CENTER
 70
64
  3
____ _ ____ _
 72
65
 73
4
 40
8.013959263157895
 49
5.008724539473684
 49
-1.001744907894737
 49
1.001744907894737
 49
-1.001744907894737
  0
LTYPE
  2
DASHDOT
 70
64
  3
__ . __ . __ .
 72
65
 73
4
 40
4.006979631578948
 49
2.003489815789474
 49
-1.001744907894737
 49
0
 49
-1.001744907894737
  0
LTYPE
  2
DASHED
 70
64
  3
__ __ __ __ __
 72
65
 73
2
 40
3.005234723684211
 49
2.003489815789474
 49
-1.001744907894737
  0
LTYPE
  2
DIVIDE
 70
64
  3
__ . . __ . . 
 72
65
 73
6
 40
5.008724539473684
 49
2.003489815789474
 49
-1.001744907894737
 49
0
 49
-1.001744907894737
 49
0
 49
-1.001744907894737
  0
LTYPE
  2
DOT
 70
64
  3
..............
 72
65
 73
4
 40
2.003489815789474
 49
0
 49
-1.001744907894737
 49
0
 49
-1.001744907894737
  0
LTYPE
  2
HIDDEN
 70
64
  3
_ _ _ _ _ _ _
 72
65
 73
2
 40
1.502617361842106
 49
1.001744907894737
 49
-0.5008724539473685
  0
LTYPE
  2
PHANTOM
 70
64
  3
_____ _ _ _____ _ _ 
 72
65
 73
6
 40
10.01744907894737
 49
5.008724539473684
 49
-1.001744907894737
 49
1.001744907894737
 49
-1.001744907894737
 49
1.001744907894737
 49
-1.001744907894737
  0
ENDTAB
  0
TABLE
  2
LAYER
 70
4
  0
LAYER
  2
GUIDE
 70
0
 62
7
  6
CONTINUOUS
  0
LAYER
  2
1
 70
0
 62
7
  6
CONTINUOUS
  0
LAYER
  2
0
 70
0
 62
7
  6
CONTINUOUS
  0
ENDTAB
  0
TABLE
  2
STYLE
 70
4
  0
STYLE
  2
STANDARD
 70
0
 40
0
 41
1
 50
0
 71
0
 42
3.5
  3
txt
  4

  0
STYLE
  2
SIMPLEX
 70
0
 40
0
 41
1
 50
0
 71
0
 42
3.5
  3
simplex
  4

  0
STYLE
  2
COMPLEX
 70
0
 40
0
 41
1
 50
0
 71
0
 42
3.5
  3
complex
  4

  0
STYLE
  2
ITALIC
 70
0
 40
0
 41
1
 50
0
 71
0
 42
3.5
  3
italic
  4

  0
ENDTAB
  0
TABLE
  2
VIEW
 70
0
  0
ENDTAB
  0
ENDSEC
  0
SECTION
  2
BLOCKS
  0
ENDSEC
  0
SECTION
  2
ENTITIES
  0
POLYLINE
  8
GUIDE
 62
7
 66
1
 70
1
  0
VERTEX
  8
GUIDE
 10
-25.4
 20
-61.35714200000001
 30
0
  0
VERTEX
  8
GUIDE
 10
-25.4
 20
-53.78571300000002
 30
0
 42
-0.4142139999999993
  0
VERTEX
  8
GUIDE
 10
-24.4
 20
-52.78571300000002
 30
0
  0
VERTEX
  8
GUIDE
 10
-15.4
 20
-52.78571300000002
 30
0
 42
-0.4142139999999991
  0
VERTEX
  8
GUIDE
 10
-14.4
 20
-53.78571300000002
 30
0
  0
VERTEX
  8
GUIDE
 10
-14.4
 20
-61.35714200000001
 30
0
 42
-0.414213999999997
  0
VERTEX
  8
GUIDE
 10
-15.4
 20
-62.35714200000001
 30
0
  0
VERTEX
  8
GUIDE
 10
-24.4
 20
-62.35714200000001
 30
0
 42
-0.4142139999999971
  0
VERTEX
  8
GUIDE
 10
-25.4
 20
-61.35714200000001
 30
0
  0
SEQEND
  8
GUIDE
  0
POLYLINE
  8
GUIDE
 62
7
 66
1
 70
1
  0
VERTEX
  8
GUIDE
 10
-12.8
 20
-61.35714200000001
 30
0
  0
VERTEX
  8
GUIDE
 10
-12.8
 20
-53.78571300000002
 30
0
 42
-0.4142139999999988
  0
VERTEX
  8
GUIDE
 10
-11.8
 20
-52.78571300000002
 30
0
  0
VERTEX
  8
GUIDE
 10
-2.8
 20
-52.78571300000002
 30
0
 42
-0.4142139999999991
  0
VERTEX
  8
GUIDE
 10
-1.8
 20
-53.78571300000002
 30
0
  0
VERTEX
  8
GUIDE
 10
-1.8
 20
-61.35714200000001
 30
0
 42
-0.414213999999997
  0
VERTEX
  8
GUIDE
 10
-2.8
 20
-62.35714200000001
 30
0
  0
VERTEX
  8
GUIDE
 10
-11.8
 20
-62.35714200000001
 30
0
 42
-0.4142139999999966
  0
VERTEX
  8
GUIDE
 10
-12.8
 20
-61.35714200000001
 30
0
  0
SEQEND
  8
GUIDE
  0
POLYLINE
  8
GUIDE
 62
7
 66
1
 70
1
  0
VERTEX
  8
GUIDE
 10
-25.4
 20
-70.92857100000001
 30
0
  0
VERTEX
  8
GUIDE
 10
-25.4
 20
-63.35714200000001
 30
0
 42
-0.4142139999999972
  0
VERTEX
  8
GUIDE
 10
-24.4
 20
-62.35714200000001
 30
0
  0
VERTEX
  8
GUIDE
 10
-15.4
 20
-62.35714200000001
 30
0
 42
-0.414213999999997
  0
VERTEX
  8
GUIDE
 10
-14.4
 20
-63.35714200000001
 30
0
  0
VERTEX
  8
GUIDE
 10
-14.4
 20
-70.92857100000001
 30
0
 42
-0.414213999999997
  0
VERTEX
  8
GUIDE
 10
-15.4
 20
-71.92857100000001
 30
0
  0
VERTEX
  8
GUIDE
 10
-24.4
 20
-71.92857100000001
 30
0
 42
-0.4142139999999971
  0
VERTEX
  8
GUIDE
 10
-25.4
 20
-70.92857100000001
 30
0
  0
SEQEND
  8
GUIDE
  0
POLYLINE
  8
GUIDE
 62
7
 66
1
 70
1
  0
VERTEX
  8
GUIDE
 10
-12.8
 20
-70.92857100000001
 30
0
  0
VERTEX
  8
GUIDE
 10
-12.8
 20
-63.35714200000001
 30
0
 42
-0.4142139999999967
  0
VERTEX
  8
GUIDE
 10
-11.8
 20
-62.35714200000001
 30
0
  0
VERTEX
  8
GUIDE
 10
-2.8
 20
-62.35714200000001
 30
0
 42
-0.414213999999997
  0
VERTEX
  8
GUIDE
 10
-1.8
 20
-63.35714200000001
 30
0
  0
VERTEX
  8
GUIDE
 10
-1.8
 20
-70.92857100000001
 30
0
 42
-0.414213999999997
  0
VERTEX
  8
GUIDE
 10
-2.8
 20
-71.92857100000001
 30
0
  0
VERTEX
  8
GUIDE
 10
-11.8
 20
-71.92857100000001
 30
0
 42
-0.4142139999999966
  0
VERTEX
  8
GUIDE
 10
-12.8
 20
-70.92857100000001
 30
0
  0
SEQEND
  8
GUIDE
  0
POLYLINE
  8
GUIDE
 62
7
 66
1
 70
1
  0
VERTEX
  8
GUIDE
 10
-25.4
 20
-80.5
 30
0
  0
VERTEX
  8
GUIDE
 10
-25.4
 20
-72.92857100000001
 30
0
 42
-0.4142139999999972
  0
VERTEX
  8
GUIDE
 10
-24.4
 20
-71.92857100000001
 30
0
  0
VERTEX
  8
GUIDE
 10
-15.4
 20
-71.92857100000001
 30
0
 42
-0.414213999999997
  0
VERTEX
  8
GUIDE
 10
-14.4
 20
-72.92857100000001
 30
0
  0
VERTEX
  8
GUIDE
 10
-14.4
 20
-80.5
 30
0
 42
-0.414213999999997
  0
VERTEX
  8
GUIDE
 10
-15.4
 20
-81.5
 30
0
  0
VERTEX
  8
GUIDE
 10
-24.4
 20
-81.5
 30
0
 42
-0.4142139999999971
  0
VERTEX
  8
GUIDE
 10
-25.4
 20
-80.5
 30
0
  0
SEQEND
  8
GUIDE
  0
POLYLINE
  8
GUIDE
 62
7
 66
1
 70
1
  0
VERTEX
  8
GUIDE
 10
-12.8
 20
-80.5
 30
0
  0
VERTEX
  8
GUIDE
 10
-12.8
 20
-72.92857100000001
 30
0
 42
-0.4142139999999967
  0
VERTEX
  8
GUIDE
 10
-11.8
 20
-71.92857100000001
 30
0
  0
VERTEX
  8
GUIDE
 10
-2.8
 20
-71.92857100000001
 30
0
 42
-0.414213999999997
  0
VERTEX
  8
GUIDE
 10
-1.8
 20
-72.92857100000001
 30
0
  0
VERTEX
  8
GUIDE
 10
-1.8
 20
-80.5
 30
0
 42
-0.414213999999997
  0
VERTEX
  8
GUIDE
 10
-2.8
 20
-81.5
 30
0
  0
VERTEX
  8
GUIDE
 10
-11.8
 20
-81.5
 30
0
 42
-0.4142139999999966
  0
VERTEX
  8
GUIDE
 10
-12.8
 20
-80.5
 30
0
  0
SEQEND
  8
GUIDE
  0
POLYLINE
  8
GUIDE
 62
7
 66
1
 70
1
  0
VERTEX
  8
GUIDE
 10
72.5
 20
-53.78571300000002
 30
0
  0
VERTEX
  8
GUIDE
 10
72.5
 20
-61.35714200000001
 30
0
 42
-0.414213999999996
  0
VERTEX
  8
GUIDE
 10
71.5
 20
-62.35714200000001
 30
0
  0
VERTEX
  8
GUIDE
 10
62.5
 20
-62.35714200000001
 30
0
 42
-0.4142139999999961
  0
VERTEX
  8
GUIDE
 10
61.5
 20
-61.35714200000001
 30
0
  0
VERTEX
  8
GUIDE
 10
61.5
 20
-53.78571300000002
 30
0
 42
-0.4142139999999983
  0
VERTEX
  8
GUIDE
 10
62.5
 20
-52.78571300000002
 30
0
  0
VERTEX
  8
GUIDE
 10
71.5
 20
-52.78571300000002
 30
0
 42
-0.414213999999998
  0
VERTEX
  8
GUIDE
 10
72.5
 20
-53.78571300000002
 30
0
  0
SEQEND
  8
GUIDE
  0
POLYLINE
  8
GUIDE
 62
7
 66
1
 70
1
  0
VERTEX
  8
GUIDE
 10
72.5
 20
-63.35714200000001
 30
0
  0
VERTEX
  8
GUIDE
 10
72.5
 20
-70.92857100000001
 30
0
 42
-0.414213999999996
  0
VERTEX
  8
GUIDE
 10
71.5
 20
-71.92857100000001
 30
0
  0
VERTEX
  8
GUIDE
 10
62.5
 20
-71.92857100000001
 30
0
 42
-0.4142139999999961
  0
VERTEX
  8
GUIDE
 10
61.5
 20
-70.92857100000001
 30
0
  0
VERTEX
  8
GUIDE
 10
61.5
 20
-63.35714200000001
 30
0
 42
-0.4142139999999961
  0
VERTEX
  8
GUIDE
 10
62.5
 20
-62.35714200000001
 30
0
  0
VERTEX
  8
GUIDE
 10
71.5
 20
-62.35714200000001
 30
0
 42
-0.414213999999996
  0
VERTEX
  8
GUIDE
 10
72.5
 20
-63.35714200000001
 30
0
  0
SEQEND
  8
GUIDE
  0
POLYLINE
  8
GUIDE
 62
7
 66
1
 70
1
  0
VERTEX
  8
GUIDE
 10
72.5
 20
-72.92857100000001
 30
0
  0
VERTEX
  8
GUIDE
 10
72.5
 20
-80.5
 30
0
 42
-0.414213999999996
  0
VERTEX
  8
GUIDE
 10
71.5
 20
-81.5
 30
0
  0
VERTEX
  8
GUIDE
 10
62.5
 20
-81.5
 30
0
 42
-0.4142139999999961
  0
VERTEX
  8
GUIDE
 10
61.5
 20
-80.5
 30
0
  0
VERTEX
  8
GUIDE
 10
61.5
 20
-72.92857100000001
 30
0
 42
-0.4142139999999961
  0
VERTEX
  8
GUIDE
 10
62.5
 20
-71.92857100000001
 30
0
  0
VERTEX
  8
GUIDE
 10
71.5
 20
-71.92857100000001
 30
0
 42
-0.414213999999996
  0
VERTEX
  8
GUIDE
 10
72.5
 20
-72.92857100000001
 30
0
  0
SEQEND
  8
GUIDE
  0
POLYLINE
  8
GUIDE
 62
7
 66
1
 70
1
  0
VERTEX
  8
GUIDE
 10
-25.4
 20
-147.5
 30
0
  0
VERTEX
  8
GUIDE
 10
-25.4
 20
-139.928571
 30
0
 42
-0.4142140000000086
  0
VERTEX
  8
GUIDE
 10
-24.4
 20
-138.928571
 30
0
  0
VERTEX
  8
GUIDE
 10
-15.4
 20
-138.928571
 30
0
 42
-0.4142140000000085
  0
VERTEX
  8
GUIDE
 10
-14.4
 20
-139.928571
 30
0
  0
VERTEX
  8
GUIDE
 10
-14.4
 20
-147.5
 30
0
 42
-0.4142140000000085
  0
VERTEX
  8
GUIDE
 10
-15.4
 20
-148.5
 30
0
  0
VERTEX
  8
GUIDE
 10
-24.4
 20
-148.5
 30
0
 42
-0.4142140000000086
  0
VERTEX
  8
GUIDE
 10
-25.4
 20
-147.5
 30
0
  0
SEQEND
  8
GUIDE
  0
POLYLINE
  8
GUIDE
 62
7
 66
1
 70
1
  0
VERTEX
  8
GUIDE
 10
-12.8
 20
-147.5
 30
0
  0
VERTEX
  8
GUIDE
 10
-12.8
 20
-139.928571
 30
0
 42
-0.4142140000000112
  0
VERTEX
  8
GUIDE
 10
-11.8
 20
-138.928571
 30
0
  0
VERTEX
  8
GUIDE
 10
-2.8
 20
-138.928571
 30
0
 42
-0.4142140000000092
  0
VERTEX
  8
GUIDE
 10
-1.8
 20
-139.928571
 30
0
  0
VERTEX
  8
GUIDE
 10
-1.8
 20
-147.5
 30
0
 42
-0.4142140000000092
  0
VERTEX
  8
GUIDE
 10
-2.8
 20
-148.5
 30
0
  0
VERTEX
  8
GUIDE
 10
-11.8
 20
-148.5
 30
0
 42
-0.4142140000000112
  0
VERTEX
  8
GUIDE
 10
-12.8
 20
-147.5
 30
0
  0
SEQEND
  8
GUIDE
  0
POLYLINE
  8
GUIDE
 62
7
 66
1
 70
1
  0
VERTEX
  8
GUIDE
 10
-25.4
 20
-137.928571
 30
0
  0
VERTEX
  8
GUIDE
 10
-25.4
 20
-130.357143
 30
0
 42
-0.4142140000000055
  0
VERTEX
  8
GUIDE
 10
-24.4
 20
-129.357143
 30
0
  0
VERTEX
  8
GUIDE
 10
-15.4
 20
-129.357143
 30
0
 42
-0.4142140000000053
  0
VERTEX
  8
GUIDE
 10
-14.4
 20
-130.357143
 30
0
  0
VERTEX
  8
GUIDE
 10
-14.4
 20
-137.928571
 30
0
 42
-0.4142140000000053
  0
VERTEX
  8
GUIDE
 10
-15.4
 20
-138.928571
 30
0
  0
VERTEX
  8
GUIDE
 10
-24.4
 20
-138.928571
 30
0
 42
-0.4142140000000055
  0
VERTEX
  8
GUIDE
 10
-25.4
 20
-137.928571
 30
0
  0
SEQEND
  8
GUIDE
  0
POLYLINE
  8
GUIDE
 62
7
 66
1
 70
1
  0
VERTEX
  8
GUIDE
 10
-12.8
 20
-137.928571
 30
0
  0
VERTEX
  8
GUIDE
 10
-12.8
 20
-130.357143
 30
0
 42
-0.4142140000000081
  0
VERTEX
  8
GUIDE
 10
-11.8
 20
-129.357143
 30
0
  0
VERTEX
  8
GUIDE
 10
-2.8
 20
-129.357143
 30
0
 42
-0.4142140000000071
  0
VERTEX
  8
GUIDE
 10
-1.8
 20
-130.357143
 30
0
  0
VERTEX
  8
GUIDE
 10
-1.8
 20
-137.928571
 30
0
 42
-0.4142140000000071
  0
VERTEX
  8
GUIDE
 10
-2.8
 20
-138.928571
 30
0
  0
VERTEX
  8
GUIDE
 10
-11.8
 20
-138.928571
 30
0
 42
-0.4142140000000081
  0
VERTEX
  8
GUIDE
 10
-12.8
 20
-137.928571
 30
0
  0
SEQEND
  8
GUIDE
  0
POLYLINE
  8
GUIDE
 62
7
 66
1
 70
1
  0
VERTEX
  8
GUIDE
 10
-25.4
 20
-128.357143
 30
0
  0
VERTEX
  8
GUIDE
 10
-25.4
 20
-120.785714
 30
0
 42
-0.4142140000000086
  0
VERTEX
  8
GUIDE
 10
-24.4
 20
-119.785714
 30
0
  0
VERTEX
  8
GUIDE
 10
-15.4
 20
-119.785714
 30
0
 42
-0.4142140000000085
  0
VERTEX
  8
GUIDE
 10
-14.4
 20
-120.785714
 30
0
  0
VERTEX
  8
GUIDE
 10
-14.4
 20
-128.357143
 30
0
 42
-0.4142140000000085
  0
VERTEX
  8
GUIDE
 10
-15.4
 20
-129.357143
 30
0
  0
VERTEX
  8
GUIDE
 10
-24.4
 20
-129.357143
 30
0
 42
-0.4142140000000086
  0
VERTEX
  8
GUIDE
 10
-25.4
 20
-128.357143
 30
0
  0
SEQEND
  8
GUIDE
  0
POLYLINE
  8
GUIDE
 62
7
 66
1
 70
1
  0
VERTEX
  8
GUIDE
 10
-12.8
 20
-128.357143
 30
0
  0
VERTEX
  8
GUIDE
 10
-12.8
 20
-120.785714
 30
0
 42
-0.4142140000000112
  0
VERTEX
  8
GUIDE
 10
-11.8
 20
-119.785714
 30
0
  0
VERTEX
  8
GUIDE
 10
-2.8
 20
-119.785714
 30
0
 42
-0.4142140000000092
  0
VERTEX
  8
GUIDE
 10
-1.8
 20
-120.785714
 30
0
  0
VERTEX
  8
GUIDE
 10
-1.8
 20
-128.357143
 30
0
 42
-0.4142140000000092
  0
VERTEX
  8
GUIDE
 10
-2.8
 20
-129.357143
 30
0
  0
VERTEX
  8
GUIDE
 10
-11.8
 20
-129.357143
 30
0
 42
-0.4142140000000112
  0
VERTEX
  8
GUIDE
 10
-12.8
 20
-128.357143
 30
0
  0
SEQEND
  8
GUIDE
  0
POLYLINE
  8
GUIDE
 62
7
 66
1
 70
1
  0
VERTEX
  8
GUIDE
 10
-25.4
 20
-118.785714
 30
0
  0
VERTEX
  8
GUIDE
 10
-25.4
 20
-111.214286
 30
0
 42
-0.4142140000000055
  0
VERTEX
  8
GUIDE
 10
-24.4
 20
-110.214286
 30
0
  0
VERTEX
  8
GUIDE
 10
-15.4
 20
-110.214286
 30
0
 42
-0.4142140000000053
  0
VERTEX
  8
GUIDE
 10
-14.4
 20
-111.214286
 30
0
  0
VERTEX
  8
GUIDE
 10
-14.4
 20
-118.785714
 30
0
 42
-0.4142140000000085
  0
VERTEX
  8
GUIDE
 10
-15.4
 20
-119.785714
 30
0
  0
VERTEX
  8
GUIDE
 10
-24.4
 20
-119.785714
 30
0
 42
-0.4142140000000086
  0
VERTEX
  8
GUIDE
 10
-25.4
 20
-118.785714
 30
0
  0
SEQEND
  8
GUIDE
  0
POLYLINE
  8
GUIDE
 62
7
 66
1
 70
1
  0
VERTEX
  8
GUIDE
 10
-12.8
 20
-118.785714
 30
0
  0
VERTEX
  8
GUIDE
 10
-12.8
 20
-111.214286
 30
0
 42
-0.414214000000005
  0
VERTEX
  8
GUIDE
 10
-11.8
 20
-110.214286
 30
0
  0
VERTEX
  8
GUIDE
 10
-2.8
 20
-110.214286
 30
0
 42
-0.4142140000000053
  0
VERTEX
  8
GUIDE
 10
-1.8
 20
-111.214286
 30
0
  0
VERTEX
  8
GUIDE
 10
-1.8
 20
-118.785714
 30
0
 42
-0.4142140000000092
  0
VERTEX
  8
GUIDE
 10
-2.8
 20
-119.785714
 30
0
  0
VERTEX
  8
GUIDE
 10
-11.8
 20
-119.785714
 30
0
 42
-0.4142140000000112
  0
VERTEX
  8
GUIDE
 10
-12.8
 20
-118.785714
 30
0
  0
SEQEND
  8
GUIDE
  0
POLYLINE
  8
GUIDE
 62
7
 66
1
 70
1
  0
VERTEX
  8
GUIDE
 10
-25.4
 20
-109.214286
 30
0
  0
VERTEX
  8
GUIDE
 10
-25.4
 20
-101.642857
 30
0
 42
-0.4142140000000055
  0
VERTEX
  8
GUIDE
 10
-24.4
 20
-100.642857
 30
0
  0
VERTEX
  8
GUIDE
 10
-15.4
 20
-100.642857
 30
0
 42
-0.4142140000000053
  0
VERTEX
  8
GUIDE
 10
-14.4
 20
-101.642857
 30
0
  0
VERTEX
  8
GUIDE
 10
-14.4
 20
-109.214286
 30
0
 42
-0.4142140000000053
  0
VERTEX
  8
GUIDE
 10
-15.4
 20
-110.214286
 30
0
  0
VERTEX
  8
GUIDE
 10
-24.4
 20
-110.214286
 30
0
 42
-0.4142140000000055
  0
VERTEX
  8
GUIDE
 10
-25.4
 20
-109.214286
 30
0
  0
SEQEND
  8
GUIDE
  0
POLYLINE
  8
GUIDE
 62
7
 66
1
 70
1
  0
VERTEX
  8
GUIDE
 10
-12.8
 20
-109.214286
 30
0
  0
VERTEX
  8
GUIDE
 10
-12.8
 20
-101.642857
 30
0
 42
-0.414214000000005
  0
VERTEX
  8
GUIDE
 10
-11.8
 20
-100.642857
 30
0
  0
VERTEX
  8
GUIDE
 10
-2.8
 20
-100.642857
 30
0
 42
-0.4142140000000053
  0
VERTEX
  8
GUIDE
 10
-1.8
 20
-101.642857
 30
0
  0
VERTEX
  8
GUIDE
 10
-1.8
 20
-109.214286
 30
0
 42
-0.4142140000000053
  0
VERTEX
  8
GUIDE
 10
-2.8
 20
-110.214286
 30
0
  0
VERTEX
  8
GUIDE
 10
-11.8
 20
-110.214286
 30
0
 42
-0.4142140000000049
  0
VERTEX
  8
GUIDE
 10
-12.8
 20
-109.214286
 30
0
  0
SEQEND
  8
GUIDE
  0
POLYLINE
  8
GUIDE
 62
7
 66
1
 70
1
  0
VERTEX
  8
GUIDE
 10
-25.4
 20
-99.64285700000001
 30
0
  0
VERTEX
  8
GUIDE
 10
-25.4
 20
-92.071429
 30
0
 42
-0.4142139999999972
  0
VERTEX
  8
GUIDE
 10
-24.4
 20
-91.071429
 30
0
  0
VERTEX
  8
GUIDE
 10
-15.4
 20
-91.071429
 30
0
 42
-0.414213999999997
  0
VERTEX
  8
GUIDE
 10
-14.4
 20
-92.071429
 30
0
  0
VERTEX
  8
GUIDE
 10
-14.4
 20
-99.64285700000001
 30
0
 42
-0.414213999999997
  0
VERTEX
  8
GUIDE
 10
-15.4
 20
-100.642857
 30
0
  0
VERTEX
  8
GUIDE
 10
-24.4
 20
-100.642857
 30
0
 42
-0.4142139999999971
  0
VERTEX
  8
GUIDE
 10
-25.4
 20
-99.64285700000001
 30
0
  0
SEQEND
  8
GUIDE
  0
POLYLINE
  8
GUIDE
 62
7
 66
1
 70
1
  0
VERTEX
  8
GUIDE
 10
-12.8
 20
-99.64285700000001
 30
0
  0
VERTEX
  8
GUIDE
 10
-12.8
 20
-92.071429
 30
0
 42
-0.4142139999999967
  0
VERTEX
  8
GUIDE
 10
-11.8
 20
-91.071429
 30
0
  0
VERTEX
  8
GUIDE
 10
-2.8
 20
-91.071429
 30
0
 42
-0.414213999999997
  0
VERTEX
  8
GUIDE
 10
-1.8
 20
-92.071429
 30
0
  0
VERTEX
  8
GUIDE
 10
-1.8
 20
-99.64285700000001
 30
0
 42
-0.414213999999997
  0
VERTEX
  8
GUIDE
 10
-2.8
 20
-100.642857
 30
0
  0
VERTEX
  8
GUIDE
 10
-11.8
 20
-100.642857
 30
0
 42
-0.4142139999999966
  0
VERTEX
  8
GUIDE
 10
-12.8
 20
-99.64285700000001
 30
0
  0
SEQEND
  8
GUIDE
  0
POLYLINE
  8
GUIDE
 62
7
 66
1
 70
1
  0
VERTEX
  8
GUIDE
 10
-25.4
 20
-90.071429
 30
0
  0
VERTEX
  8
GUIDE
 10
-25.4
 20
-82.5
 30
0
 42
-0.4142139999999972
  0
VERTEX
  8
GUIDE
 10
-24.4
 20
-81.5
 30
0
  0
VERTEX
  8
GUIDE
 10
-15.4
 20
-81.5
 30
0
 42
-0.414213999999997
  0
VERTEX
  8
GUIDE
 10
-14.4
 20
-82.5
 30
0
  0
VERTEX
  8
GUIDE
 10
-14.4
 20
-90.071429
 30
0
 42
-0.414213999999997
  0
VERTEX
  8
GUIDE
 10
-15.4
 20
-91.071429
 30
0
  0
VERTEX
  8
GUIDE
 10
-24.4
 20
-91.071429
 30
0
 42
-0.4142139999999971
  0
VERTEX
  8
GUIDE
 10
-25.4
 20
-90.071429
 30
0
  0
SEQEND
  8
GUIDE
  0
POLYLINE
  8
GUIDE
 62
7
 66
1
 70
1
  0
VERTEX
  8
GUIDE
 10
-12.8
 20
-90.071429
 30
0
  0
VERTEX
  8
GUIDE
 10
-12.8
 20
-82.5
 30
0
 42
-0.4142139999999967
  0
VERTEX
  8
GUIDE
 10
-11.8
 20
-81.5
 30
0
  0
VERTEX
  8
GUIDE
 10
-2.8
 20
-81.5
 30
0
 42
-0.414213999999997
  0
VERTEX
  8
GUIDE
 10
-1.8
 20
-82.5
 30
0
  0
VERTEX
  8
GUIDE
 10
-1.8
 20
-90.071429
 30
0
 42
-0.414213999999997
  0
VERTEX
  8
GUIDE
 10
-2.8
 20
-91.071429
 30
0
  0
VERTEX
  8
GUIDE
 10
-11.8
 20
-91.071429
 30
0
 42
-0.4142139999999966
  0
VERTEX
  8
GUIDE
 10
-12.8
 20
-90.071429
 30
0
  0
SEQEND
  8
GUIDE
  0
POLYLINE
  8
GUIDE
 62
7
 66
1
  0
VERTEX
  8
GUIDE
 10
-1.800000000000001
 20
-150.5
 30
0
  0
VERTEX
  8
GUIDE
 10
-1.8
 20
-157.5
 30
0
  0
VERTEX
  8
GUIDE
 10
-27.2
 20
-157.5
 30
0
  0
SEQEND
  8
GUIDE
  0
POLYLINE
  8
GUIDE
 62
7
 66
1
  0
VERTEX
  8
GUIDE
 10
-25.40000000000001
 20
-49.5
 30
0
  0
VERTEX
  8
GUIDE
 10
-25.4
 20
-42.5
 30
0
  0
VERTEX
  8
GUIDE
 10
0
 20
-42.5
 30
0
  0
VERTEX
  8
GUIDE
 10
0
 20
-44.9
 30
0
  0
SEQEND
  8
GUIDE
  0
POLYLINE
  8
GUIDE
 62
7
 66
1
  0
VERTEX
  8
GUIDE
 10
0
 20
-47.1
 30
0
  0
VERTEX
  8
GUIDE
 10
0
 20
-49.5
 30
0
  0
SEQEND
  8
GUIDE
  0
POLYLINE
  8
GUIDE
 62
7
 66
1
  0
VERTEX
  8
GUIDE
 10
-27.2
 20
-157.5
 30
0
  0
VERTEX
  8
GUIDE
 10
-27.2
 20
-155.1
 30
0
  0
SEQEND
  8
GUIDE
  0
POLYLINE
  8
GUIDE
 62
7
 66
1
  0
VERTEX
  8
GUIDE
 10
-27.2
 20
-152.9
 30
0
  0
VERTEX
  8
GUIDE
 10
-27.2
 20
-150.5
 30
0
  0
SEQEND
  8
GUIDE
  0
POLYLINE
  8
GUIDE
 62
7
 66
1
  0
VERTEX
  8
GUIDE
 10
-26.2
 20
-27.734774
 30
0
  0
VERTEX
  8
GUIDE
 10
-26.2
 20
-9.334774
 30
0
 42
-0.414214
  0
VERTEX
  8
GUIDE
 10
-23.2
 20
-6.334774
 30
0
  0
VERTEX
  8
GUIDE
 10
-4
 20
-6.334774
 30
0
 42
-0.4142140000000001
  0
VERTEX
  8
GUIDE
 10
-1
 20
-9.334774
 30
0
  0
VERTEX
  8
GUIDE
 10
-1
 20
-27.734774
 30
0
  0
VERTEX
  8
GUIDE
 10
-10.3
 20
-27.734774
 30
0
  0
SEQEND
  8
GUIDE
  0
POLYLINE
  8
GUIDE
 62
7
 66
1
  0
VERTEX
  8
GUIDE
 10
-15.3
 20
-27.734774
 30
0
  0
VERTEX
  8
GUIDE
 10
-26.2
 20
-27.734774
 30
0
  0
SEQEND
  8
GUIDE
  0
POLYLINE
  8
GUIDE
 62
7
 66
1
 70
1
  0
VERTEX
  8
GUIDE
 10
72.5
 20
-101.642857
 30
0
  0
VERTEX
  8
GUIDE
 10
72.5
 20
-109.214286
 30
0
 42
-0.4142140000000043
  0
VERTEX
  8
GUIDE
 10
71.5
 20
-110.214286
 30
0
  0
VERTEX
  8
GUIDE
 10
62.5
 20
-110.214286
 30
0
 42
-0.4142140000000044
  0
VERTEX
  8
GUIDE
 10
61.5
 20
-109.214286
 30
0
  0
VERTEX
  8
GUIDE
 10
61.5
 20
-101.642857
 30
0
 42
-0.4142140000000045
  0
VERTEX
  8
GUIDE
 10
62.5
 20
-100.642857
 30
0
  0
VERTEX
  8
GUIDE
 10
71.5
 20
-100.642857
 30
0
 42
-0.4142140000000043
  0
VERTEX
  8
GUIDE
 10
72.5
 20
-101.642857
 30
0
  0
SEQEND
  8
GUIDE
  0
POLYLINE
  8
GUIDE
 62
7
 66
1
 70
1
  0
VERTEX
  8
GUIDE
 10
72.5
 20
-92.071429
 30
0
  0
VERTEX
  8
GUIDE
 10
72.5
 20
-99.64285700000001
 30
0
 42
-0.414213999999996
  0
VERTEX
  8
GUIDE
 10
71.5
 20
-100.642857
 30
0
  0
VERTEX
  8
GUIDE
 10
62.5
 20
-100.642857
 30
0
 42
-0.4142139999999961
  0
VERTEX
  8
GUIDE
 10
61.5
 20
-99.64285700000001
 30
0
  0
VERTEX
  8
GUIDE
 10
61.5
 20
-92.071429
 30
0
 42
-0.4142139999999961
  0
VERTEX
  8
GUIDE
 10
62.5
 20
-91.071429
 30
0
  0
VERTEX
  8
GUIDE
 10
71.5
 20
-91.071429
 30
0
 42
-0.414213999999996
  0
VERTEX
  8
GUIDE
 10
72.5
 20
-92.071429
 30
0
  0
SEQEND
  8
GUIDE
  0
POLYLINE
  8
GUIDE
 62
7
 66
1
 70
1
  0
VERTEX
  8
GUIDE
 10
72.5
 20
-82.5
 30
0
  0
VERTEX
  8
GUIDE
 10
72.5
 20
-90.071429
 30
0
 42
-0.414213999999996
  0
VERTEX
  8
GUIDE
 10
71.5
 20
-91.071429
 30
0
  0
VERTEX
  8
GUIDE
 10
62.5
 20
-91.071429
 30
0
 42
-0.4142139999999961
  0
VERTEX
  8
GUIDE
 10
61.5
 20
-90.071429
 30
0
  0
VERTEX
  8
GUIDE
 10
61.5
 20
-82.5
 30
0
 42
-0.4142139999999961
  0
VERTEX
  8
GUIDE
 10
62.5
 20
-81.5
 30
0
  0
VERTEX
  8
GUIDE
 10
71.5
 20
-81.5
 30
0
 42
-0.414213999999996
  0
VERTEX
  8
GUIDE
 10
72.5
 20
-82.5
 30
0
  0
SEQEND
  8
GUIDE
  0
POLYLINE
  8
GUIDE
 62
7
 66
1
 70
1
  0
VERTEX
  8
GUIDE
 10
72.5
 20
-139.928571
 30
0
  0
VERTEX
  8
GUIDE
 10
72.5
 20
-147.5
 30
0
 42
-0.4142140000000085
  0
VERTEX
  8
GUIDE
 10
71.5
 20
-148.5
 30
0
  0
VERTEX
  8
GUIDE
 10
62.5
 20
-148.5
 30
0
 42
-0.4142140000000086
  0
VERTEX
  8
GUIDE
 10
61.5
 20
-147.5
 30
0
  0
VERTEX
  8
GUIDE
 10
61.5
 20
-139.928571
 30
0
 42
-0.4142140000000086
  0
VERTEX
  8
GUIDE
 10
62.5
 20
-138.928571
 30
0
  0
VERTEX
  8
GUIDE
 10
71.5
 20
-138.928571
 30
0
 42
-0.4142140000000085
  0
VERTEX
  8
GUIDE
 10
72.5
 20
-139.928571
 30
0
  0
SEQEND
  8
GUIDE
  0
POLYLINE
  8
GUIDE
 62
7
 66
1
 70
1
  0
VERTEX
  8
GUIDE
 10
72.5
 20
-130.357143
 30
0
  0
VERTEX
  8
GUIDE
 10
72.5
 20
-137.928571
 30
0
 42
-0.4142140000000043
  0
VERTEX
  8
GUIDE
 10
71.5
 20
-138.928571
 30
0
  0
VERTEX
  8
GUIDE
 10
62.5
 20
-138.928571
 30
0
 42
-0.4142140000000044
  0
VERTEX
  8
GUIDE
 10
61.5
 20
-137.928571
 30
0
  0
VERTEX
  8
GUIDE
 10
61.5
 20
-130.357143
 30
0
 42
-0.4142140000000045
  0
VERTEX
  8
GUIDE
 10
62.5
 20
-129.357143
 30
0
  0
VERTEX
  8
GUIDE
 10
71.5
 20
-129.357143
 30
0
 42
-0.4142140000000043
  0
VERTEX
  8
GUIDE
 10
72.5
 20
-130.357143
 30
0
  0
SEQEND
  8
GUIDE
  0
POLYLINE
  8
GUIDE
 62
7
 66
1
 70
1
  0
VERTEX
  8
GUIDE
 10
72.5
 20
-120.785714
 30
0
  0
VERTEX
  8
GUIDE
 10
72.5
 20
-128.357143
 30
0
 42
-0.4142140000000085
  0
VERTEX
  8
GUIDE
 10
71.5
 20
-129.357143
 30
0
  0
VERTEX
  8
GUIDE
 10
62.5
 20
-129.357143
 30
0
 42
-0.4142140000000086
  0
VERTEX
  8
GUIDE
 10
61.5
 20
-128.357143
 30
0
  0
VERTEX
  8
GUIDE
 10
61.5
 20
-120.785714
 30
0
 42
-0.4142140000000086
  0
VERTEX
  8
GUIDE
 10
62.5
 20
-119.785714
 30
0
  0
VERTEX
  8
GUIDE
 10
71.5
 20
-119.785714
 30
0
 42
-0.4142140000000085
  0
VERTEX
  8
GUIDE
 10
72.5
 20
-120.785714
 30
0
  0
SEQEND
  8
GUIDE
  0
POLYLINE
  8
GUIDE
 62
7
 66
1
 70
1
  0
VERTEX
  8
GUIDE
 10
72.5
 20
-111.214286
 30
0
  0
VERTEX
  8
GUIDE
 10
72.5
 20
-118.785714
 30
0
 42
-0.4142140000000085
  0
VERTEX
  8
GUIDE
 10
71.5
 20
-119.785714
 30
0
  0
VERTEX
  8
GUIDE
 10
62.5
 20
-119.785714
 30
0
 42
-0.4142140000000086
  0
VERTEX
  8
GUIDE
 10
61.5
 20
-118.785714
 30
0
  0
VERTEX
  8
GUIDE
 10
61.5
 20
-111.214286
 30
0
 42
-0.4142140000000045
  0
VERTEX
  8
GUIDE
 10
62.5
 20
-110.214286
 30
0
  0
VERTEX
  8
GUIDE
 10
71.5
 20
-110.214286
 30
0
 42
-0.4142140000000043
  0
VERTEX
  8
GUIDE
 10
72.5
 20
-111.214286
 30
0
  0
SEQEND
  8
GUIDE
  0
LINE
  8
GUIDE
 62
7
 10
-27.2
 20
-150.5
 30
0
 11
-26.2
 21
-150.5
 31
0
  0
LINE
  8
GUIDE
 62
7
 10
-27.2
 20
-100
 30
0
 11
-27.2
 21
-106
 31
0
  0
LINE
  8
GUIDE
 62
7
 10
0
 20
-100
 30
0
 11
0
 21
-94
 31
0
  0
LINE
  8
GUIDE
 62
7
 10
-27.2
 20
-100
 30
0
 11
-25.4
 21
-100
 31
0
  0
LINE
  8
GUIDE
 62
7
 10
-27.2
 20
-106
 30
0
 11
-25.4
 21
-106
 31
0
  0
LINE
  8
GUIDE
 62
7
 10
0
 20
-94
 30
0
 11
-1.8
 21
-94
 31
0
  0
LINE
  8
GUIDE
 62
7
 10
-1.8
 20
-100
 30
0
 11
0
 21
-100
 31
0
  0
LINE
  8
GUIDE
 62
7
 10
-1.8
 20
-106
 30
0
 11
0
 21
-106
 31
0
  0
LINE
  8
GUIDE
 62
7
 10
-27.2
 20
-94
 30
0
 11
-27.2
 21
-69
 31
0
  0
LINE
  8
GUIDE
 62
7
 10
-25.4
 20
-94
 30
0
 11
-27.2
 21
-94
 31
0
  0
LINE
  8
GUIDE
 62
7
 10
0
 20
-106
 30
0
 11
0
 21
-131
 31
0
  0
LINE
  8
GUIDE
 62
7
 10
0
 20
-131
 30
0
 11
-1.8
 21
-131
 31
0
  0
LINE
  8
GUIDE
 62
7
 10
-1.8
 20
-69
 30
0
 11
0
 21
-69
 31
0
  0
LINE
  8
GUIDE
 62
7
 10
-25.4
 20
-69
 30
0
 11
-27.2
 21
-69
 31
0
  0
LINE
  8
GUIDE
 62
7
 10
0
 20
-69
 30
0
 11
0
 21
-49.5
 31
0
  0
LINE
  8
GUIDE
 62
7
 10
-27.2
 20
-131
 30
0
 11
-27.2
 21
-150.5
 31
0
  0
LINE
  8
GUIDE
 62
7
 10
-25.4
 20
-131
 30
0
 11
-27.2
 21
-131
 31
0
  0
LINE
  8
GUIDE
 62
7
 10
-17.40000000000001
 20
-49.5
 30
0
 11
-22.40000000000001
 21
-49.5
 31
0
  0
LINE
  8
GUIDE
 62
7
 10
-9.799999999999997
 20
-150.5
 30
0
 11
-4.799999999999997
 21
-150.5
 31
0
  0
LINE
  8
GUIDE
 62
7
 10
-17.40000000000001
 20
-49.5
 30
0
 11
-17.4
 21
-52.78571300000002
 31
0
  0
LINE
  8
GUIDE
 62
7
 10
-22.40000000000001
 20
-49.5
 30
0
 11
-22.4
 21
-52.78571300000002
 31
0
  0
LINE
  8
GUIDE
 62
7
 10
-9.799999999999997
 20
-49.5
 30
0
 11
-9.800000000000001
 21
-52.78571300000002
 31
0
  0
LINE
  8
GUIDE
 62
7
 10
-4.799999999999997
 20
-49.5
 30
0
 11
-4.8
 21
-52.78571300000002
 31
0
  0
LINE
  8
GUIDE
 62
7
 10
-22.4
 20
-148.5
 30
0
 11
-22.40000000000001
 21
-150.5
 31
0
  0
LINE
  8
GUIDE
 62
7
 10
-17.4
 20
-148.5
 30
0
 11
-17.40000000000001
 21
-150.5
 31
0
  0
LINE
  8
GUIDE
 62
7
 10
-9.800000000000001
 20
-148.5
 30
0
 11
-9.799999999999997
 21
-150.5
 31
0
  0
LINE
  8
GUIDE
 62
7
 10
-4.800000000000001
 20
-148.5
 30
0
 11
-4.799999999999997
 21
-150.5
 31
0
  0
LINE
  8
GUIDE
 62
7
 10
-17.40000000000001
 20
-150.5
 30
0
 11
-22.40000000000001
 21
-150.5
 31
0
  0
LINE
  8
GUIDE
 62
7
 10
-9.799999999999997
 20
-49.5
 30
0
 11
-4.799999999999997
 21
-49.5
 31
0
  0
LINE
  8
GUIDE
 62
7
 10
-25.40000000000001
 20
-49.5
 30
0
 11
-16.9
 21
-49.5
 31
0
  0
LINE
  8
GUIDE
 62
7
 10
-1.800000000000001
 20
-150.5
 30
0
 11
-10.27
 21
-150.5
 31
0
  0
LINE
  8
GUIDE
 62
7
 10
-10.77
 20
-47.5
 30
0
 11
-16.4
 21
-47.5
 31
0
  0
LINE
  8
GUIDE
 62
7
 10
-16.9
 20
-49.5
 30
0
 11
-16.4
 21
-47.5
 31
0
  0
LINE
  8
GUIDE
 62
7
 10
-10.27
 20
-49.5
 30
0
 11
-10.77
 21
-47.5
 31
0
  0
LINE
  8
GUIDE
 62
7
 10
-10.27
 20
-49.5
 30
0
 11
0
 21
-49.5
 31
0
  0
LINE
  8
GUIDE
 62
7
 10
-10.77
 20
-152.5
 30
0
 11
-16.4
 21
-152.5
 31
0
  0
LINE
  8
GUIDE
 62
7
 10
-16.9
 20
-150.5
 30
0
 11
-16.4
 21
-152.5
 31
0
  0
LINE
  8
GUIDE
 62
7
 10
-10.27
 20
-150.5
 30
0
 11
-10.77
 21
-152.5
 31
0
  0
LINE
  8
GUIDE
 62
7
 10
-16.9
 20
-150.5
 30
0
 11
-27.2
 21
-150.5
 31
0
  0
LINE
  8
GUIDE
 62
7
 10
-27.7
 20
-46.928908
 30
0
 11
-27.7
 21
-45.071092
 31
0
  0
LINE
  8
GUIDE
 62
7
 10
-27.133918
 20
-44.575478
 30
0
 11
-25.4
 21
-44.9
 31
0
  0
LINE
  8
GUIDE
 62
7
 10
-27.133918
 20
-47.424522
 30
0
 11
-25.4
 21
-47.1
 31
0
  0
LINE
  8
GUIDE
 62
7
 10
-1.5
 20
-46.928908
 30
0
 11
-1.5
 21
-45.071092
 31
0
  0
LINE
  8
GUIDE
 62
7
 10
-0.933918
 20
-47.424522
 30
0
 11
0
 21
-47.1
 31
0
  0
LINE
  8
GUIDE
 62
7
 10
-0.933918
 20
-44.575478
 30
0
 11
0
 21
-44.9
 31
0
  0
LINE
  8
GUIDE
 62
7
 10
0.5
 20
-153.071092
 30
0
 11
0.5
 21
-154.928908
 31
0
  0
LINE
  8
GUIDE
 62
7
 10
-0.066082
 20
-152.575478
 30
0
 11
-1.8
 21
-152.9
 31
0
  0
LINE
  8
GUIDE
 62
7
 10
-0.066082
 20
-155.424522
 30
0
 11
-1.8
 21
-155.1
 31
0
  0
LINE
  8
GUIDE
 62
7
 10
-25.7
 20
-153.071092
 30
0
 11
-25.7
 21
-154.928908
 31
0
  0
LINE
  8
GUIDE
 62
7
 10
-26.266082
 20
-152.575478
 30
0
 11
-27.2
 21
-152.9
 31
0
  0
LINE
  8
GUIDE
 62
7
 10
-26.266082
 20
-155.424522
 30
0
 11
-27.2
 21
-155.1
 31
0
  0
LINE
  8
GUIDE
 62
7
 10
-25.40000000000001
 20
-49.5
 30
0
 11
-25.4
 21
-67.5
 31
0
  0
LINE
  8
GUIDE
 62
7
 10
-1.800000000000001
 20
-150.5
 30
0
 11
-1.8
 21
-132.5
 31
0
  0
LINE
  8
GUIDE
 62
7
 10
-27.2
 20
-26.734774
 30
0
 11
-27.2
 21
-10.334774
 31
0
  0
LINE
  8
GUIDE
 62
7
 10
0
 20
-26.734774
 30
0
 11
0
 21
-10.334774
 31
0
  0
LINE
  8
GUIDE
 62
7
 10
71.40000000000001
 20
-157.5
 30
0
 11
50
 21
-157.5
 31
0
  0
LINE
  8
GUIDE
 62
7
 10
71.40000000000001
 20
-42.5
 30
0
 11
50
 21
-42.5
 31
0
  0
LINE
  8
GUIDE
 62
7
 10
71.40000000000001
 20
-150.5
 30
0
 11
60.5
 21
-150.5
 31
0
  0
LINE
  8
GUIDE
 62
7
 10
71.40000000000001
 20
-49.5
 30
0
 11
60.5
 21
-49.49999999999999
 31
0
  0
LINE
  8
GUIDE
 62
7
 10
71.40000000000001
 20
-157.5
 30
0
 11
71.40000000000001
 21
-150.5
 31
0
  0
LINE
  8
GUIDE
 62
7
 10
50
 20
-157.5
 30
0
 11
50
 21
-42.5
 31
0
  0
LINE
  8
GUIDE
 62
7
 10
60.5
 20
-150.5
 30
0
 11
60.5
 21
-49.49999999999999
 31
0
  0
LINE
  8
GUIDE
 62
7
 10
71.40000000000001
 20
-49.5
 30
0
 11
71.40000000000001
 21
-42.5
 31
0
  0
LINE
  8
GUIDE
 62
7
 10
69.5
 20
-150.5
 30
0
 11
69.5
 21
-148.5
 31
0
  0
LINE
  8
GUIDE
 62
7
 10
64.5
 20
-150.5
 30
0
 11
64.5
 21
-148.5
 31
0
  0
LINE
  8
GUIDE
 62
7
 10
64.5
 20
-150.5
 30
0
 11
69.5
 21
-150.5
 31
0
  0
LINE
  8
GUIDE
 62
7
 10
64.5
 20
-52.78571300000002
 30
0
 11
64.5
 21
-49.5
 31
0
  0
LINE
  8
GUIDE
 62
7
 10
69.5
 20
-52.78571300000002
 30
0
 11
69.5
 21
-49.5
 31
0
  0
LINE
  8
GUIDE
 62
7
 10
64.5
 20
-49.5
 30
0
 11
69.5
 21
-49.5
 31
0
  0
LINE
  8
GUIDE
 62
7
 10
60.5
 20
-131
 30
0
 11
50
 21
-131
 31
0
  0
LINE
  8
GUIDE
 62
7
 10
50
 20
-155.424522
 30
0
 11
71.40000000000001
 21
-155.424522
 31
0
  0
LINE
  8
GUIDE
 62
7
 10
60.5
 20
-106
 30
0
 11
50
 21
-106
 31
0
  0
LINE
  8
GUIDE
 62
7
 10
60.5
 20
-100
 30
0
 11
50
 21
-100
 31
0
  0
LINE
  8
GUIDE
 62
7
 10
60.5
 20
-69
 30
0
 11
50
 21
-69
 31
0
  0
LINE
  8
GUIDE
 62
7
 10
71.40000000000001
 20
-47.1
 30
0
 11
50
 21
-47.1
 31
0
  0
LINE
  8
GUIDE
 62
7
 10
71.40000000000001
 20
-44.9
 30
0
 11
50
 21
-44.9
 31
0
  0
LINE
  8
GUIDE
 62
7
 10
50
 20
-152.575478
 30
0
 11
71.40000000000001
 21
-152.575478
 31
0
  0
LINE
  8
GUIDE
 62
7
 10
60.5
 20
-94
 30
0
 11
50
 21
-94
 31
0
  0
LINE
  8
1
 62
7
 10
-16.05
 20
-27.734774
 30
0
 11
-16.05
 21
-24.234774
 31
0
  0
LINE
  8
1
 62
7
 10
-16.05
 20
-24.234774
 30
0
 11
-18.55
 21
-24.234774
 31
0
  0
LINE
  8
1
 62
7
 10
-18.55
 20
-24.234774
 30
0
 11
-18.55
 21
-20.234774
 31
0
  0
LINE
  8
1
 62
7
 10
-18.55
 20
-20.234774
 30
0
 11
-7.049999999999999
 21
-20.234774
 31
0
  0
LINE
  8
1
 62
7
 10
-7.049999999999999
 20
-20.234774
 30
0
 11
-7.049999999999999
 21
-24.234774
 31
0
  0
LINE
  8
1
 62
7
 10
-7.049999999999999
 20
-24.234774
 30
0
 11
-9.549999999999999
 21
-24.234774
 31
0
  0
LINE
  8
1
 62
7
 10
-9.549999999999999
 20
-24.234774
 30
0
 11
-9.549999999999999
 21
-27.734774
 31
0
  0
LINE
  8
1
 62
7
 10
-16.05
 20
-24.234774
 30
0
 11
-9.549999999999999
 21
-24.234774
 31
0
  0
LINE
  8
1
 62
7
 10
-15.3
 20
-27.734774
 30
0
 11
-10.3
 21
-27.734774
 31
0
  0
LINE
  8
1
 62
2
  6
DASHDOT
 10
-12.8
 20
-17.7572953125106
 30
0
 11
-12.8
 21
-29.7572953125106
 31
0
  0
ARC
  8
GUIDE
 62
7
 10
-27.2
 20
-45.071092
 30
0
 40
0.5000000000000027
 50
82.4053569999998
 51
180
  0
ARC
  8
GUIDE
 62
7
 10
-27.2
 20
-46.928908
 30
0
 40
0.5
 50
180
 51
277.5946430000002
  0
ARC
  8
GUIDE
 62
7
 10
-1
 20
-46.928908
 30
0
 40
0.5
 50
180
 51
277.594643
  0
ARC
  8
GUIDE
 62
7
 10
-1
 20
-45.071092
 30
0
 40
0.5000000000000024
 50
82.40535700000004
 51
180
  0
ARC
  8
GUIDE
 62
7
 10
0
 20
-153.071092
 30
0
 40
0.5
 50
0
 51
97.59464300000099
  0
ARC
  8
GUIDE
 62
7
 10
0
 20
-154.928908
 30
0
 40
0.4999999999999671
 50
262.4053569999995
 51
0
  0
ARC
  8
GUIDE
 62
7
 10
-26.2
 20
-153.071092
 30
0
 40
0.5
 50
0
 51
97.59464300000073
  0
ARC
  8
GUIDE
 62
7
 10
-26.2
 20
-154.928908
 30
0
 40
0.4999999999999675
 50
262.4053569999993
 51
0
  0
ARC
  8
GUIDE
 62
7
 10
-19.9
 20
-10.734774
 30
0
 40
5.500000000000004
 50
126.869898
 51
53.13010199999998
  0
ARC
  8
GUIDE
 62
7
 10
-19.9
 20
-10.734774
 30
0
 40
5.500000000000001
 50
53.13010199999998
 51
126.869898
  0
ARC
  8
GUIDE
 62
7
 10
-7.3
 20
-10.734774
 30
0
 40
5.500000000000002
 50
53.13010200000001
 51
126.869898
  0
ARC
  8
GUIDE
 62
7
 10
-7.3
 20
-10.734774
 30
0
 40
5.500000000000004
 50
126.869898
 51
53.13010200000001
  0
ARC
  8
GUIDE
 62
7
 10
-26.2
 20
-10.334774
 30
0
 40
1
 50
90
 51
180
  0
ARC
  8
GUIDE
 62
7
 10
-1
 20
-10.334774
 30
0
 40
1
 50
0
 51
90
  0
ARC
  8
GUIDE
 62
7
 10
-1
 20
-26.734774
 30
0
 40
1
 50
270
 51
0
  0
ARC
  8
GUIDE
 62
7
 10
-26.2
 20
-26.734774
 30
0
 40
1
 50
180
 51
270
  0
CIRCLE
  8
GUIDE
 62
7
 10
-7.3
 20
-10.734774
 30
0
 40
2.5
  0
CIRCLE
  8
GUIDE
 62
7
 10
-19.9
 20
-10.734774
 30
0
 40
2.5
  0
ENDSEC
  0
EOF
