  0
SECTION
  2
HEADER
  9
$ACADVER
  1
AC1009
  9
$INSBASE
 10
0
 20
0
  9
$EXTMIN
 10
-27.7
 20
-142.5
  9
$EXTMAX
 10
72.50000000000028
 20
-5.234773999999996
  9
$LIMMIN
 10
-27.7
 20
-142.5
  9
$LIMMAX
 10
72.50000000000028
 20
-5.234773999999996
  9
$VIEWCTR
 10
10
 20
10
  9
$VIEWSIZE
 40
10
  9
$SNAPMODE
 70
0
  9
$SNAPUNIT
 10
1
 20
1
  9
$SNAPBASE
 10
0
 20
0
  9
$SNAPANG
 50
0
  9
$SNAPSTYLE
 70
0
  9
$SNAPISOPAIR
 70
0
  9
$GRIDMODE
 70
0
  9
$GRIDUNIT
 10
0
 20
0
  9
$ORTHOMODE
 70
0
  9
$REGENMODE
 70
1
  9
$FILLMODE
 70
1
  9
$QTEXTMODE
 70
0
  9
$DRAGMODE
 70
2
  9
$LTSCALE
 40
1
  9
$OSMODE
 70
0
  9
$ATTMODE
 70
1
  9
$TEXTSIZE
 40
3.5
  9
$TRACEWID
 40
0.5
  9
$TEXTSTYLE
  7
STANDARD
  9
$CLAYER
  8
0
  9
$CELTYPE
  6
BYLAYER
  9
$CECOLOR
 62
256
  9
$DIMSCALE
 40
1
  9
$DIMASZ
 40
0.18
  9
$DIMEXO
 40
0.0625
  9
$DIMDLI
 40
0.38
  9
$DIMRND
 40
0
  9
$DIMDLE
 40
0
  9
$DIMEXE
 40
0.18
  9
$DIMTP
 40
0
  9
$DIMTM
 40
0
  9
$DIMTXT
 40
0.18
  9
$DIMCEN
 40
0.09
  9
$DIMTSZ
 40
0
  9
$DIMTOL
 70
0
  9
$DIMLIM
 70
0
  9
$DIMTIH
 70
1
  9
$DIMTOH
 70
1
  9
$DIMSE1
 70
0
  9
$DIMSE2
 70
0
  9
$DIMTAD
 70
0
  9
$DIMZIN
 70
0
  9
$DIMBLK
  1

  9
$DIMASO
 70
1
  9
$DIMSHO
 70
1
  9
$DIMPOST
  1

  9
$DIMAPOST
  1

  9
$DIMALT
 70
0
  9
$DIMALTD
 70
2
  9
$DIMALTF
 40
25.4
  9
$DIMLFAC
 40
1
  9
$DIMTOFL
 70
0
  9
$DIMTVP
 40
0
  9
$DIMTIX
 70
0
  9
$DIMSOXD
 70
0
  9
$DIMSAH
 70
0
  9
$DIMBLK1
  1

  9
$DIMBLK2
  1

  9
$DIMSTYLE
  2
*UNNAMED
  9
$DIMCLRD
 70
0
  9
$DIMCLRE
 70
0
  9
$DIMCLRT
 70
0
  9
$DIMTFAC
 40
1
  9
$DIMGAP
 40
0.09
  9
$LUNITS
 70
2
  9
$LUPREC
 70
4
  9
$AXISMODE
 70
0
  9
$AXISUNIT
 10
0
 20
0
  9
$SKETCHINC
 40
0.1
  9
$FILLETRAD
 40
2
  9
$AUNITS
 70
0
  9
$AUPREC
 70
0
  9
$MENU
  1
ACAD
  9
$ELEVATION
 40
0
  9
$THICKNESS
 40
0
  9
$VIEWDIR
 10
0
 20
0
 30
1
  9
$LIMCHECK
 70
0
  9
$BLIPMODE
 70
1
  9
$CHAMFERA
 40
0
  9
$CHAMFERB
 40
0
  9
$FASTZOOM
 70
1
  9
$SKPOLY
 70
0
  9
$ANGBASE
 50
0
  9
$ANGDIR
 70
0
  9
$PDMODE
 70
0
  9
$PDSIZE
 40
0
  9
$PLINEWID
 40
0
  9
$COORDS
 70
2
  0
ENDSEC
  0
SECTION
  2
TABLES
  0
TABLE
  2
DIMSTYLE
 70
0
  0
ENDTAB
  0
TABLE
  2
LTYPE
 70
9
  0
LTYPE
  2
CONTINUOUS
 70
64
  3
Solid line
 72
65
 73
0
 40
0
  0
LTYPE
  2
BORDER
 70
64
  3
__ __ . __ __ .
 72
65
 73
6
 40
6.321424881578948
 49
1.806121394736842
 49
-0.9030606973684211
 49
1.806121394736842
 49
-0.9030606973684211
 49
0
 49
-0.9030606973684211
  0
LTYPE
  2
CENTER
 70
64
  3
____ _ ____ _
 72
65
 73
4
 40
7.224485578947369
 49
4.515303486842106
 49
-0.9030606973684211
 49
0.9030606973684211
 49
-0.9030606973684211
  0
LTYPE
  2
DASHDOT
 70
64
  3
__ . __ . __ .
 72
65
 73
4
 40
3.612242789473684
 49
1.806121394736842
 49
-0.9030606973684211
 49
0
 49
-0.9030606973684211
  0
LTYPE
  2
DASHED
 70
64
  3
__ __ __ __ __
 72
65
 73
2
 40
2.709182092105263
 49
1.806121394736842
 49
-0.9030606973684211
  0
LTYPE
  2
DIVIDE
 70
64
  3
__ . . __ . . 
 72
65
 73
6
 40
4.515303486842106
 49
1.806121394736842
 49
-0.9030606973684211
 49
0
 49
-0.9030606973684211
 49
0
 49
-0.9030606973684211
  0
LTYPE
  2
DOT
 70
64
  3
..............
 72
65
 73
4
 40
1.806121394736842
 49
0
 49
-0.9030606973684211
 49
0
 49
-0.9030606973684211
  0
LTYPE
  2
HIDDEN
 70
64
  3
_ _ _ _ _ _ _
 72
65
 73
2
 40
1.354591046052632
 49
0.9030606973684211
 49
-0.4515303486842106
  0
LTYPE
  2
PHANTOM
 70
64
  3
_____ _ _ _____ _ _ 
 72
65
 73
6
 40
9.030606973684211
 49
4.515303486842106
 49
-0.9030606973684211
 49
0.9030606973684211
 49
-0.9030606973684211
 49
0.9030606973684211
 49
-0.9030606973684211
  0
ENDTAB
  0
TABLE
  2
LAYER
 70
4
  0
LAYER
  2
GUIDE
 70
0
 62
7
  6
CONTINUOUS
  0
LAYER
  2
1
 70
0
 62
7
  6
CONTINUOUS
  0
LAYER
  2
0
 70
0
 62
7
  6
CONTINUOUS
  0
ENDTAB
  0
TABLE
  2
STYLE
 70
4
  0
STYLE
  2
STANDARD
 70
0
 40
0
 41
1
 50
0
 71
0
 42
3.5
  3
txt
  4

  0
STYLE
  2
SIMPLEX
 70
0
 40
0
 41
1
 50
0
 71
0
 42
3.5
  3
simplex
  4

  0
STYLE
  2
COMPLEX
 70
0
 40
0
 41
1
 50
0
 71
0
 42
3.5
  3
complex
  4

  0
STYLE
  2
ITALIC
 70
0
 40
0
 41
1
 50
0
 71
0
 42
3.5
  3
italic
  4

  0
ENDTAB
  0
TABLE
  2
VIEW
 70
0
  0
ENDTAB
  0
ENDSEC
  0
SECTION
  2
BLOCKS
  0
ENDSEC
  0
SECTION
  2
ENTITIES
  0
POLYLINE
  8
GUIDE
 62
7
 66
1
 70
1
  0
VERTEX
  8
GUIDE
 10
72.5
 20
-96.214286
 30
0
 42
0.414213999999996
  0
VERTEX
  8
GUIDE
 10
71.5
 20
-95.214286
 30
0
  0
VERTEX
  8
GUIDE
 10
62.5
 20
-95.214286
 30
0
 42
0.4142139999999961
  0
VERTEX
  8
GUIDE
 10
61.5
 20
-96.214286
 30
0
  0
VERTEX
  8
GUIDE
 10
61.5
 20
-103.785714
 30
0
 42
0.4142140000000044
  0
VERTEX
  8
GUIDE
 10
62.5
 20
-104.785714
 30
0
  0
VERTEX
  8
GUIDE
 10
71.5
 20
-104.785714
 30
0
 42
0.4142140000000043
  0
VERTEX
  8
GUIDE
 10
72.5
 20
-103.785714
 30
0
  0
VERTEX
  8
GUIDE
 10
72.5
 20
-96.214286
 30
0
  0
SEQEND
  8
GUIDE
  0
POLYLINE
  8
GUIDE
 62
7
 66
1
 70
1
  0
VERTEX
  8
GUIDE
 10
72.5
 20
-105.785714
 30
0
 42
0.4142140000000043
  0
VERTEX
  8
GUIDE
 10
71.5
 20
-104.785714
 30
0
  0
VERTEX
  8
GUIDE
 10
62.5
 20
-104.785714
 30
0
 42
0.4142140000000045
  0
VERTEX
  8
GUIDE
 10
61.5
 20
-105.785714
 30
0
  0
VERTEX
  8
GUIDE
 10
61.5
 20
-113.357143
 30
0
 42
0.4142140000000044
  0
VERTEX
  8
GUIDE
 10
62.5
 20
-114.357143
 30
0
  0
VERTEX
  8
GUIDE
 10
71.5
 20
-114.357143
 30
0
 42
0.4142140000000043
  0
VERTEX
  8
GUIDE
 10
72.5
 20
-113.357143
 30
0
  0
VERTEX
  8
GUIDE
 10
72.5
 20
-105.785714
 30
0
  0
SEQEND
  8
GUIDE
  0
POLYLINE
  8
GUIDE
 62
7
 66
1
 70
1
  0
VERTEX
  8
GUIDE
 10
72.5
 20
-115.357143
 30
0
 42
0.4142140000000001
  0
VERTEX
  8
GUIDE
 10
71.5
 20
-114.357143
 30
0
  0
VERTEX
  8
GUIDE
 10
62.5
 20
-114.357143
 30
0
 42
0.4142140000000003
  0
VERTEX
  8
GUIDE
 10
61.5
 20
-115.357143
 30
0
  0
VERTEX
  8
GUIDE
 10
61.5
 20
-122.928571
 30
0
 42
0.4142140000000003
  0
VERTEX
  8
GUIDE
 10
62.5
 20
-123.928571
 30
0
  0
VERTEX
  8
GUIDE
 10
71.5
 20
-123.928571
 30
0
 42
0.4142140000000001
  0
VERTEX
  8
GUIDE
 10
72.5
 20
-122.928571
 30
0
  0
VERTEX
  8
GUIDE
 10
72.5
 20
-115.357143
 30
0
  0
SEQEND
  8
GUIDE
  0
POLYLINE
  8
GUIDE
 62
7
 66
1
 70
1
  0
VERTEX
  8
GUIDE
 10
72.5
 20
-124.928571
 30
0
 42
0.4142140000000043
  0
VERTEX
  8
GUIDE
 10
71.5
 20
-123.928571
 30
0
  0
VERTEX
  8
GUIDE
 10
62.5
 20
-123.928571
 30
0
 42
0.4142140000000045
  0
VERTEX
  8
GUIDE
 10
61.5
 20
-124.928571
 30
0
  0
VERTEX
  8
GUIDE
 10
61.5
 20
-132.5
 30
0
 42
0.4142140000000044
  0
VERTEX
  8
GUIDE
 10
62.5
 20
-133.5
 30
0
  0
VERTEX
  8
GUIDE
 10
71.5
 20
-133.5
 30
0
 42
0.4142140000000043
  0
VERTEX
  8
GUIDE
 10
72.5
 20
-132.5
 30
0
  0
VERTEX
  8
GUIDE
 10
72.5
 20
-124.928571
 30
0
  0
SEQEND
  8
GUIDE
  0
POLYLINE
  8
GUIDE
 62
7
 66
1
 70
1
  0
VERTEX
  8
GUIDE
 10
72.5
 20
-67.5
 30
0
 42
0.414213999999996
  0
VERTEX
  8
GUIDE
 10
71.5
 20
-66.5
 30
0
  0
VERTEX
  8
GUIDE
 10
62.5
 20
-66.5
 30
0
 42
0.4142139999999961
  0
VERTEX
  8
GUIDE
 10
61.5
 20
-67.5
 30
0
  0
VERTEX
  8
GUIDE
 10
61.5
 20
-75.071429
 30
0
 42
0.4142139999999961
  0
VERTEX
  8
GUIDE
 10
62.5
 20
-76.071429
 30
0
  0
VERTEX
  8
GUIDE
 10
71.5
 20
-76.071429
 30
0
 42
0.414213999999996
  0
VERTEX
  8
GUIDE
 10
72.5
 20
-75.071429
 30
0
  0
VERTEX
  8
GUIDE
 10
72.5
 20
-67.5
 30
0
  0
SEQEND
  8
GUIDE
  0
POLYLINE
  8
GUIDE
 62
7
 66
1
 70
1
  0
VERTEX
  8
GUIDE
 10
72.5
 20
-77.071429
 30
0
 42
0.414213999999996
  0
VERTEX
  8
GUIDE
 10
71.5
 20
-76.071429
 30
0
  0
VERTEX
  8
GUIDE
 10
62.5
 20
-76.071429
 30
0
 42
0.4142139999999961
  0
VERTEX
  8
GUIDE
 10
61.5
 20
-77.071429
 30
0
  0
VERTEX
  8
GUIDE
 10
61.5
 20
-84.64285700000001
 30
0
 42
0.4142139999999961
  0
VERTEX
  8
GUIDE
 10
62.5
 20
-85.64285700000001
 30
0
  0
VERTEX
  8
GUIDE
 10
71.5
 20
-85.64285700000001
 30
0
 42
0.414213999999996
  0
VERTEX
  8
GUIDE
 10
72.5
 20
-84.64285700000001
 30
0
  0
VERTEX
  8
GUIDE
 10
72.5
 20
-77.071429
 30
0
  0
SEQEND
  8
GUIDE
  0
POLYLINE
  8
GUIDE
 62
7
 66
1
 70
1
  0
VERTEX
  8
GUIDE
 10
72.5
 20
-86.64285700000001
 30
0
 42
0.414213999999996
  0
VERTEX
  8
GUIDE
 10
71.5
 20
-85.64285700000001
 30
0
  0
VERTEX
  8
GUIDE
 10
62.5
 20
-85.64285700000001
 30
0
 42
0.4142139999999961
  0
VERTEX
  8
GUIDE
 10
61.5
 20
-86.64285700000001
 30
0
  0
VERTEX
  8
GUIDE
 10
61.5
 20
-94.214286
 30
0
 42
0.4142139999999961
  0
VERTEX
  8
GUIDE
 10
62.5
 20
-95.214286
 30
0
  0
VERTEX
  8
GUIDE
 10
71.5
 20
-95.214286
 30
0
 42
0.414213999999996
  0
VERTEX
  8
GUIDE
 10
72.5
 20
-94.214286
 30
0
  0
VERTEX
  8
GUIDE
 10
72.5
 20
-86.64285700000001
 30
0
  0
SEQEND
  8
GUIDE
  0
POLYLINE
  8
GUIDE
 62
7
 66
1
  0
VERTEX
  8
GUIDE
 10
-15.3
 20
-27.734774
 30
0
  0
VERTEX
  8
GUIDE
 10
-26.2
 20
-27.734774
 30
0
  0
SEQEND
  8
GUIDE
  0
POLYLINE
  8
GUIDE
 62
7
 66
1
  0
VERTEX
  8
GUIDE
 10
-10.3
 20
-27.734774
 30
0
  0
VERTEX
  8
GUIDE
 10
-1
 20
-27.734774
 30
0
  0
VERTEX
  8
GUIDE
 10
-1
 20
-9.334774
 30
0
 42
0.4142140000000001
  0
VERTEX
  8
GUIDE
 10
-4
 20
-6.334774
 30
0
  0
VERTEX
  8
GUIDE
 10
-23.2
 20
-6.334774
 30
0
 42
0.414214
  0
VERTEX
  8
GUIDE
 10
-26.2
 20
-9.334774
 30
0
  0
VERTEX
  8
GUIDE
 10
-26.2
 20
-27.734774
 30
0
  0
SEQEND
  8
GUIDE
  0
POLYLINE
  8
GUIDE
 62
7
 66
1
  0
VERTEX
  8
GUIDE
 10
-27.2
 20
-137.9
 30
0
  0
VERTEX
  8
GUIDE
 10
-27.2
 20
-135.5
 30
0
  0
SEQEND
  8
GUIDE
  0
POLYLINE
  8
GUIDE
 62
7
 66
1
  0
VERTEX
  8
GUIDE
 10
-27.2
 20
-142.5
 30
0
  0
VERTEX
  8
GUIDE
 10
-27.2
 20
-140.1
 30
0
  0
SEQEND
  8
GUIDE
  0
POLYLINE
  8
GUIDE
 62
7
 66
1
  0
VERTEX
  8
GUIDE
 10
0
 20
-62.1
 30
0
  0
VERTEX
  8
GUIDE
 10
0
 20
-64.5
 30
0
  0
SEQEND
  8
GUIDE
  0
POLYLINE
  8
GUIDE
 62
7
 66
1
  0
VERTEX
  8
GUIDE
 10
0
 20
-59.9
 30
0
  0
VERTEX
  8
GUIDE
 10
0
 20
-57.5
 30
0
  0
VERTEX
  8
GUIDE
 10
-25.4
 20
-57.5
 30
0
  0
VERTEX
  8
GUIDE
 10
-25.4
 20
-64.5
 30
0
  0
SEQEND
  8
GUIDE
  0
POLYLINE
  8
GUIDE
 62
7
 66
1
  0
VERTEX
  8
GUIDE
 10
-27.2
 20
-142.5
 30
0
  0
VERTEX
  8
GUIDE
 10
-1.8
 20
-142.5
 30
0
  0
VERTEX
  8
GUIDE
 10
-1.8
 20
-135.5
 30
0
  0
SEQEND
  8
GUIDE
  0
POLYLINE
  8
GUIDE
 62
7
 66
1
 70
1
  0
VERTEX
  8
GUIDE
 10
-12.8
 20
-75.071429
 30
0
 42
0.4142139999999998
  0
VERTEX
  8
GUIDE
 10
-11.8
 20
-76.071429
 30
0
  0
VERTEX
  8
GUIDE
 10
-2.8
 20
-76.071429
 30
0
 42
0.414213999999998
  0
VERTEX
  8
GUIDE
 10
-1.8
 20
-75.071429
 30
0
  0
VERTEX
  8
GUIDE
 10
-1.8
 20
-67.5
 30
0
 42
0.414213999999998
  0
VERTEX
  8
GUIDE
 10
-2.8
 20
-66.5
 30
0
  0
VERTEX
  8
GUIDE
 10
-11.8
 20
-66.5
 30
0
 42
0.4142139999999998
  0
VERTEX
  8
GUIDE
 10
-12.8
 20
-67.5
 30
0
  0
VERTEX
  8
GUIDE
 10
-12.8
 20
-75.071429
 30
0
  0
SEQEND
  8
GUIDE
  0
POLYLINE
  8
GUIDE
 62
7
 66
1
 70
1
  0
VERTEX
  8
GUIDE
 10
-25.4
 20
-75.071429
 30
0
 42
0.4142139999999971
  0
VERTEX
  8
GUIDE
 10
-24.4
 20
-76.071429
 30
0
  0
VERTEX
  8
GUIDE
 10
-15.4
 20
-76.071429
 30
0
 42
0.414213999999997
  0
VERTEX
  8
GUIDE
 10
-14.4
 20
-75.071429
 30
0
  0
VERTEX
  8
GUIDE
 10
-14.4
 20
-67.5
 30
0
 42
0.414213999999997
  0
VERTEX
  8
GUIDE
 10
-15.4
 20
-66.5
 30
0
  0
VERTEX
  8
GUIDE
 10
-24.4
 20
-66.5
 30
0
 42
0.4142139999999972
  0
VERTEX
  8
GUIDE
 10
-25.4
 20
-67.5
 30
0
  0
VERTEX
  8
GUIDE
 10
-25.4
 20
-75.071429
 30
0
  0
SEQEND
  8
GUIDE
  0
POLYLINE
  8
GUIDE
 62
7
 66
1
 70
1
  0
VERTEX
  8
GUIDE
 10
-12.8
 20
-84.64285700000001
 30
0
 42
0.4142139999999998
  0
VERTEX
  8
GUIDE
 10
-11.8
 20
-85.64285700000001
 30
0
  0
VERTEX
  8
GUIDE
 10
-2.8
 20
-85.64285700000001
 30
0
 42
0.414213999999998
  0
VERTEX
  8
GUIDE
 10
-1.8
 20
-84.64285700000001
 30
0
  0
VERTEX
  8
GUIDE
 10
-1.8
 20
-77.071429
 30
0
 42
0.414213999999998
  0
VERTEX
  8
GUIDE
 10
-2.8
 20
-76.071429
 30
0
  0
VERTEX
  8
GUIDE
 10
-11.8
 20
-76.071429
 30
0
 42
0.4142139999999998
  0
VERTEX
  8
GUIDE
 10
-12.8
 20
-77.071429
 30
0
  0
VERTEX
  8
GUIDE
 10
-12.8
 20
-84.64285700000001
 30
0
  0
SEQEND
  8
GUIDE
  0
POLYLINE
  8
GUIDE
 62
7
 66
1
 70
1
  0
VERTEX
  8
GUIDE
 10
-25.4
 20
-84.64285700000001
 30
0
 42
0.4142139999999971
  0
VERTEX
  8
GUIDE
 10
-24.4
 20
-85.64285700000001
 30
0
  0
VERTEX
  8
GUIDE
 10
-15.4
 20
-85.64285700000001
 30
0
 42
0.414213999999997
  0
VERTEX
  8
GUIDE
 10
-14.4
 20
-84.64285700000001
 30
0
  0
VERTEX
  8
GUIDE
 10
-14.4
 20
-77.071429
 30
0
 42
0.414213999999997
  0
VERTEX
  8
GUIDE
 10
-15.4
 20
-76.071429
 30
0
  0
VERTEX
  8
GUIDE
 10
-24.4
 20
-76.071429
 30
0
 42
0.4142139999999972
  0
VERTEX
  8
GUIDE
 10
-25.4
 20
-77.071429
 30
0
  0
VERTEX
  8
GUIDE
 10
-25.4
 20
-84.64285700000001
 30
0
  0
SEQEND
  8
GUIDE
  0
POLYLINE
  8
GUIDE
 62
7
 66
1
 70
1
  0
VERTEX
  8
GUIDE
 10
-12.8
 20
-94.214286
 30
0
 42
0.4142139999999998
  0
VERTEX
  8
GUIDE
 10
-11.8
 20
-95.214286
 30
0
  0
VERTEX
  8
GUIDE
 10
-2.8
 20
-95.214286
 30
0
 42
0.414213999999998
  0
VERTEX
  8
GUIDE
 10
-1.8
 20
-94.214286
 30
0
  0
VERTEX
  8
GUIDE
 10
-1.8
 20
-86.64285700000001
 30
0
 42
0.414213999999998
  0
VERTEX
  8
GUIDE
 10
-2.8
 20
-85.64285700000001
 30
0
  0
VERTEX
  8
GUIDE
 10
-11.8
 20
-85.64285700000001
 30
0
 42
0.4142139999999998
  0
VERTEX
  8
GUIDE
 10
-12.8
 20
-86.64285700000001
 30
0
  0
VERTEX
  8
GUIDE
 10
-12.8
 20
-94.214286
 30
0
  0
SEQEND
  8
GUIDE
  0
POLYLINE
  8
GUIDE
 62
7
 66
1
 70
1
  0
VERTEX
  8
GUIDE
 10
-25.4
 20
-94.214286
 30
0
 42
0.4142139999999971
  0
VERTEX
  8
GUIDE
 10
-24.4
 20
-95.214286
 30
0
  0
VERTEX
  8
GUIDE
 10
-15.4
 20
-95.214286
 30
0
 42
0.414213999999997
  0
VERTEX
  8
GUIDE
 10
-14.4
 20
-94.214286
 30
0
  0
VERTEX
  8
GUIDE
 10
-14.4
 20
-86.64285700000001
 30
0
 42
0.414213999999997
  0
VERTEX
  8
GUIDE
 10
-15.4
 20
-85.64285700000001
 30
0
  0
VERTEX
  8
GUIDE
 10
-24.4
 20
-85.64285700000001
 30
0
 42
0.4142139999999972
  0
VERTEX
  8
GUIDE
 10
-25.4
 20
-86.64285700000001
 30
0
  0
VERTEX
  8
GUIDE
 10
-25.4
 20
-94.214286
 30
0
  0
SEQEND
  8
GUIDE
  0
POLYLINE
  8
GUIDE
 62
7
 66
1
 70
1
  0
VERTEX
  8
GUIDE
 10
-12.8
 20
-103.785714
 30
0
 42
0.4142140000000081
  0
VERTEX
  8
GUIDE
 10
-11.8
 20
-104.785714
 30
0
  0
VERTEX
  8
GUIDE
 10
-2.8
 20
-104.785714
 30
0
 42
0.4142140000000064
  0
VERTEX
  8
GUIDE
 10
-1.8
 20
-103.785714
 30
0
  0
VERTEX
  8
GUIDE
 10
-1.8
 20
-96.214286
 30
0
 42
0.414213999999998
  0
VERTEX
  8
GUIDE
 10
-2.8
 20
-95.214286
 30
0
  0
VERTEX
  8
GUIDE
 10
-11.8
 20
-95.214286
 30
0
 42
0.4142139999999998
  0
VERTEX
  8
GUIDE
 10
-12.8
 20
-96.214286
 30
0
  0
VERTEX
  8
GUIDE
 10
-12.8
 20
-103.785714
 30
0
  0
SEQEND
  8
GUIDE
  0
POLYLINE
  8
GUIDE
 62
7
 66
1
 70
1
  0
VERTEX
  8
GUIDE
 10
-25.4
 20
-103.785714
 30
0
 42
0.4142140000000055
  0
VERTEX
  8
GUIDE
 10
-24.4
 20
-104.785714
 30
0
  0
VERTEX
  8
GUIDE
 10
-15.4
 20
-104.785714
 30
0
 42
0.4142140000000053
  0
VERTEX
  8
GUIDE
 10
-14.4
 20
-103.785714
 30
0
  0
VERTEX
  8
GUIDE
 10
-14.4
 20
-96.214286
 30
0
 42
0.414213999999997
  0
VERTEX
  8
GUIDE
 10
-15.4
 20
-95.214286
 30
0
  0
VERTEX
  8
GUIDE
 10
-24.4
 20
-95.214286
 30
0
 42
0.4142139999999972
  0
VERTEX
  8
GUIDE
 10
-25.4
 20
-96.214286
 30
0
  0
VERTEX
  8
GUIDE
 10
-25.4
 20
-103.785714
 30
0
  0
SEQEND
  8
GUIDE
  0
POLYLINE
  8
GUIDE
 62
7
 66
1
 70
1
  0
VERTEX
  8
GUIDE
 10
-12.8
 20
-113.357143
 30
0
 42
0.4142140000000081
  0
VERTEX
  8
GUIDE
 10
-11.8
 20
-114.357143
 30
0
  0
VERTEX
  8
GUIDE
 10
-2.8
 20
-114.357143
 30
0
 42
0.4142140000000064
  0
VERTEX
  8
GUIDE
 10
-1.8
 20
-113.357143
 30
0
  0
VERTEX
  8
GUIDE
 10
-1.8
 20
-105.785714
 30
0
 42
0.4142140000000064
  0
VERTEX
  8
GUIDE
 10
-2.8
 20
-104.785714
 30
0
  0
VERTEX
  8
GUIDE
 10
-11.8
 20
-104.785714
 30
0
 42
0.4142140000000081
  0
VERTEX
  8
GUIDE
 10
-12.8
 20
-105.785714
 30
0
  0
VERTEX
  8
GUIDE
 10
-12.8
 20
-113.357143
 30
0
  0
SEQEND
  8
GUIDE
  0
POLYLINE
  8
GUIDE
 62
7
 66
1
 70
1
  0
VERTEX
  8
GUIDE
 10
-25.4
 20
-113.357143
 30
0
 42
0.4142140000000055
  0
VERTEX
  8
GUIDE
 10
-24.4
 20
-114.357143
 30
0
  0
VERTEX
  8
GUIDE
 10
-15.4
 20
-114.357143
 30
0
 42
0.4142140000000053
  0
VERTEX
  8
GUIDE
 10
-14.4
 20
-113.357143
 30
0
  0
VERTEX
  8
GUIDE
 10
-14.4
 20
-105.785714
 30
0
 42
0.4142140000000053
  0
VERTEX
  8
GUIDE
 10
-15.4
 20
-104.785714
 30
0
  0
VERTEX
  8
GUIDE
 10
-24.4
 20
-104.785714
 30
0
 42
0.4142140000000055
  0
VERTEX
  8
GUIDE
 10
-25.4
 20
-105.785714
 30
0
  0
VERTEX
  8
GUIDE
 10
-25.4
 20
-113.357143
 30
0
  0
SEQEND
  8
GUIDE
  0
POLYLINE
  8
GUIDE
 62
7
 66
1
 70
1
  0
VERTEX
  8
GUIDE
 10
-12.8
 20
-122.928571
 30
0
 42
0.4142140000000039
  0
VERTEX
  8
GUIDE
 10
-11.8
 20
-123.928571
 30
0
  0
VERTEX
  8
GUIDE
 10
-2.8
 20
-123.928571
 30
0
 42
0.4142140000000022
  0
VERTEX
  8
GUIDE
 10
-1.8
 20
-122.928571
 30
0
  0
VERTEX
  8
GUIDE
 10
-1.8
 20
-115.357143
 30
0
 42
0.4142140000000022
  0
VERTEX
  8
GUIDE
 10
-2.8
 20
-114.357143
 30
0
  0
VERTEX
  8
GUIDE
 10
-11.8
 20
-114.357143
 30
0
 42
0.414214000000004
  0
VERTEX
  8
GUIDE
 10
-12.8
 20
-115.357143
 30
0
  0
VERTEX
  8
GUIDE
 10
-12.8
 20
-122.928571
 30
0
  0
SEQEND
  8
GUIDE
  0
POLYLINE
  8
GUIDE
 62
7
 66
1
 70
1
  0
VERTEX
  8
GUIDE
 10
-25.4
 20
-122.928571
 30
0
 42
0.4142140000000013
  0
VERTEX
  8
GUIDE
 10
-24.4
 20
-123.928571
 30
0
  0
VERTEX
  8
GUIDE
 10
-15.4
 20
-123.928571
 30
0
 42
0.4142140000000011
  0
VERTEX
  8
GUIDE
 10
-14.4
 20
-122.928571
 30
0
  0
VERTEX
  8
GUIDE
 10
-14.4
 20
-115.357143
 30
0
 42
0.4142140000000011
  0
VERTEX
  8
GUIDE
 10
-15.4
 20
-114.357143
 30
0
  0
VERTEX
  8
GUIDE
 10
-24.4
 20
-114.357143
 30
0
 42
0.4142140000000014
  0
VERTEX
  8
GUIDE
 10
-25.4
 20
-115.357143
 30
0
  0
VERTEX
  8
GUIDE
 10
-25.4
 20
-122.928571
 30
0
  0
SEQEND
  8
GUIDE
  0
POLYLINE
  8
GUIDE
 62
7
 66
1
 70
1
  0
VERTEX
  8
GUIDE
 10
-12.8
 20
-132.5
 30
0
 42
0.4142140000000081
  0
VERTEX
  8
GUIDE
 10
-11.8
 20
-133.5
 30
0
  0
VERTEX
  8
GUIDE
 10
-2.8
 20
-133.5
 30
0
 42
0.4142140000000064
  0
VERTEX
  8
GUIDE
 10
-1.8
 20
-132.5
 30
0
  0
VERTEX
  8
GUIDE
 10
-1.8
 20
-124.928571
 30
0
 42
0.4142140000000064
  0
VERTEX
  8
GUIDE
 10
-2.8
 20
-123.928571
 30
0
  0
VERTEX
  8
GUIDE
 10
-11.8
 20
-123.928571
 30
0
 42
0.4142140000000081
  0
VERTEX
  8
GUIDE
 10
-12.8
 20
-124.928571
 30
0
  0
VERTEX
  8
GUIDE
 10
-12.8
 20
-132.5
 30
0
  0
SEQEND
  8
GUIDE
  0
POLYLINE
  8
GUIDE
 62
7
 66
1
 70
1
  0
VERTEX
  8
GUIDE
 10
-25.4
 20
-132.5
 30
0
 42
0.4142140000000055
  0
VERTEX
  8
GUIDE
 10
-24.4
 20
-133.5
 30
0
  0
VERTEX
  8
GUIDE
 10
-15.4
 20
-133.5
 30
0
 42
0.4142140000000053
  0
VERTEX
  8
GUIDE
 10
-14.4
 20
-132.5
 30
0
  0
VERTEX
  8
GUIDE
 10
-14.4
 20
-124.928571
 30
0
 42
0.4142140000000053
  0
VERTEX
  8
GUIDE
 10
-15.4
 20
-123.928571
 30
0
  0
VERTEX
  8
GUIDE
 10
-24.4
 20
-123.928571
 30
0
 42
0.4142140000000055
  0
VERTEX
  8
GUIDE
 10
-25.4
 20
-124.928571
 30
0
  0
VERTEX
  8
GUIDE
 10
-25.4
 20
-132.5
 30
0
  0
SEQEND
  8
GUIDE
  0
LINE
  8
1
 62
2
  6
DASHDOT
 10
-12.8
 20
-17.7572953125106
 30
0
 11
-12.8
 21
-29.7572953125106
 31
0
  0
LINE
  8
1
 62
7
 10
-15.3
 20
-27.734774
 30
0
 11
-10.3
 21
-27.734774
 31
0
  0
LINE
  8
1
 62
7
 10
-16.05
 20
-24.234774
 30
0
 11
-9.549999999999999
 21
-24.234774
 31
0
  0
LINE
  8
1
 62
7
 10
-9.549999999999999
 20
-24.234774
 30
0
 11
-9.549999999999999
 21
-27.734774
 31
0
  0
LINE
  8
1
 62
7
 10
-7.049999999999999
 20
-24.234774
 30
0
 11
-9.549999999999999
 21
-24.234774
 31
0
  0
LINE
  8
1
 62
7
 10
-7.049999999999999
 20
-20.234774
 30
0
 11
-7.049999999999999
 21
-24.234774
 31
0
  0
LINE
  8
1
 62
7
 10
-18.55
 20
-20.234774
 30
0
 11
-7.049999999999999
 21
-20.234774
 31
0
  0
LINE
  8
1
 62
7
 10
-18.55
 20
-24.234774
 30
0
 11
-18.55
 21
-20.234774
 31
0
  0
LINE
  8
1
 62
7
 10
-16.05
 20
-24.234774
 30
0
 11
-18.55
 21
-24.234774
 31
0
  0
LINE
  8
1
 62
7
 10
-16.05
 20
-27.734774
 30
0
 11
-16.05
 21
-24.234774
 31
0
  0
LINE
  8
GUIDE
 62
7
 10
60.5
 20
-94
 30
0
 11
50
 21
-94
 31
0
  0
LINE
  8
GUIDE
 62
7
 10
50
 20
-137.575478
 30
0
 11
71.40000000000001
 21
-137.575478
 31
0
  0
LINE
  8
GUIDE
 62
7
 10
71.40000000000001
 20
-59.9
 30
0
 11
50
 21
-59.9
 31
0
  0
LINE
  8
GUIDE
 62
7
 10
71.40000000000001
 20
-62.1
 30
0
 11
50
 21
-62.1
 31
0
  0
LINE
  8
GUIDE
 62
7
 10
60.5
 20
-69
 30
0
 11
50
 21
-69
 31
0
  0
LINE
  8
GUIDE
 62
7
 10
60.5
 20
-100
 30
0
 11
50
 21
-100
 31
0
  0
LINE
  8
GUIDE
 62
7
 10
60.5
 20
-106
 30
0
 11
50
 21
-106
 31
0
  0
LINE
  8
GUIDE
 62
7
 10
50
 20
-140.424522
 30
0
 11
71.40000000000001
 21
-140.424522
 31
0
  0
LINE
  8
GUIDE
 62
7
 10
60.5
 20
-131
 30
0
 11
50
 21
-131
 31
0
  0
LINE
  8
GUIDE
 62
7
 10
64.5
 20
-64.5
 30
0
 11
69.5
 21
-64.5
 31
0
  0
LINE
  8
GUIDE
 62
7
 10
69.5
 20
-66.5
 30
0
 11
69.5
 21
-64.5
 31
0
  0
LINE
  8
GUIDE
 62
7
 10
64.5
 20
-66.5
 30
0
 11
64.5
 21
-64.5
 31
0
  0
LINE
  8
GUIDE
 62
7
 10
64.5
 20
-135.5
 30
0
 11
69.5
 21
-135.5
 31
0
  0
LINE
  8
GUIDE
 62
7
 10
64.5
 20
-135.5
 30
0
 11
64.5
 21
-133.5
 31
0
  0
LINE
  8
GUIDE
 62
7
 10
69.5
 20
-135.5
 30
0
 11
69.5
 21
-133.5
 31
0
  0
LINE
  8
GUIDE
 62
7
 10
71.40000000000001
 20
-64.5
 30
0
 11
71.40000000000001
 21
-57.5
 31
0
  0
LINE
  8
GUIDE
 62
7
 10
60.5
 20
-135.5
 30
0
 11
60.5
 21
-64.5
 31
0
  0
LINE
  8
GUIDE
 62
7
 10
50
 20
-142.5
 30
0
 11
50
 21
-57.5
 31
0
  0
LINE
  8
GUIDE
 62
7
 10
71.40000000000001
 20
-142.5
 30
0
 11
71.40000000000001
 21
-135.5
 31
0
  0
LINE
  8
GUIDE
 62
7
 10
71.40000000000001
 20
-64.5
 30
0
 11
60.5
 21
-64.5
 31
0
  0
LINE
  8
GUIDE
 62
7
 10
71.40000000000001
 20
-135.5
 30
0
 11
60.5
 21
-135.5
 31
0
  0
LINE
  8
GUIDE
 62
7
 10
71.40000000000001
 20
-57.5
 30
0
 11
50
 21
-57.5
 31
0
  0
LINE
  8
GUIDE
 62
7
 10
71.40000000000001
 20
-142.5
 30
0
 11
50
 21
-142.5
 31
0
  0
LINE
  8
GUIDE
 62
7
 10
0
 20
-26.734774
 30
0
 11
0
 21
-10.334774
 31
0
  0
LINE
  8
GUIDE
 62
7
 10
-27.2
 20
-26.734774
 30
0
 11
-27.2
 21
-10.334774
 31
0
  0
LINE
  8
GUIDE
 62
7
 10
-1.8
 20
-135.5
 30
0
 11
-1.8
 21
-132.5
 31
0
  0
LINE
  8
GUIDE
 62
7
 10
-25.4
 20
-64.5
 30
0
 11
-25.4
 21
-67.5
 31
0
  0
LINE
  8
GUIDE
 62
7
 10
-26.266082
 20
-140.424522
 30
0
 11
-27.2
 21
-140.1
 31
0
  0
LINE
  8
GUIDE
 62
7
 10
-26.266082
 20
-137.575478
 30
0
 11
-27.2
 21
-137.9
 31
0
  0
LINE
  8
GUIDE
 62
7
 10
-25.7
 20
-138.071092
 30
0
 11
-25.7
 21
-139.928908
 31
0
  0
LINE
  8
GUIDE
 62
7
 10
-0.066082
 20
-140.424522
 30
0
 11
-1.8
 21
-140.1
 31
0
  0
LINE
  8
GUIDE
 62
7
 10
-0.066082
 20
-137.575478
 30
0
 11
-1.8
 21
-137.9
 31
0
  0
LINE
  8
GUIDE
 62
7
 10
0.5
 20
-138.071092
 30
0
 11
0.5
 21
-139.928908
 31
0
  0
LINE
  8
GUIDE
 62
7
 10
-0.933918
 20
-59.575478
 30
0
 11
0
 21
-59.9
 31
0
  0
LINE
  8
GUIDE
 62
7
 10
-0.933918
 20
-62.424522
 30
0
 11
0
 21
-62.1
 31
0
  0
LINE
  8
GUIDE
 62
7
 10
-1.5
 20
-61.928908
 30
0
 11
-1.5
 21
-60.071092
 31
0
  0
LINE
  8
GUIDE
 62
7
 10
-27.133918
 20
-62.424522
 30
0
 11
-25.4
 21
-62.1
 31
0
  0
LINE
  8
GUIDE
 62
7
 10
-27.133918
 20
-59.575478
 30
0
 11
-25.4
 21
-59.9
 31
0
  0
LINE
  8
GUIDE
 62
7
 10
-27.7
 20
-61.928908
 30
0
 11
-27.7
 21
-60.071092
 31
0
  0
LINE
  8
GUIDE
 62
7
 10
-16.9
 20
-135.5
 30
0
 11
-27.2
 21
-135.5
 31
0
  0
LINE
  8
GUIDE
 62
7
 10
-10.27
 20
-135.5
 30
0
 11
-10.77
 21
-137.5
 31
0
  0
LINE
  8
GUIDE
 62
7
 10
-16.9
 20
-135.5
 30
0
 11
-16.4
 21
-137.5
 31
0
  0
LINE
  8
GUIDE
 62
7
 10
-10.77
 20
-137.5
 30
0
 11
-16.4
 21
-137.5
 31
0
  0
LINE
  8
GUIDE
 62
7
 10
-10.27
 20
-64.5
 30
0
 11
0
 21
-64.5
 31
0
  0
LINE
  8
GUIDE
 62
7
 10
-10.27
 20
-64.5
 30
0
 11
-10.77
 21
-62.5
 31
0
  0
LINE
  8
GUIDE
 62
7
 10
-16.9
 20
-64.5
 30
0
 11
-16.4
 21
-62.5
 31
0
  0
LINE
  8
GUIDE
 62
7
 10
-10.77
 20
-62.5
 30
0
 11
-16.4
 21
-62.5
 31
0
  0
LINE
  8
GUIDE
 62
7
 10
-1.8
 20
-135.5
 30
0
 11
-10.27
 21
-135.5
 31
0
  0
LINE
  8
GUIDE
 62
7
 10
-25.4
 20
-64.5
 30
0
 11
-16.9
 21
-64.5
 31
0
  0
LINE
  8
GUIDE
 62
7
 10
-9.800000000000001
 20
-64.5
 30
0
 11
-4.8
 21
-64.5
 31
0
  0
LINE
  8
GUIDE
 62
7
 10
-17.4
 20
-135.5
 30
0
 11
-22.4
 21
-135.5
 31
0
  0
LINE
  8
GUIDE
 62
7
 10
-4.8
 20
-133.5
 30
0
 11
-4.8
 21
-135.5
 31
0
  0
LINE
  8
GUIDE
 62
7
 10
-9.800000000000001
 20
-133.5
 30
0
 11
-9.800000000000001
 21
-135.5
 31
0
  0
LINE
  8
GUIDE
 62
7
 10
-17.4
 20
-133.5
 30
0
 11
-17.4
 21
-135.5
 31
0
  0
LINE
  8
GUIDE
 62
7
 10
-22.4
 20
-133.5
 30
0
 11
-22.4
 21
-135.5
 31
0
  0
LINE
  8
GUIDE
 62
7
 10
-4.8
 20
-64.5
 30
0
 11
-4.8
 21
-66.5
 31
0
  0
LINE
  8
GUIDE
 62
7
 10
-9.800000000000001
 20
-64.5
 30
0
 11
-9.800000000000001
 21
-66.5
 31
0
  0
LINE
  8
GUIDE
 62
7
 10
-22.4
 20
-64.5
 30
0
 11
-22.4
 21
-66.5
 31
0
  0
LINE
  8
GUIDE
 62
7
 10
-17.4
 20
-64.5
 30
0
 11
-17.4
 21
-66.5
 31
0
  0
LINE
  8
GUIDE
 62
7
 10
-9.800000000000001
 20
-135.5
 30
0
 11
-4.8
 21
-135.5
 31
0
  0
LINE
  8
GUIDE
 62
7
 10
-17.4
 20
-64.5
 30
0
 11
-22.4
 21
-64.5
 31
0
  0
LINE
  8
GUIDE
 62
7
 10
-25.4
 20
-131
 30
0
 11
-27.2
 21
-131
 31
0
  0
LINE
  8
GUIDE
 62
7
 10
-27.2
 20
-131
 30
0
 11
-27.2
 21
-135.5
 31
0
  0
LINE
  8
GUIDE
 62
7
 10
0
 20
-69
 30
0
 11
0
 21
-64.5
 31
0
  0
LINE
  8
GUIDE
 62
7
 10
-25.4
 20
-69
 30
0
 11
-27.2
 21
-69
 31
0
  0
LINE
  8
GUIDE
 62
7
 10
-1.8
 20
-69
 30
0
 11
0
 21
-69
 31
0
  0
LINE
  8
GUIDE
 62
7
 10
0
 20
-131
 30
0
 11
-1.8
 21
-131
 31
0
  0
LINE
  8
GUIDE
 62
7
 10
0
 20
-106
 30
0
 11
0
 21
-131
 31
0
  0
LINE
  8
GUIDE
 62
7
 10
-25.4
 20
-94
 30
0
 11
-27.2
 21
-94
 31
0
  0
LINE
  8
GUIDE
 62
7
 10
-27.2
 20
-94
 30
0
 11
-27.2
 21
-69
 31
0
  0
LINE
  8
GUIDE
 62
7
 10
-1.8
 20
-106
 30
0
 11
0
 21
-106
 31
0
  0
LINE
  8
GUIDE
 62
7
 10
-1.8
 20
-100
 30
0
 11
0
 21
-100
 31
0
  0
LINE
  8
GUIDE
 62
7
 10
0
 20
-94
 30
0
 11
-1.8
 21
-94
 31
0
  0
LINE
  8
GUIDE
 62
7
 10
-27.2
 20
-106
 30
0
 11
-25.4
 21
-106
 31
0
  0
LINE
  8
GUIDE
 62
7
 10
-27.2
 20
-100
 30
0
 11
-25.4
 21
-100
 31
0
  0
LINE
  8
GUIDE
 62
7
 10
0
 20
-100
 30
0
 11
0
 21
-94
 31
0
  0
LINE
  8
GUIDE
 62
7
 10
-27.2
 20
-100
 30
0
 11
-27.2
 21
-106
 31
0
  0
LINE
  8
GUIDE
 62
7
 10
-27.2
 20
-135.5
 30
0
 11
-26.2
 21
-135.5
 31
0
  0
ARC
  8
GUIDE
 62
7
 10
-26.2
 20
-26.734774
 30
0
 40
1
 50
180
 51
270
  0
ARC
  8
GUIDE
 62
7
 10
-1
 20
-26.734774
 30
0
 40
1
 50
270
 51
0
  0
ARC
  8
GUIDE
 62
7
 10
-1
 20
-10.334774
 30
0
 40
1
 50
0
 51
90
  0
ARC
  8
GUIDE
 62
7
 10
-26.2
 20
-10.334774
 30
0
 40
1
 50
90
 51
180
  0
ARC
  8
GUIDE
 62
7
 10
-7.3
 20
-10.734774
 30
0
 40
5.500000000000003
 50
126.869898
 51
53.130102
  0
ARC
  8
GUIDE
 62
7
 10
-7.3
 20
-10.734774
 30
0
 40
5.5
 50
53.130102
 51
126.869898
  0
ARC
  8
GUIDE
 62
7
 10
-19.9
 20
-10.734774
 30
0
 40
5.500000000000001
 50
53.13010199999998
 51
126.869898
  0
ARC
  8
GUIDE
 62
7
 10
-19.9
 20
-10.734774
 30
0
 40
5.500000000000004
 50
126.869898
 51
53.13010199999998
  0
ARC
  8
GUIDE
 62
7
 10
-26.2
 20
-139.928908
 30
0
 40
0.4999999999999675
 50
262.4053569999993
 51
0
  0
ARC
  8
GUIDE
 62
7
 10
-26.2
 20
-138.071092
 30
0
 40
0.5
 50
0
 51
97.59464300000073
  0
ARC
  8
GUIDE
 62
7
 10
0
 20
-139.928908
 30
0
 40
0.4999999999999671
 50
262.4053569999995
 51
0
  0
ARC
  8
GUIDE
 62
7
 10
0
 20
-138.071092
 30
0
 40
0.5
 50
0
 51
97.59464300000052
  0
ARC
  8
GUIDE
 62
7
 10
-1
 20
-60.071092
 30
0
 40
0.5000000000000024
 50
82.40535700000004
 51
180
  0
ARC
  8
GUIDE
 62
7
 10
-1
 20
-61.928908
 30
0
 40
0.5
 50
180
 51
277.594643
  0
ARC
  8
GUIDE
 62
7
 10
-27.2
 20
-61.928908
 30
0
 40
0.5
 50
180
 51
277.5946430000002
  0
ARC
  8
GUIDE
 62
7
 10
-27.2
 20
-60.071092
 30
0
 40
0.5000000000000027
 50
82.4053569999998
 51
180
  0
CIRCLE
  8
GUIDE
 62
7
 10
-19.9
 20
-10.734774
 30
0
 40
2.5
  0
CIRCLE
  8
GUIDE
 62
7
 10
-7.3
 20
-10.734774
 30
0
 40
2.5
  0
ENDSEC
  0
EOF
