  0
SECTION
  2
HEADER
  9
$ACADVER
  1
AC1012
  9
$DWGCODEPAGE
  3
ansi_1252
  9
$INSBASE
 10
0.0
 20
0.0
 30
0.0
  9
$EXTMIN
 10
-27.812403
 20
-142.5
 30
0.0
  9
$EXTMAX
 10
72.70710699999999
 20
-5.234774
 30
0.0
  9
$LIMMIN
 10
0.0
 20
0.0
  9
$LIMMAX
 10
12.0
 20
9.0
  9
$ORTHOMODE
 70
     1
  9
$REGENMODE
 70
     1
  9
$FILLMODE
 70
     1
  9
$QTEXTMODE
 70
     0
  9
$MIRRTEXT
 70
     1
  9
$DRAGMODE
 70
     2
  9
$LTSCALE
 40
1.0
  9
$OSMODE
 70
    37
  9
$ATTMODE
 70
     1
  9
$TEXTSIZE
 40
0.2
  9
$TRACEWID
 40
0.05
  9
$TEXTSTYLE
  7
STANDARD
  9
$CLAYER
  8
0
  9
$CELTYPE
  6
BYLAYER
  9
$CECOLOR
 62
   256
  9
$CELTSCALE
 40
1.0
  9
$DELOBJ
 70
     1
  9
$DISPSILH
 70
     0
  9
$DIMSCALE
 40
1.0
  9
$DIMASZ
 40
0.18
  9
$DIMEXO
 40
0.0625
  9
$DIMDLI
 40
0.38
  9
$DIMRND
 40
0.0
  9
$DIMDLE
 40
0.0
  9
$DIMEXE
 40
0.18
  9
$DIMTP
 40
0.0
  9
$DIMTM
 40
0.0
  9
$DIMTXT
 40
0.18
  9
$DIMCEN
 40
0.09
  9
$DIMTSZ
 40
0.0
  9
$DIMTOL
 70
     0
  9
$DIMLIM
 70
     0
  9
$DIMTIH
 70
     1
  9
$DIMTOH
 70
     1
  9
$DIMSE1
 70
     0
  9
$DIMSE2
 70
     0
  9
$DIMTAD
 70
     0
  9
$DIMZIN
 70
     0
  9
$DIMBLK
  1

  9
$DIMASO
 70
     1
  9
$DIMSHO
 70
     1
  9
$DIMPOST
  1

  9
$DIMAPOST
  1

  9
$DIMALT
 70
     0
  9
$DIMALTD
 70
     2
  9
$DIMALTF
 40
25.4
  9
$DIMLFAC
 40
1.0
  9
$DIMTOFL
 70
     0
  9
$DIMTVP
 40
0.0
  9
$DIMTIX
 70
     0
  9
$DIMSOXD
 70
     0
  9
$DIMSAH
 70
     0
  9
$DIMBLK1
  1

  9
$DIMBLK2
  1

  9
$DIMSTYLE
  2
STANDARD
  9
$DIMCLRD
 70
     0
  9
$DIMCLRE
 70
     0
  9
$DIMCLRT
 70
     0
  9
$DIMTFAC
 40
1.0
  9
$DIMGAP
 40
0.09
  9
$DIMJUST
 70
     0
  9
$DIMSD1
 70
     0
  9
$DIMSD2
 70
     0
  9
$DIMTOLJ
 70
     1
  9
$DIMTZIN
 70
     0
  9
$DIMALTZ
 70
     0
  9
$DIMALTTZ
 70
     0
  9
$DIMFIT
 70
     3
  9
$DIMUPT
 70
     0
  9
$DIMUNIT
 70
     2
  9
$DIMDEC
 70
     4
  9
$DIMTDEC
 70
     4
  9
$DIMALTU
 70
     2
  9
$DIMALTTD
 70
     2
  9
$DIMTXSTY
  7
STANDARD
  9
$DIMAUNIT
 70
     0
  9
$LUNITS
 70
     2
  9
$LUPREC
 70
     4
  9
$SKETCHINC
 40
0.1
  9
$FILLETRAD
 40
0.0
  9
$AUNITS
 70
     0
  9
$AUPREC
 70
     0
  9
$MENU
  1
acad
  9
$ELEVATION
 40
0.0
  9
$PELEVATION
 40
0.0
  9
$THICKNESS
 40
0.0
  9
$LIMCHECK
 70
     0
  9
$CHAMFERA
 40
0.0
  9
$CHAMFERB
 40
0.0
  9
$CHAMFERC
 40
0.0
  9
$CHAMFERD
 40
0.0
  9
$SKPOLY
 70
     0
  9
$TDCREATE
 40
2447893.083333334
  9
$TDUPDATE
 40
2447893.083333334
  9
$TDINDWG
 40
0.0043049769
  9
$TDUSRTIMER
 40
0.0043049769
  9
$USRTIMER
 70
     1
  9
$ANGBASE
 50
0.0
  9
$ANGDIR
 70
     0
  9
$PDMODE
 70
     0
  9
$PDSIZE
 40
0.0
  9
$PLINEWID
 40
0.0
  9
$COORDS
 70
     1
  9
$SPLFRAME
 70
     0
  9
$SPLINETYPE
 70
     6
  9
$SPLINESEGS
 70
     8
  9
$ATTDIA
 70
     0
  9
$ATTREQ
 70
     1
  9
$HANDLING
 70
     1
  9
$HANDSEED
  5
4F5
  9
$SURFTAB1
 70
     6
  9
$SURFTAB2
 70
     6
  9
$SURFTYPE
 70
     6
  9
$SURFU
 70
     6
  9
$SURFV
 70
     6
  9
$UCSNAME
  2

  9
$UCSORG
 10
0.0
 20
0.0
 30
0.0
  9
$UCSXDIR
 10
1.0
 20
0.0
 30
0.0
  9
$UCSYDIR
 10
0.0
 20
1.0
 30
0.0
  9
$PUCSNAME
  2

  9
$PUCSORG
 10
0.0
 20
0.0
 30
0.0
  9
$PUCSXDIR
 10
1.0
 20
0.0
 30
0.0
  9
$PUCSYDIR
 10
0.0
 20
1.0
 30
0.0
  9
$USERI1
 70
     0
  9
$USERI2
 70
     0
  9
$USERI3
 70
     0
  9
$USERI4
 70
     0
  9
$USERI5
 70
     0
  9
$USERR1
 40
0.0
  9
$USERR2
 40
0.0
  9
$USERR3
 40
0.0
  9
$USERR4
 40
0.0
  9
$USERR5
 40
0.0
  9
$WORLDVIEW
 70
     1
  9
$SHADEDGE
 70
     3
  9
$SHADEDIF
 70
    70
  9
$TILEMODE
 70
     1
  9
$MAXACTVP
 70
    16
  9
$PINSBASE
 10
0.0
 20
0.0
 30
0.0
  9
$PLIMCHECK
 70
     0
  9
$PEXTMIN
 10
1.000000000000000E+20
 20
1.000000000000000E+20
 30
1.000000000000000E+20
  9
$PEXTMAX
 10
-1.000000000000000E+20
 20
-1.000000000000000E+20
 30
-1.000000000000000E+20
  9
$PLIMMIN
 10
0.0
 20
0.0
  9
$PLIMMAX
 10
12.0
 20
9.0
  9
$UNITMODE
 70
     0
  9
$VISRETAIN
 70
     0
  9
$PLINEGEN
 70
     0
  9
$PSLTSCALE
 70
     1
  9
$TREEDEPTH
 70
  3020
  9
$PICKSTYLE
 70
     1
  9
$CMLSTYLE
  2
STANDARD
  9
$CMLJUST
 70
     0
  9
$CMLSCALE
 40
1.0
  9
$SAVEIMAGES
 70
     1
  0
ENDSEC
  0
SECTION
  2
CLASSES
  0
CLASS
  1
XRECORD
  2
AcDbXrecord
  3
AutoCAD 2000
 90
    32768
280
     0
281
     0
  0
CLASS
  1
LWPOLYLINE
  2
AcDbPolyline
  3
AutoCAD 2000
 90
    32768
280
     0
281
     1
  0
CLASS
  1
HATCH
  2
AcDbHatch
  3
AutoCAD 2000
 90
    32768
280
     0
281
     1
  0
CLASS
  1
ACDBPLACEHOLDER
  2
AcDbPlaceHolder
  3
ObjectDBX Classes
 90
        0
280
     0
281
     0
  0
CLASS
  1
LAYOUT
  2
AcDbLayout
  3
ObjectDBX Classes
 90
        0
280
     0
281
     0
  0
ENDSEC
  0
SECTION
  2
TABLES
  0
TABLE
  2
VPORT
  5
8
330
0
100
AcDbSymbolTable
 70
     1
  0
VPORT
  5
30A
102
{ACAD_XDICTIONARY
360
4F3
102
}
330
8
100
AcDbSymbolTableRecord
100
AcDbViewportTableRecord
  2
*ACTIVE
 70
     0
 10
0.0
 20
0.0
 11
1.0
 21
1.0
 12
117.275687
 22
-66.75
 13
0.0
 23
0.0
 14
1.0
 24
1.0
 15
0.0
 25
0.0
 16
0.0
 26
0.0
 36
1.0
 17
0.0
 27
0.0
 37
0.0
 40
303.0
 41
1.915354
 42
50.0
 43
0.0
 44
0.0
 50
0.0
 51
0.0
 71
     0
 72
   100
 73
     1
 74
     1
 75
     0
 76
     0
 77
     0
 78
     0
  0
ENDTAB
  0
TABLE
  2
LTYPE
  5
5
330
0
100
AcDbSymbolTable
 70
     1
  0
LTYPE
  5
14
330
5
100
AcDbSymbolTableRecord
100
AcDbLinetypeTableRecord
  2
BYBLOCK
 70
     0
  3

 72
    65
 73
     0
 40
0.0
  0
LTYPE
  5
15
330
5
100
AcDbSymbolTableRecord
100
AcDbLinetypeTableRecord
  2
BYLAYER
 70
     0
  3

 72
    65
 73
     0
 40
0.0
  0
LTYPE
  5
16
330
5
100
AcDbSymbolTableRecord
100
AcDbLinetypeTableRecord
  2
CONTINUOUS
 70
     0
  3
Solid line
 72
    65
 73
     0
 40
0.0
  0
ENDTAB
  0
TABLE
  2
LAYER
  5
2
330
0
100
AcDbSymbolTable
 70
     2
  0
LAYER
  5
F
330
2
100
AcDbSymbolTableRecord
100
AcDbLayerTableRecord
  2
0
 70
     0
 62
     7
  6
CONTINUOUS
  0
LAYER
  5
29
330
2
100
AcDbSymbolTableRecord
100
AcDbLayerTableRecord
  2
GUIDE
 70
     0
 62
     7
  6
CONTINUOUS
  0
ENDTAB
  0
TABLE
  2
STYLE
  5
3
330
0
100
AcDbSymbolTable
 70
     1
  0
STYLE
  5
10
330
3
100
AcDbSymbolTableRecord
100
AcDbTextStyleTableRecord
  2
STANDARD
 70
     0
 40
0.0
 41
1.0
 50
0.0
 71
     0
 42
0.2
  3
txt
  4

  0
ENDTAB
  0
TABLE
  2
VIEW
  5
6
330
0
100
AcDbSymbolTable
 70
     0
  0
ENDTAB
  0
TABLE
  2
UCS
  5
7
330
0
100
AcDbSymbolTable
 70
     0
  0
ENDTAB
  0
TABLE
  2
APPID
  5
9
330
0
100
AcDbSymbolTable
 70
     1
  0
APPID
  5
11
330
9
100
AcDbSymbolTableRecord
100
AcDbRegAppTableRecord
  2
ACAD
 70
     0
  0
ENDTAB
  0
TABLE
  2
DIMSTYLE
  5
A
330
0
100
AcDbSymbolTable
 70
     1
  0
DIMSTYLE
105
1D
330
A
100
AcDbSymbolTableRecord
100
AcDbDimStyleTableRecord
  2
STANDARD
 70
     0
  3

  4

  5

  6

  7

 40
1.0
 41
0.18
 42
0.0625
 43
0.38
 44
0.18
 45
0.0
 46
0.0
 47
0.0
 48
0.0
140
0.18
141
0.09
142
0.0
143
25.4
144
1.0
145
0.0
146
1.0
147
0.09
 71
     0
 72
     0
 73
     1
 74
     1
 75
     0
 76
     0
 77
     0
 78
     0
170
     0
171
     2
172
     0
173
     0
174
     0
175
     0
176
     0
177
     0
178
     0
270
     2
271
     4
272
     4
273
     2
274
     2
340
10
275
     0
280
     0
281
     0
282
     0
283
     1
284
     0
285
     0
286
     0
287
     3
288
     0
  0
ENDTAB
  0
TABLE
  2
BLOCK_RECORD
  5
1
330
0
100
AcDbSymbolTable
 70
     0
  0
BLOCK_RECORD
  5
1A
330
1
100
AcDbSymbolTableRecord
100
AcDbBlockTableRecord
  2
*MODEL_SPACE
  0
BLOCK_RECORD
  5
17
330
1
100
AcDbSymbolTableRecord
100
AcDbBlockTableRecord
  2
*PAPER_SPACE
  0
ENDTAB
  0
ENDSEC
  0
SECTION
  2
BLOCKS
  0
BLOCK
  5
1B
330
1A
100
AcDbEntity
  8
0
100
AcDbBlockBegin
  2
*MODEL_SPACE
 70
     0
 71
     0
 10
0.0
 20
0.0
 30
0.0
  3
*MODEL_SPACE
  1

  0
ENDBLK
  5
1C
330
1A
100
AcDbEntity
  8
0
100
AcDbBlockEnd
  0
BLOCK
  5
18
330
17
100
AcDbEntity
 67
     1
  8
0
100
AcDbBlockBegin
  2
*PAPER_SPACE
 70
     0
 71
     0
 10
0.0
 20
0.0
 30
0.0
  3
*PAPER_SPACE
  1

  0
ENDBLK
  5
19
330
17
100
AcDbEntity
 67
     1
  8
0
100
AcDbBlockEnd
  0
ENDSEC
  0
SECTION
  2
ENTITIES
  0
LINE
  5
1A3
330
1A
100
AcDbEntity
  8
GUIDE
100
AcDbLine
 10
0.0
 20
-64.5
 30
0.0
 11
0.0
 21
-64.5
 31
0.0
  0
LINE
  5
1A4
330
1A
100
AcDbEntity
  8
GUIDE
100
AcDbLine
 10
-27.2
 20
-135.5
 30
0.0
 11
-26.2
 21
-135.5
 31
0.0
  0
LINE
  5
1A5
330
1A
100
AcDbEntity
  8
GUIDE
100
AcDbLine
 10
-27.2
 20
-100.0
 30
0.0
 11
-27.2
 21
-106.0
 31
0.0
  0
LINE
  5
1A6
330
1A
100
AcDbEntity
  8
GUIDE
100
AcDbLine
 10
0.0
 20
-100.0
 30
0.0
 11
0.0
 21
-94.0
 31
0.0
  0
LINE
  5
1A7
330
1A
100
AcDbEntity
  8
GUIDE
100
AcDbLine
 10
-27.2
 20
-100.0
 30
0.0
 11
-25.4
 21
-100.0
 31
0.0
  0
LINE
  5
1A8
330
1A
100
AcDbEntity
  8
GUIDE
100
AcDbLine
 10
-27.2
 20
-106.0
 30
0.0
 11
-25.4
 21
-106.0
 31
0.0
  0
LINE
  5
1A9
330
1A
100
AcDbEntity
  8
GUIDE
100
AcDbLine
 10
0.0
 20
-94.0
 30
0.0
 11
-1.8
 21
-94.0
 31
0.0
  0
LINE
  5
1AA
330
1A
100
AcDbEntity
  8
GUIDE
100
AcDbLine
 10
-1.8
 20
-100.0
 30
0.0
 11
0.0
 21
-100.0
 31
0.0
  0
LINE
  5
1AB
330
1A
100
AcDbEntity
  8
GUIDE
100
AcDbLine
 10
-1.8
 20
-106.0
 30
0.0
 11
0.0
 21
-106.0
 31
0.0
  0
LINE
  5
1AC
330
1A
100
AcDbEntity
  8
GUIDE
100
AcDbLine
 10
-27.2
 20
-94.0
 30
0.0
 11
-27.2
 21
-69.0
 31
0.0
  0
LINE
  5
1AD
330
1A
100
AcDbEntity
  8
GUIDE
100
AcDbLine
 10
-25.4
 20
-94.0
 30
0.0
 11
-27.2
 21
-94.0
 31
0.0
  0
LINE
  5
1AE
330
1A
100
AcDbEntity
  8
GUIDE
100
AcDbLine
 10
0.0
 20
-106.0
 30
0.0
 11
0.0
 21
-131.0
 31
0.0
  0
LINE
  5
1AF
330
1A
100
AcDbEntity
  8
GUIDE
100
AcDbLine
 10
0.0
 20
-131.0
 30
0.0
 11
-1.8
 21
-131.0
 31
0.0
  0
LINE
  5
1B0
330
1A
100
AcDbEntity
  8
GUIDE
100
AcDbLine
 10
-1.8
 20
-69.0
 30
0.0
 11
0.0
 21
-69.0
 31
0.0
  0
LINE
  5
1B1
330
1A
100
AcDbEntity
  8
GUIDE
100
AcDbLine
 10
-25.4
 20
-69.0
 30
0.0
 11
-27.2
 21
-69.0
 31
0.0
  0
LINE
  5
1B2
330
1A
100
AcDbEntity
  8
GUIDE
100
AcDbLine
 10
0.0
 20
-69.0
 30
0.0
 11
0.0
 21
-64.5
 31
0.0
  0
LINE
  5
1B3
330
1A
100
AcDbEntity
  8
GUIDE
100
AcDbLine
 10
-27.2
 20
-131.0
 30
0.0
 11
-27.2
 21
-135.5
 31
0.0
  0
LINE
  5
1B4
330
1A
100
AcDbEntity
  8
GUIDE
100
AcDbLine
 10
-25.4
 20
-131.0
 30
0.0
 11
-27.2
 21
-131.0
 31
0.0
  0
LINE
  5
1B5
330
1A
100
AcDbEntity
  8
GUIDE
100
AcDbLine
 10
-17.4
 20
-64.5
 30
0.0
 11
-22.4
 21
-64.5
 31
0.0
  0
LINE
  5
1B6
330
1A
100
AcDbEntity
  8
GUIDE
100
AcDbLine
 10
-9.800000000000001
 20
-135.5
 30
0.0
 11
-4.8
 21
-135.5
 31
0.0
  0
POLYLINE
  5
1B7
330
1A
100
AcDbEntity
  8
GUIDE
100
AcDb2dPolyline
 66
     1
 10
0.0
 20
0.0
 30
0.0
 70
     1
  0
VERTEX
  5
415
330
1B7
100
AcDbEntity
  8
GUIDE
100
AcDbVertex
100
AcDb2dVertex
 10
-25.4
 20
-132.5
 30
0.0
  0
VERTEX
  5
416
330
1B7
100
AcDbEntity
  8
GUIDE
100
AcDbVertex
100
AcDb2dVertex
 10
-25.4
 20
-124.928571
 30
0.0
 42
-0.414214
  0
VERTEX
  5
417
330
1B7
100
AcDbEntity
  8
GUIDE
100
AcDbVertex
100
AcDb2dVertex
 10
-24.4
 20
-123.928571
 30
0.0
  0
VERTEX
  5
418
330
1B7
100
AcDbEntity
  8
GUIDE
100
AcDbVertex
100
AcDb2dVertex
 10
-15.4
 20
-123.928571
 30
0.0
 42
-0.414214
  0
VERTEX
  5
419
330
1B7
100
AcDbEntity
  8
GUIDE
100
AcDbVertex
100
AcDb2dVertex
 10
-14.4
 20
-124.928571
 30
0.0
  0
VERTEX
  5
41A
330
1B7
100
AcDbEntity
  8
GUIDE
100
AcDbVertex
100
AcDb2dVertex
 10
-14.4
 20
-132.5
 30
0.0
 42
-0.414214
  0
VERTEX
  5
41B
330
1B7
100
AcDbEntity
  8
GUIDE
100
AcDbVertex
100
AcDb2dVertex
 10
-15.4
 20
-133.5
 30
0.0
  0
VERTEX
  5
41C
330
1B7
100
AcDbEntity
  8
GUIDE
100
AcDbVertex
100
AcDb2dVertex
 10
-24.4
 20
-133.5
 30
0.0
 42
-0.414214
  0
SEQEND
  5
414
330
1B7
100
AcDbEntity
  8
GUIDE
  0
POLYLINE
  5
1C1
330
1A
100
AcDbEntity
  8
GUIDE
100
AcDb2dPolyline
 66
     1
 10
0.0
 20
0.0
 30
0.0
 70
     1
  0
VERTEX
  5
41E
330
1C1
100
AcDbEntity
  8
GUIDE
100
AcDbVertex
100
AcDb2dVertex
 10
-12.8
 20
-132.5
 30
0.0
  0
VERTEX
  5
41F
330
1C1
100
AcDbEntity
  8
GUIDE
100
AcDbVertex
100
AcDb2dVertex
 10
-12.8
 20
-124.928571
 30
0.0
 42
-0.414214
  0
VERTEX
  5
420
330
1C1
100
AcDbEntity
  8
GUIDE
100
AcDbVertex
100
AcDb2dVertex
 10
-11.8
 20
-123.928571
 30
0.0
  0
VERTEX
  5
421
330
1C1
100
AcDbEntity
  8
GUIDE
100
AcDbVertex
100
AcDb2dVertex
 10
-2.8
 20
-123.928571
 30
0.0
 42
-0.414214
  0
VERTEX
  5
422
330
1C1
100
AcDbEntity
  8
GUIDE
100
AcDbVertex
100
AcDb2dVertex
 10
-1.8
 20
-124.928571
 30
0.0
  0
VERTEX
  5
423
330
1C1
100
AcDbEntity
  8
GUIDE
100
AcDbVertex
100
AcDb2dVertex
 10
-1.8
 20
-132.5
 30
0.0
 42
-0.414214
  0
VERTEX
  5
424
330
1C1
100
AcDbEntity
  8
GUIDE
100
AcDbVertex
100
AcDb2dVertex
 10
-2.8
 20
-133.5
 30
0.0
  0
VERTEX
  5
425
330
1C1
100
AcDbEntity
  8
GUIDE
100
AcDbVertex
100
AcDb2dVertex
 10
-11.8
 20
-133.5
 30
0.0
 42
-0.414214
  0
SEQEND
  5
41D
330
1C1
100
AcDbEntity
  8
GUIDE
  0
POLYLINE
  5
1CB
330
1A
100
AcDbEntity
  8
GUIDE
100
AcDb2dPolyline
 66
     1
 10
0.0
 20
0.0
 30
0.0
 70
     1
  0
VERTEX
  5
427
330
1CB
100
AcDbEntity
  8
GUIDE
100
AcDbVertex
100
AcDb2dVertex
 10
-25.4
 20
-122.928571
 30
0.0
  0
VERTEX
  5
428
330
1CB
100
AcDbEntity
  8
GUIDE
100
AcDbVertex
100
AcDb2dVertex
 10
-25.4
 20
-115.357143
 30
0.0
 42
-0.414214
  0
VERTEX
  5
429
330
1CB
100
AcDbEntity
  8
GUIDE
100
AcDbVertex
100
AcDb2dVertex
 10
-24.4
 20
-114.357143
 30
0.0
  0
VERTEX
  5
42A
330
1CB
100
AcDbEntity
  8
GUIDE
100
AcDbVertex
100
AcDb2dVertex
 10
-15.4
 20
-114.357143
 30
0.0
 42
-0.414214
  0
VERTEX
  5
42B
330
1CB
100
AcDbEntity
  8
GUIDE
100
AcDbVertex
100
AcDb2dVertex
 10
-14.4
 20
-115.357143
 30
0.0
  0
VERTEX
  5
42C
330
1CB
100
AcDbEntity
  8
GUIDE
100
AcDbVertex
100
AcDb2dVertex
 10
-14.4
 20
-122.928571
 30
0.0
 42
-0.414214
  0
VERTEX
  5
42D
330
1CB
100
AcDbEntity
  8
GUIDE
100
AcDbVertex
100
AcDb2dVertex
 10
-15.4
 20
-123.928571
 30
0.0
  0
VERTEX
  5
42E
330
1CB
100
AcDbEntity
  8
GUIDE
100
AcDbVertex
100
AcDb2dVertex
 10
-24.4
 20
-123.928571
 30
0.0
 42
-0.414214
  0
SEQEND
  5
426
330
1CB
100
AcDbEntity
  8
GUIDE
  0
POLYLINE
  5
1D5
330
1A
100
AcDbEntity
  8
GUIDE
100
AcDb2dPolyline
 66
     1
 10
0.0
 20
0.0
 30
0.0
 70
     1
  0
VERTEX
  5
430
330
1D5
100
AcDbEntity
  8
GUIDE
100
AcDbVertex
100
AcDb2dVertex
 10
-12.8
 20
-122.928571
 30
0.0
  0
VERTEX
  5
431
330
1D5
100
AcDbEntity
  8
GUIDE
100
AcDbVertex
100
AcDb2dVertex
 10
-12.8
 20
-115.357143
 30
0.0
 42
-0.414214
  0
VERTEX
  5
432
330
1D5
100
AcDbEntity
  8
GUIDE
100
AcDbVertex
100
AcDb2dVertex
 10
-11.8
 20
-114.357143
 30
0.0
  0
VERTEX
  5
433
330
1D5
100
AcDbEntity
  8
GUIDE
100
AcDbVertex
100
AcDb2dVertex
 10
-2.8
 20
-114.357143
 30
0.0
 42
-0.414214
  0
VERTEX
  5
434
330
1D5
100
AcDbEntity
  8
GUIDE
100
AcDbVertex
100
AcDb2dVertex
 10
-1.8
 20
-115.357143
 30
0.0
  0
VERTEX
  5
435
330
1D5
100
AcDbEntity
  8
GUIDE
100
AcDbVertex
100
AcDb2dVertex
 10
-1.8
 20
-122.928571
 30
0.0
 42
-0.414214
  0
VERTEX
  5
436
330
1D5
100
AcDbEntity
  8
GUIDE
100
AcDbVertex
100
AcDb2dVertex
 10
-2.8
 20
-123.928571
 30
0.0
  0
VERTEX
  5
437
330
1D5
100
AcDbEntity
  8
GUIDE
100
AcDbVertex
100
AcDb2dVertex
 10
-11.8
 20
-123.928571
 30
0.0
 42
-0.414214
  0
SEQEND
  5
42F
330
1D5
100
AcDbEntity
  8
GUIDE
  0
POLYLINE
  5
1DF
330
1A
100
AcDbEntity
  8
GUIDE
100
AcDb2dPolyline
 66
     1
 10
0.0
 20
0.0
 30
0.0
 70
     1
  0
VERTEX
  5
439
330
1DF
100
AcDbEntity
  8
GUIDE
100
AcDbVertex
100
AcDb2dVertex
 10
-25.4
 20
-113.357143
 30
0.0
  0
VERTEX
  5
43A
330
1DF
100
AcDbEntity
  8
GUIDE
100
AcDbVertex
100
AcDb2dVertex
 10
-25.4
 20
-105.785714
 30
0.0
 42
-0.414214
  0
VERTEX
  5
43B
330
1DF
100
AcDbEntity
  8
GUIDE
100
AcDbVertex
100
AcDb2dVertex
 10
-24.4
 20
-104.785714
 30
0.0
  0
VERTEX
  5
43C
330
1DF
100
AcDbEntity
  8
GUIDE
100
AcDbVertex
100
AcDb2dVertex
 10
-15.4
 20
-104.785714
 30
0.0
 42
-0.414214
  0
VERTEX
  5
43D
330
1DF
100
AcDbEntity
  8
GUIDE
100
AcDbVertex
100
AcDb2dVertex
 10
-14.4
 20
-105.785714
 30
0.0
  0
VERTEX
  5
43E
330
1DF
100
AcDbEntity
  8
GUIDE
100
AcDbVertex
100
AcDb2dVertex
 10
-14.4
 20
-113.357143
 30
0.0
 42
-0.414214
  0
VERTEX
  5
43F
330
1DF
100
AcDbEntity
  8
GUIDE
100
AcDbVertex
100
AcDb2dVertex
 10
-15.4
 20
-114.357143
 30
0.0
  0
VERTEX
  5
440
330
1DF
100
AcDbEntity
  8
GUIDE
100
AcDbVertex
100
AcDb2dVertex
 10
-24.4
 20
-114.357143
 30
0.0
 42
-0.414214
  0
SEQEND
  5
438
330
1DF
100
AcDbEntity
  8
GUIDE
  0
POLYLINE
  5
1E9
330
1A
100
AcDbEntity
  8
GUIDE
100
AcDb2dPolyline
 66
     1
 10
0.0
 20
0.0
 30
0.0
 70
     1
  0
VERTEX
  5
442
330
1E9
100
AcDbEntity
  8
GUIDE
100
AcDbVertex
100
AcDb2dVertex
 10
-12.8
 20
-113.357143
 30
0.0
  0
VERTEX
  5
443
330
1E9
100
AcDbEntity
  8
GUIDE
100
AcDbVertex
100
AcDb2dVertex
 10
-12.8
 20
-105.785714
 30
0.0
 42
-0.414214
  0
VERTEX
  5
444
330
1E9
100
AcDbEntity
  8
GUIDE
100
AcDbVertex
100
AcDb2dVertex
 10
-11.8
 20
-104.785714
 30
0.0
  0
VERTEX
  5
445
330
1E9
100
AcDbEntity
  8
GUIDE
100
AcDbVertex
100
AcDb2dVertex
 10
-2.8
 20
-104.785714
 30
0.0
 42
-0.414214
  0
VERTEX
  5
446
330
1E9
100
AcDbEntity
  8
GUIDE
100
AcDbVertex
100
AcDb2dVertex
 10
-1.8
 20
-105.785714
 30
0.0
  0
VERTEX
  5
447
330
1E9
100
AcDbEntity
  8
GUIDE
100
AcDbVertex
100
AcDb2dVertex
 10
-1.8
 20
-113.357143
 30
0.0
 42
-0.414214
  0
VERTEX
  5
448
330
1E9
100
AcDbEntity
  8
GUIDE
100
AcDbVertex
100
AcDb2dVertex
 10
-2.8
 20
-114.357143
 30
0.0
  0
VERTEX
  5
449
330
1E9
100
AcDbEntity
  8
GUIDE
100
AcDbVertex
100
AcDb2dVertex
 10
-11.8
 20
-114.357143
 30
0.0
 42
-0.414214
  0
SEQEND
  5
441
330
1E9
100
AcDbEntity
  8
GUIDE
  0
POLYLINE
  5
1F3
330
1A
100
AcDbEntity
  8
GUIDE
100
AcDb2dPolyline
 66
     1
 10
0.0
 20
0.0
 30
0.0
 70
     1
  0
VERTEX
  5
44B
330
1F3
100
AcDbEntity
  8
GUIDE
100
AcDbVertex
100
AcDb2dVertex
 10
-25.4
 20
-103.785714
 30
0.0
  0
VERTEX
  5
44C
330
1F3
100
AcDbEntity
  8
GUIDE
100
AcDbVertex
100
AcDb2dVertex
 10
-25.4
 20
-96.214286
 30
0.0
 42
-0.414214
  0
VERTEX
  5
44D
330
1F3
100
AcDbEntity
  8
GUIDE
100
AcDbVertex
100
AcDb2dVertex
 10
-24.4
 20
-95.214286
 30
0.0
  0
VERTEX
  5
44E
330
1F3
100
AcDbEntity
  8
GUIDE
100
AcDbVertex
100
AcDb2dVertex
 10
-15.4
 20
-95.214286
 30
0.0
 42
-0.414214
  0
VERTEX
  5
44F
330
1F3
100
AcDbEntity
  8
GUIDE
100
AcDbVertex
100
AcDb2dVertex
 10
-14.4
 20
-96.214286
 30
0.0
  0
VERTEX
  5
450
330
1F3
100
AcDbEntity
  8
GUIDE
100
AcDbVertex
100
AcDb2dVertex
 10
-14.4
 20
-103.785714
 30
0.0
 42
-0.414214
  0
VERTEX
  5
451
330
1F3
100
AcDbEntity
  8
GUIDE
100
AcDbVertex
100
AcDb2dVertex
 10
-15.4
 20
-104.785714
 30
0.0
  0
VERTEX
  5
452
330
1F3
100
AcDbEntity
  8
GUIDE
100
AcDbVertex
100
AcDb2dVertex
 10
-24.4
 20
-104.785714
 30
0.0
 42
-0.414214
  0
SEQEND
  5
44A
330
1F3
100
AcDbEntity
  8
GUIDE
  0
POLYLINE
  5
1FD
330
1A
100
AcDbEntity
  8
GUIDE
100
AcDb2dPolyline
 66
     1
 10
0.0
 20
0.0
 30
0.0
 70
     1
  0
VERTEX
  5
454
330
1FD
100
AcDbEntity
  8
GUIDE
100
AcDbVertex
100
AcDb2dVertex
 10
-12.8
 20
-103.785714
 30
0.0
  0
VERTEX
  5
455
330
1FD
100
AcDbEntity
  8
GUIDE
100
AcDbVertex
100
AcDb2dVertex
 10
-12.8
 20
-96.214286
 30
0.0
 42
-0.414214
  0
VERTEX
  5
456
330
1FD
100
AcDbEntity
  8
GUIDE
100
AcDbVertex
100
AcDb2dVertex
 10
-11.8
 20
-95.214286
 30
0.0
  0
VERTEX
  5
457
330
1FD
100
AcDbEntity
  8
GUIDE
100
AcDbVertex
100
AcDb2dVertex
 10
-2.8
 20
-95.214286
 30
0.0
 42
-0.414214
  0
VERTEX
  5
458
330
1FD
100
AcDbEntity
  8
GUIDE
100
AcDbVertex
100
AcDb2dVertex
 10
-1.8
 20
-96.214286
 30
0.0
  0
VERTEX
  5
459
330
1FD
100
AcDbEntity
  8
GUIDE
100
AcDbVertex
100
AcDb2dVertex
 10
-1.8
 20
-103.785714
 30
0.0
 42
-0.414214
  0
VERTEX
  5
45A
330
1FD
100
AcDbEntity
  8
GUIDE
100
AcDbVertex
100
AcDb2dVertex
 10
-2.8
 20
-104.785714
 30
0.0
  0
VERTEX
  5
45B
330
1FD
100
AcDbEntity
  8
GUIDE
100
AcDbVertex
100
AcDb2dVertex
 10
-11.8
 20
-104.785714
 30
0.0
 42
-0.414214
  0
SEQEND
  5
453
330
1FD
100
AcDbEntity
  8
GUIDE
  0
POLYLINE
  5
207
330
1A
100
AcDbEntity
  8
GUIDE
100
AcDb2dPolyline
 66
     1
 10
0.0
 20
0.0
 30
0.0
 70
     1
  0
VERTEX
  5
45D
330
207
100
AcDbEntity
  8
GUIDE
100
AcDbVertex
100
AcDb2dVertex
 10
-25.4
 20
-94.214286
 30
0.0
  0
VERTEX
  5
45E
330
207
100
AcDbEntity
  8
GUIDE
100
AcDbVertex
100
AcDb2dVertex
 10
-25.4
 20
-86.64285700000001
 30
0.0
 42
-0.414214
  0
VERTEX
  5
45F
330
207
100
AcDbEntity
  8
GUIDE
100
AcDbVertex
100
AcDb2dVertex
 10
-24.4
 20
-85.64285700000001
 30
0.0
  0
VERTEX
  5
460
330
207
100
AcDbEntity
  8
GUIDE
100
AcDbVertex
100
AcDb2dVertex
 10
-15.4
 20
-85.64285700000001
 30
0.0
 42
-0.414214
  0
VERTEX
  5
461
330
207
100
AcDbEntity
  8
GUIDE
100
AcDbVertex
100
AcDb2dVertex
 10
-14.4
 20
-86.64285700000001
 30
0.0
  0
VERTEX
  5
462
330
207
100
AcDbEntity
  8
GUIDE
100
AcDbVertex
100
AcDb2dVertex
 10
-14.4
 20
-94.214286
 30
0.0
 42
-0.414214
  0
VERTEX
  5
463
330
207
100
AcDbEntity
  8
GUIDE
100
AcDbVertex
100
AcDb2dVertex
 10
-15.4
 20
-95.214286
 30
0.0
  0
VERTEX
  5
464
330
207
100
AcDbEntity
  8
GUIDE
100
AcDbVertex
100
AcDb2dVertex
 10
-24.4
 20
-95.214286
 30
0.0
 42
-0.414214
  0
SEQEND
  5
45C
330
207
100
AcDbEntity
  8
GUIDE
  0
POLYLINE
  5
211
330
1A
100
AcDbEntity
  8
GUIDE
100
AcDb2dPolyline
 66
     1
 10
0.0
 20
0.0
 30
0.0
 70
     1
  0
VERTEX
  5
466
330
211
100
AcDbEntity
  8
GUIDE
100
AcDbVertex
100
AcDb2dVertex
 10
-12.8
 20
-94.214286
 30
0.0
  0
VERTEX
  5
467
330
211
100
AcDbEntity
  8
GUIDE
100
AcDbVertex
100
AcDb2dVertex
 10
-12.8
 20
-86.64285700000001
 30
0.0
 42
-0.414214
  0
VERTEX
  5
468
330
211
100
AcDbEntity
  8
GUIDE
100
AcDbVertex
100
AcDb2dVertex
 10
-11.8
 20
-85.64285700000001
 30
0.0
  0
VERTEX
  5
469
330
211
100
AcDbEntity
  8
GUIDE
100
AcDbVertex
100
AcDb2dVertex
 10
-2.8
 20
-85.64285700000001
 30
0.0
 42
-0.414214
  0
VERTEX
  5
46A
330
211
100
AcDbEntity
  8
GUIDE
100
AcDbVertex
100
AcDb2dVertex
 10
-1.8
 20
-86.64285700000001
 30
0.0
  0
VERTEX
  5
46B
330
211
100
AcDbEntity
  8
GUIDE
100
AcDbVertex
100
AcDb2dVertex
 10
-1.8
 20
-94.214286
 30
0.0
 42
-0.414214
  0
VERTEX
  5
46C
330
211
100
AcDbEntity
  8
GUIDE
100
AcDbVertex
100
AcDb2dVertex
 10
-2.8
 20
-95.214286
 30
0.0
  0
VERTEX
  5
46D
330
211
100
AcDbEntity
  8
GUIDE
100
AcDbVertex
100
AcDb2dVertex
 10
-11.8
 20
-95.214286
 30
0.0
 42
-0.414214
  0
SEQEND
  5
465
330
211
100
AcDbEntity
  8
GUIDE
  0
POLYLINE
  5
21B
330
1A
100
AcDbEntity
  8
GUIDE
100
AcDb2dPolyline
 66
     1
 10
0.0
 20
0.0
 30
0.0
 70
     1
  0
VERTEX
  5
46F
330
21B
100
AcDbEntity
  8
GUIDE
100
AcDbVertex
100
AcDb2dVertex
 10
-25.4
 20
-84.64285700000001
 30
0.0
  0
VERTEX
  5
470
330
21B
100
AcDbEntity
  8
GUIDE
100
AcDbVertex
100
AcDb2dVertex
 10
-25.4
 20
-77.071429
 30
0.0
 42
-0.414214
  0
VERTEX
  5
471
330
21B
100
AcDbEntity
  8
GUIDE
100
AcDbVertex
100
AcDb2dVertex
 10
-24.4
 20
-76.071429
 30
0.0
  0
VERTEX
  5
472
330
21B
100
AcDbEntity
  8
GUIDE
100
AcDbVertex
100
AcDb2dVertex
 10
-15.4
 20
-76.071429
 30
0.0
 42
-0.414214
  0
VERTEX
  5
473
330
21B
100
AcDbEntity
  8
GUIDE
100
AcDbVertex
100
AcDb2dVertex
 10
-14.4
 20
-77.071429
 30
0.0
  0
VERTEX
  5
474
330
21B
100
AcDbEntity
  8
GUIDE
100
AcDbVertex
100
AcDb2dVertex
 10
-14.4
 20
-84.64285700000001
 30
0.0
 42
-0.414214
  0
VERTEX
  5
475
330
21B
100
AcDbEntity
  8
GUIDE
100
AcDbVertex
100
AcDb2dVertex
 10
-15.4
 20
-85.64285700000001
 30
0.0
  0
VERTEX
  5
476
330
21B
100
AcDbEntity
  8
GUIDE
100
AcDbVertex
100
AcDb2dVertex
 10
-24.4
 20
-85.64285700000001
 30
0.0
 42
-0.414214
  0
SEQEND
  5
46E
330
21B
100
AcDbEntity
  8
GUIDE
  0
POLYLINE
  5
225
330
1A
100
AcDbEntity
  8
GUIDE
100
AcDb2dPolyline
 66
     1
 10
0.0
 20
0.0
 30
0.0
 70
     1
  0
VERTEX
  5
478
330
225
100
AcDbEntity
  8
GUIDE
100
AcDbVertex
100
AcDb2dVertex
 10
-12.8
 20
-84.64285700000001
 30
0.0
  0
VERTEX
  5
479
330
225
100
AcDbEntity
  8
GUIDE
100
AcDbVertex
100
AcDb2dVertex
 10
-12.8
 20
-77.071429
 30
0.0
 42
-0.414214
  0
VERTEX
  5
47A
330
225
100
AcDbEntity
  8
GUIDE
100
AcDbVertex
100
AcDb2dVertex
 10
-11.8
 20
-76.071429
 30
0.0
  0
VERTEX
  5
47B
330
225
100
AcDbEntity
  8
GUIDE
100
AcDbVertex
100
AcDb2dVertex
 10
-2.8
 20
-76.071429
 30
0.0
 42
-0.414214
  0
VERTEX
  5
47C
330
225
100
AcDbEntity
  8
GUIDE
100
AcDbVertex
100
AcDb2dVertex
 10
-1.8
 20
-77.071429
 30
0.0
  0
VERTEX
  5
47D
330
225
100
AcDbEntity
  8
GUIDE
100
AcDbVertex
100
AcDb2dVertex
 10
-1.8
 20
-84.64285700000001
 30
0.0
 42
-0.414214
  0
VERTEX
  5
47E
330
225
100
AcDbEntity
  8
GUIDE
100
AcDbVertex
100
AcDb2dVertex
 10
-2.8
 20
-85.64285700000001
 30
0.0
  0
VERTEX
  5
47F
330
225
100
AcDbEntity
  8
GUIDE
100
AcDbVertex
100
AcDb2dVertex
 10
-11.8
 20
-85.64285700000001
 30
0.0
 42
-0.414214
  0
SEQEND
  5
477
330
225
100
AcDbEntity
  8
GUIDE
  0
POLYLINE
  5
22F
330
1A
100
AcDbEntity
  8
GUIDE
100
AcDb2dPolyline
 66
     1
 10
0.0
 20
0.0
 30
0.0
 70
     1
  0
VERTEX
  5
481
330
22F
100
AcDbEntity
  8
GUIDE
100
AcDbVertex
100
AcDb2dVertex
 10
-25.4
 20
-75.071429
 30
0.0
  0
VERTEX
  5
482
330
22F
100
AcDbEntity
  8
GUIDE
100
AcDbVertex
100
AcDb2dVertex
 10
-25.4
 20
-67.5
 30
0.0
 42
-0.414214
  0
VERTEX
  5
483
330
22F
100
AcDbEntity
  8
GUIDE
100
AcDbVertex
100
AcDb2dVertex
 10
-24.4
 20
-66.5
 30
0.0
  0
VERTEX
  5
484
330
22F
100
AcDbEntity
  8
GUIDE
100
AcDbVertex
100
AcDb2dVertex
 10
-15.4
 20
-66.5
 30
0.0
 42
-0.414214
  0
VERTEX
  5
485
330
22F
100
AcDbEntity
  8
GUIDE
100
AcDbVertex
100
AcDb2dVertex
 10
-14.4
 20
-67.5
 30
0.0
  0
VERTEX
  5
486
330
22F
100
AcDbEntity
  8
GUIDE
100
AcDbVertex
100
AcDb2dVertex
 10
-14.4
 20
-75.071429
 30
0.0
 42
-0.414214
  0
VERTEX
  5
487
330
22F
100
AcDbEntity
  8
GUIDE
100
AcDbVertex
100
AcDb2dVertex
 10
-15.4
 20
-76.071429
 30
0.0
  0
VERTEX
  5
488
330
22F
100
AcDbEntity
  8
GUIDE
100
AcDbVertex
100
AcDb2dVertex
 10
-24.4
 20
-76.071429
 30
0.0
 42
-0.414214
  0
SEQEND
  5
480
330
22F
100
AcDbEntity
  8
GUIDE
  0
POLYLINE
  5
239
330
1A
100
AcDbEntity
  8
GUIDE
100
AcDb2dPolyline
 66
     1
 10
0.0
 20
0.0
 30
0.0
 70
     1
  0
VERTEX
  5
48A
330
239
100
AcDbEntity
  8
GUIDE
100
AcDbVertex
100
AcDb2dVertex
 10
-12.8
 20
-75.071429
 30
0.0
  0
VERTEX
  5
48B
330
239
100
AcDbEntity
  8
GUIDE
100
AcDbVertex
100
AcDb2dVertex
 10
-12.8
 20
-67.5
 30
0.0
 42
-0.414214
  0
VERTEX
  5
48C
330
239
100
AcDbEntity
  8
GUIDE
100
AcDbVertex
100
AcDb2dVertex
 10
-11.8
 20
-66.5
 30
0.0
  0
VERTEX
  5
48D
330
239
100
AcDbEntity
  8
GUIDE
100
AcDbVertex
100
AcDb2dVertex
 10
-2.8
 20
-66.5
 30
0.0
 42
-0.414214
  0
VERTEX
  5
48E
330
239
100
AcDbEntity
  8
GUIDE
100
AcDbVertex
100
AcDb2dVertex
 10
-1.8
 20
-67.5
 30
0.0
  0
VERTEX
  5
48F
330
239
100
AcDbEntity
  8
GUIDE
100
AcDbVertex
100
AcDb2dVertex
 10
-1.8
 20
-75.071429
 30
0.0
 42
-0.414214
  0
VERTEX
  5
490
330
239
100
AcDbEntity
  8
GUIDE
100
AcDbVertex
100
AcDb2dVertex
 10
-2.8
 20
-76.071429
 30
0.0
  0
VERTEX
  5
491
330
239
100
AcDbEntity
  8
GUIDE
100
AcDbVertex
100
AcDb2dVertex
 10
-11.8
 20
-76.071429
 30
0.0
 42
-0.414214
  0
SEQEND
  5
489
330
239
100
AcDbEntity
  8
GUIDE
  0
LINE
  5
243
330
1A
100
AcDbEntity
  8
GUIDE
100
AcDbLine
 10
-17.4
 20
-64.5
 30
0.0
 11
-17.4
 21
-66.5
 31
0.0
  0
LINE
  5
244
330
1A
100
AcDbEntity
  8
GUIDE
100
AcDbLine
 10
-22.4
 20
-64.5
 30
0.0
 11
-22.4
 21
-66.5
 31
0.0
  0
LINE
  5
245
330
1A
100
AcDbEntity
  8
GUIDE
100
AcDbLine
 10
-9.800000000000001
 20
-64.5
 30
0.0
 11
-9.800000000000001
 21
-66.5
 31
0.0
  0
LINE
  5
246
330
1A
100
AcDbEntity
  8
GUIDE
100
AcDbLine
 10
-4.8
 20
-64.5
 30
0.0
 11
-4.8
 21
-66.5
 31
0.0
  0
LINE
  5
247
330
1A
100
AcDbEntity
  8
GUIDE
100
AcDbLine
 10
-22.4
 20
-133.5
 30
0.0
 11
-22.4
 21
-135.5
 31
0.0
  0
LINE
  5
248
330
1A
100
AcDbEntity
  8
GUIDE
100
AcDbLine
 10
-17.4
 20
-133.5
 30
0.0
 11
-17.4
 21
-135.5
 31
0.0
  0
LINE
  5
249
330
1A
100
AcDbEntity
  8
GUIDE
100
AcDbLine
 10
-9.800000000000001
 20
-133.5
 30
0.0
 11
-9.800000000000001
 21
-135.5
 31
0.0
  0
LINE
  5
24A
330
1A
100
AcDbEntity
  8
GUIDE
100
AcDbLine
 10
-4.8
 20
-133.5
 30
0.0
 11
-4.8
 21
-135.5
 31
0.0
  0
LINE
  5
24B
330
1A
100
AcDbEntity
  8
GUIDE
100
AcDbLine
 10
-17.4
 20
-135.5
 30
0.0
 11
-22.4
 21
-135.5
 31
0.0
  0
LINE
  5
24C
330
1A
100
AcDbEntity
  8
GUIDE
100
AcDbLine
 10
-9.800000000000001
 20
-64.5
 30
0.0
 11
-4.8
 21
-64.5
 31
0.0
  0
LINE
  5
24D
330
1A
100
AcDbEntity
  8
GUIDE
100
AcDbLine
 10
-25.4
 20
-64.5
 30
0.0
 11
-16.9
 21
-64.5
 31
0.0
  0
LINE
  5
24E
330
1A
100
AcDbEntity
  8
GUIDE
100
AcDbLine
 10
-1.8
 20
-135.5
 30
0.0
 11
-10.27
 21
-135.5
 31
0.0
  0
POLYLINE
  5
24F
330
1A
100
AcDbEntity
  8
GUIDE
100
AcDb2dPolyline
 66
     1
 10
0.0
 20
0.0
 30
0.0
  0
VERTEX
  5
493
330
24F
100
AcDbEntity
  8
GUIDE
100
AcDbVertex
100
AcDb2dVertex
 10
-1.8
 20
-135.5
 30
0.0
  0
VERTEX
  5
494
330
24F
100
AcDbEntity
  8
GUIDE
100
AcDbVertex
100
AcDb2dVertex
 10
-1.8
 20
-142.5
 30
0.0
  0
VERTEX
  5
495
330
24F
100
AcDbEntity
  8
GUIDE
100
AcDbVertex
100
AcDb2dVertex
 10
-27.2
 20
-142.5
 30
0.0
  0
SEQEND
  5
492
330
24F
100
AcDbEntity
  8
GUIDE
  0
LINE
  5
254
330
1A
100
AcDbEntity
  8
GUIDE
100
AcDbLine
 10
-10.77
 20
-62.5
 30
0.0
 11
-16.4
 21
-62.5
 31
0.0
  0
LINE
  5
255
330
1A
100
AcDbEntity
  8
GUIDE
100
AcDbLine
 10
-16.9
 20
-64.5
 30
0.0
 11
-16.4
 21
-62.5
 31
0.0
  0
LINE
  5
256
330
1A
100
AcDbEntity
  8
GUIDE
100
AcDbLine
 10
-10.27
 20
-64.5
 30
0.0
 11
-10.77
 21
-62.5
 31
0.0
  0
LINE
  5
257
330
1A
100
AcDbEntity
  8
GUIDE
100
AcDbLine
 10
-10.27
 20
-64.5
 30
0.0
 11
0.0
 21
-64.5
 31
0.0
  0
LINE
  5
258
330
1A
100
AcDbEntity
  8
GUIDE
100
AcDbLine
 10
-10.77
 20
-137.5
 30
0.0
 11
-16.4
 21
-137.5
 31
0.0
  0
LINE
  5
259
330
1A
100
AcDbEntity
  8
GUIDE
100
AcDbLine
 10
-16.9
 20
-135.5
 30
0.0
 11
-16.4
 21
-137.5
 31
0.0
  0
LINE
  5
25A
330
1A
100
AcDbEntity
  8
GUIDE
100
AcDbLine
 10
-10.27
 20
-135.5
 30
0.0
 11
-10.77
 21
-137.5
 31
0.0
  0
LINE
  5
25B
330
1A
100
AcDbEntity
  8
GUIDE
100
AcDbLine
 10
-16.9
 20
-135.5
 30
0.0
 11
-27.2
 21
-135.5
 31
0.0
  0
LINE
  5
25C
330
1A
100
AcDbEntity
  8
GUIDE
100
AcDbLine
 10
-27.7
 20
-61.928908
 30
0.0
 11
-27.7
 21
-60.071092
 31
0.0
  0
LINE
  5
25D
330
1A
100
AcDbEntity
  8
GUIDE
100
AcDbLine
 10
-27.133918
 20
-59.575478
 30
0.0
 11
-25.4
 21
-59.9
 31
0.0
  0
LINE
  5
25E
330
1A
100
AcDbEntity
  8
GUIDE
100
AcDbLine
 10
-27.133918
 20
-62.424522
 30
0.0
 11
-25.4
 21
-62.1
 31
0.0
  0
ARC
  5
25F
330
1A
100
AcDbEntity
  8
GUIDE
100
AcDbCircle
 10
-27.2
 20
-60.071092
 30
0.0
 40
0.5
100
AcDbArc
 50
82.405357
 51
180.0
  0
ARC
  5
260
330
1A
100
AcDbEntity
  8
GUIDE
100
AcDbCircle
 10
-27.2
 20
-61.928908
 30
0.0
 40
0.5
100
AcDbArc
 50
180.0
 51
277.5946430000001
  0
LINE
  5
261
330
1A
100
AcDbEntity
  8
GUIDE
100
AcDbLine
 10
-1.5
 20
-61.928908
 30
0.0
 11
-1.5
 21
-60.071092
 31
0.0
  0
ARC
  5
262
330
1A
100
AcDbEntity
  8
GUIDE
100
AcDbCircle
 10
-1.0
 20
-61.928908
 30
0.0
 40
0.5
100
AcDbArc
 50
180.0
 51
277.5946430000001
  0
LINE
  5
263
330
1A
100
AcDbEntity
  8
GUIDE
100
AcDbLine
 10
-0.933918
 20
-62.424522
 30
0.0
 11
0.0
 21
-62.1
 31
0.0
  0
ARC
  5
264
330
1A
100
AcDbEntity
  8
GUIDE
100
AcDbCircle
 10
-1.0
 20
-60.071092
 30
0.0
 40
0.5
100
AcDbArc
 50
82.405357
 51
180.0
  0
LINE
  5
265
330
1A
100
AcDbEntity
  8
GUIDE
100
AcDbLine
 10
-0.933918
 20
-59.575478
 30
0.0
 11
0.0
 21
-59.9
 31
0.0
  0
POLYLINE
  5
266
330
1A
100
AcDbEntity
  8
GUIDE
100
AcDb2dPolyline
 66
     1
 10
0.0
 20
0.0
 30
0.0
  0
VERTEX
  5
497
330
266
100
AcDbEntity
  8
GUIDE
100
AcDbVertex
100
AcDb2dVertex
 10
-25.4
 20
-64.5
 30
0.0
  0
VERTEX
  5
498
330
266
100
AcDbEntity
  8
GUIDE
100
AcDbVertex
100
AcDb2dVertex
 10
-25.4
 20
-57.5
 30
0.0
  0
VERTEX
  5
499
330
266
100
AcDbEntity
  8
GUIDE
100
AcDbVertex
100
AcDb2dVertex
 10
0.0
 20
-57.5
 30
0.0
  0
VERTEX
  5
49A
330
266
100
AcDbEntity
  8
GUIDE
100
AcDbVertex
100
AcDb2dVertex
 10
0.0
 20
-59.9
 30
0.0
  0
SEQEND
  5
496
330
266
100
AcDbEntity
  8
GUIDE
  0
POLYLINE
  5
26C
330
1A
100
AcDbEntity
  8
GUIDE
100
AcDb2dPolyline
 66
     1
 10
0.0
 20
0.0
 30
0.0
  0
VERTEX
  5
49C
330
26C
100
AcDbEntity
  8
GUIDE
100
AcDbVertex
100
AcDb2dVertex
 10
0.0
 20
-62.1
 30
0.0
  0
VERTEX
  5
49D
330
26C
100
AcDbEntity
  8
GUIDE
100
AcDbVertex
100
AcDb2dVertex
 10
0.0
 20
-64.5
 30
0.0
  0
SEQEND
  5
49B
330
26C
100
AcDbEntity
  8
GUIDE
  0
LINE
  5
270
330
1A
100
AcDbEntity
  8
GUIDE
100
AcDbLine
 10
0.5
 20
-138.071092
 30
0.0
 11
0.5
 21
-139.928908
 31
0.0
  0
ARC
  5
271
330
1A
100
AcDbEntity
  8
GUIDE
100
AcDbCircle
 10
0.0
 20
-138.071092
 30
0.0
 40
0.5
100
AcDbArc
 50
0.0
 51
97.59464300000001
  0
LINE
  5
272
330
1A
100
AcDbEntity
  8
GUIDE
100
AcDbLine
 10
-0.066082
 20
-137.575478
 30
0.0
 11
-1.8
 21
-137.9
 31
0.0
  0
ARC
  5
273
330
1A
100
AcDbEntity
  8
GUIDE
100
AcDbCircle
 10
0.0
 20
-139.928908
 30
0.0
 40
0.5
100
AcDbArc
 50
262.405357
 51
0.0
  0
LINE
  5
274
330
1A
100
AcDbEntity
  8
GUIDE
100
AcDbLine
 10
-0.066082
 20
-140.424522
 30
0.0
 11
-1.8
 21
-140.1
 31
0.0
  0
LINE
  5
275
330
1A
100
AcDbEntity
  8
GUIDE
100
AcDbLine
 10
-25.7
 20
-138.071092
 30
0.0
 11
-25.7
 21
-139.928908
 31
0.0
  0
LINE
  5
276
330
1A
100
AcDbEntity
  8
GUIDE
100
AcDbLine
 10
-26.266082
 20
-137.575478
 30
0.0
 11
-27.2
 21
-137.9
 31
0.0
  0
ARC
  5
277
330
1A
100
AcDbEntity
  8
GUIDE
100
AcDbCircle
 10
-26.2
 20
-138.071092
 30
0.0
 40
0.5
100
AcDbArc
 50
0.0
 51
97.59464300000001
  0
LINE
  5
278
330
1A
100
AcDbEntity
  8
GUIDE
100
AcDbLine
 10
-26.266082
 20
-140.424522
 30
0.0
 11
-27.2
 21
-140.1
 31
0.0
  0
ARC
  5
279
330
1A
100
AcDbEntity
  8
GUIDE
100
AcDbCircle
 10
-26.2
 20
-139.928908
 30
0.0
 40
0.5
100
AcDbArc
 50
262.405357
 51
0.0
  0
POLYLINE
  5
27A
330
1A
100
AcDbEntity
  8
GUIDE
100
AcDb2dPolyline
 66
     1
 10
0.0
 20
0.0
 30
0.0
  0
VERTEX
  5
49F
330
27A
100
AcDbEntity
  8
GUIDE
100
AcDbVertex
100
AcDb2dVertex
 10
-27.2
 20
-142.5
 30
0.0
  0
VERTEX
  5
4A0
330
27A
100
AcDbEntity
  8
GUIDE
100
AcDbVertex
100
AcDb2dVertex
 10
-27.2
 20
-140.1
 30
0.0
  0
SEQEND
  5
49E
330
27A
100
AcDbEntity
  8
GUIDE
  0
POLYLINE
  5
27E
330
1A
100
AcDbEntity
  8
GUIDE
100
AcDb2dPolyline
 66
     1
 10
0.0
 20
0.0
 30
0.0
  0
VERTEX
  5
4A2
330
27E
100
AcDbEntity
  8
GUIDE
100
AcDbVertex
100
AcDb2dVertex
 10
-27.2
 20
-137.9
 30
0.0
  0
VERTEX
  5
4A3
330
27E
100
AcDbEntity
  8
GUIDE
100
AcDbVertex
100
AcDb2dVertex
 10
-27.2
 20
-135.5
 30
0.0
  0
SEQEND
  5
4A1
330
27E
100
AcDbEntity
  8
GUIDE
  0
LINE
  5
282
330
1A
100
AcDbEntity
  8
GUIDE
100
AcDbLine
 10
-25.4
 20
-64.5
 30
0.0
 11
-25.4
 21
-67.5
 31
0.0
  0
LINE
  5
283
330
1A
100
AcDbEntity
  8
GUIDE
100
AcDbLine
 10
-1.8
 20
-135.5
 30
0.0
 11
-1.8
 21
-132.5
 31
0.0
  0
ARC
  5
284
330
1A
100
AcDbEntity
  8
GUIDE
 48
10.0
100
AcDbCircle
 10
-19.9
 20
-10.734774
 30
0.0
 40
5.5
100
AcDbArc
 50
126.869898
 51
53.130102
  0
ARC
  5
285
330
1A
100
AcDbEntity
  8
GUIDE
100
AcDbCircle
 10
-19.9
 20
-10.734774
 30
0.0
 40
5.5
100
AcDbArc
 50
53.130102
 51
126.869898
  0
CIRCLE
  5
286
330
1A
100
AcDbEntity
  8
GUIDE
100
AcDbCircle
 10
-7.3
 20
-10.734774
 30
0.0
 40
2.5
  0
CIRCLE
  5
287
330
1A
100
AcDbEntity
  8
GUIDE
100
AcDbCircle
 10
-19.9
 20
-10.734774
 30
0.0
 40
2.5
  0
ARC
  5
288
330
1A
100
AcDbEntity
  8
GUIDE
100
AcDbCircle
 10
-7.3
 20
-10.734774
 30
0.0
 40
5.5
100
AcDbArc
 50
53.130102
 51
126.869898
  0
ARC
  5
289
330
1A
100
AcDbEntity
  8
GUIDE
 48
10.0
100
AcDbCircle
 10
-7.3
 20
-10.734774
 30
0.0
 40
5.5
100
AcDbArc
 50
126.869898
 51
53.130102
  0
LINE
  5
28A
330
1A
100
AcDbEntity
  8
GUIDE
100
AcDbLine
 10
-15.3
 20
-38.734774
 30
0.0
 11
-15.3
 21
-23.734774
 31
0.0
  0
LINE
  5
28B
330
1A
100
AcDbEntity
  8
GUIDE
100
AcDbLine
 10
-10.3
 20
-38.734774
 30
0.0
 11
-10.3
 21
-23.734774
 31
0.0
  0
LINE
  5
28C
330
1A
100
AcDbEntity
  8
GUIDE
100
AcDbLine
 10
-14.3
 20
-39.734774
 30
0.0
 11
-11.3
 21
-39.734774
 31
0.0
  0
LINE
  5
28D
330
1A
100
AcDbEntity
  8
GUIDE
100
AcDbLine
 10
-15.3
 20
-23.734774
 30
0.0
 11
-10.3
 21
-23.734774
 31
0.0
  0
POLYLINE
  5
28E
330
1A
100
AcDbEntity
  8
GUIDE
100
AcDb2dPolyline
 66
     1
 10
0.0
 20
0.0
 30
0.0
 70
     1
  0
VERTEX
  5
4A5
330
28E
100
AcDbEntity
  8
GUIDE
100
AcDbVertex
100
AcDb2dVertex
 10
-17.8
 20
-23.734774
 30
0.0
  0
VERTEX
  5
4A6
330
28E
100
AcDbEntity
  8
GUIDE
100
AcDbVertex
100
AcDb2dVertex
 10
-17.8
 20
-20.734774
 30
0.0
  0
VERTEX
  5
4A7
330
28E
100
AcDbEntity
  8
GUIDE
100
AcDbVertex
100
AcDb2dVertex
 10
-7.8
 20
-20.734774
 30
0.0
  0
VERTEX
  5
4A8
330
28E
100
AcDbEntity
  8
GUIDE
100
AcDbVertex
100
AcDb2dVertex
 10
-7.8
 20
-23.734774
 30
0.0
  0
SEQEND
  5
4A4
330
28E
100
AcDbEntity
  8
GUIDE
  0
LINE
  5
294
330
1A
100
AcDbEntity
  8
GUIDE
100
AcDbLine
 10
-14.3
 20
-39.734774
 30
0.0
 11
-15.3
 21
-38.734774
 31
0.0
  0
LINE
  5
295
330
1A
100
AcDbEntity
  8
GUIDE
100
AcDbLine
 10
-11.3
 20
-39.734774
 30
0.0
 11
-10.3
 21
-38.734774
 31
0.0
  0
LINE
  5
296
330
1A
100
AcDbEntity
  8
GUIDE
100
AcDbLine
 10
-15.3
 20
-38.734774
 30
0.0
 11
-10.3
 21
-38.734774
 31
0.0
  0
LINE
  5
297
330
1A
100
AcDbEntity
  8
GUIDE
100
AcDbLine
 10
-14.3
 20
-39.734774
 30
0.0
 11
-14.3
 21
-23.734774
 31
0.0
  0
LINE
  5
298
330
1A
100
AcDbEntity
  8
GUIDE
100
AcDbLine
 10
-11.3
 20
-39.734774
 30
0.0
 11
-11.3
 21
-23.734774
 31
0.0
  0
POLYLINE
  5
299
330
1A
100
AcDbEntity
  8
GUIDE
100
AcDb2dPolyline
 66
     1
 10
0.0
 20
0.0
 30
0.0
  0
VERTEX
  5
4AA
330
299
100
AcDbEntity
  8
GUIDE
100
AcDbVertex
100
AcDb2dVertex
 10
-26.2
 20
-27.734774
 30
0.0
  0
VERTEX
  5
4AB
330
299
100
AcDbEntity
  8
GUIDE
100
AcDbVertex
100
AcDb2dVertex
 10
-26.2
 20
-9.334774
 30
0.0
 42
-0.414214
  0
VERTEX
  5
4AC
330
299
100
AcDbEntity
  8
GUIDE
100
AcDbVertex
100
AcDb2dVertex
 10
-23.2
 20
-6.334774
 30
0.0
  0
VERTEX
  5
4AD
330
299
100
AcDbEntity
  8
GUIDE
100
AcDbVertex
100
AcDb2dVertex
 10
-4.0
 20
-6.334774
 30
0.0
 42
-0.414214
  0
VERTEX
  5
4AE
330
299
100
AcDbEntity
  8
GUIDE
100
AcDbVertex
100
AcDb2dVertex
 10
-1.0
 20
-9.334774
 30
0.0
  0
VERTEX
  5
4AF
330
299
100
AcDbEntity
  8
GUIDE
100
AcDbVertex
100
AcDb2dVertex
 10
-1.0
 20
-27.734774
 30
0.0
  0
VERTEX
  5
4B0
330
299
100
AcDbEntity
  8
GUIDE
100
AcDbVertex
100
AcDb2dVertex
 10
-10.3
 20
-27.734774
 30
0.0
  0
SEQEND
  5
4A9
330
299
100
AcDbEntity
  8
GUIDE
  0
POLYLINE
  5
2A2
330
1A
100
AcDbEntity
  8
GUIDE
100
AcDb2dPolyline
 66
     1
 10
0.0
 20
0.0
 30
0.0
  0
VERTEX
  5
4B2
330
2A2
100
AcDbEntity
  8
GUIDE
100
AcDbVertex
100
AcDb2dVertex
 10
-15.3
 20
-27.734774
 30
0.0
  0
VERTEX
  5
4B3
330
2A2
100
AcDbEntity
  8
GUIDE
100
AcDbVertex
100
AcDb2dVertex
 10
-26.2
 20
-27.734774
 30
0.0
  0
SEQEND
  5
4B1
330
2A2
100
AcDbEntity
  8
GUIDE
  0
LINE
  5
2A6
330
1A
100
AcDbEntity
  8
GUIDE
100
AcDbLine
 10
-27.2
 20
-26.734774
 30
0.0
 11
-27.2
 21
-10.334774
 31
0.0
  0
LINE
  5
2A7
330
1A
100
AcDbEntity
  8
GUIDE
100
AcDbLine
 10
0.0
 20
-26.734774
 30
0.0
 11
0.0
 21
-10.334774
 31
0.0
  0
LINE
  5
2A8
330
1A
100
AcDbEntity
  8
GUIDE
100
AcDbLine
 10
-26.2
 20
-9.334774
 30
0.0
 11
-26.2
 21
-9.334774
 31
0.0
  0
ARC
  5
2A9
330
1A
100
AcDbEntity
  8
GUIDE
100
AcDbCircle
 10
-26.2
 20
-10.334774
 30
0.0
 40
1.0
100
AcDbArc
 50
90.0
 51
180.0
  0
ARC
  5
2AA
330
1A
100
AcDbEntity
  8
GUIDE
100
AcDbCircle
 10
-1.0
 20
-10.334774
 30
0.0
 40
1.0
100
AcDbArc
 50
0.0
 51
90.0
  0
ARC
  5
2AB
330
1A
100
AcDbEntity
  8
GUIDE
100
AcDbCircle
 10
-1.0
 20
-26.734774
 30
0.0
 40
1.0
100
AcDbArc
 50
270.0
 51
0.0
  0
ARC
  5
2AC
330
1A
100
AcDbEntity
  8
GUIDE
100
AcDbCircle
 10
-26.2
 20
-26.734774
 30
0.0
 40
1.0
100
AcDbArc
 50
180.0
 51
270.0
  0
LINE
  5
2AD
330
1A
100
AcDbEntity
  8
GUIDE
100
AcDbLine
 10
71.40000000000001
 20
-142.5
 30
0.0
 11
50.0
 21
-142.5
 31
0.0
  0
LINE
  5
2AE
330
1A
100
AcDbEntity
  8
GUIDE
100
AcDbLine
 10
71.40000000000001
 20
-57.5
 30
0.0
 11
50.0
 21
-57.5
 31
0.0
  0
LINE
  5
2AF
330
1A
100
AcDbEntity
  8
GUIDE
100
AcDbLine
 10
71.40000000000001
 20
-135.5
 30
0.0
 11
60.5
 21
-135.5
 31
0.0
  0
LINE
  5
2B0
330
1A
100
AcDbEntity
  8
GUIDE
100
AcDbLine
 10
71.40000000000001
 20
-64.5
 30
0.0
 11
60.5
 21
-64.5
 31
0.0
  0
LINE
  5
2B1
330
1A
100
AcDbEntity
  8
GUIDE
100
AcDbLine
 10
71.40000000000001
 20
-142.5
 30
0.0
 11
71.40000000000001
 21
-135.5
 31
0.0
  0
LINE
  5
2B2
330
1A
100
AcDbEntity
  8
GUIDE
100
AcDbLine
 10
50.0
 20
-142.5
 30
0.0
 11
50.0
 21
-57.5
 31
0.0
  0
LINE
  5
2B3
330
1A
100
AcDbEntity
  8
GUIDE
100
AcDbLine
 10
60.5
 20
-135.5
 30
0.0
 11
60.5
 21
-64.5
 31
0.0
  0
LINE
  5
2B4
330
1A
100
AcDbEntity
  8
GUIDE
100
AcDbLine
 10
71.40000000000001
 20
-64.5
 30
0.0
 11
71.40000000000001
 21
-57.5
 31
0.0
  0
LINE
  5
2B5
330
1A
100
AcDbEntity
  8
GUIDE
100
AcDbLine
 10
69.5
 20
-135.5
 30
0.0
 11
69.5
 21
-133.5
 31
0.0
  0
LINE
  5
2B6
330
1A
100
AcDbEntity
  8
GUIDE
100
AcDbLine
 10
64.5
 20
-135.5
 30
0.0
 11
64.5
 21
-133.5
 31
0.0
  0
LINE
  5
2B7
330
1A
100
AcDbEntity
  8
GUIDE
100
AcDbLine
 10
64.5
 20
-135.5
 30
0.0
 11
69.5
 21
-135.5
 31
0.0
  0
POLYLINE
  5
2B8
330
1A
100
AcDbEntity
  8
GUIDE
100
AcDb2dPolyline
 66
     1
 10
0.0
 20
0.0
 30
0.0
 70
     1
  0
VERTEX
  5
4B5
330
2B8
100
AcDbEntity
  8
GUIDE
100
AcDbVertex
100
AcDb2dVertex
 10
72.5
 20
-86.64285700000001
 30
0.0
  0
VERTEX
  5
4B6
330
2B8
100
AcDbEntity
  8
GUIDE
100
AcDbVertex
100
AcDb2dVertex
 10
72.5
 20
-94.214286
 30
0.0
 42
-0.414214
  0
VERTEX
  5
4B7
330
2B8
100
AcDbEntity
  8
GUIDE
100
AcDbVertex
100
AcDb2dVertex
 10
71.5
 20
-95.214286
 30
0.0
  0
VERTEX
  5
4B8
330
2B8
100
AcDbEntity
  8
GUIDE
100
AcDbVertex
100
AcDb2dVertex
 10
62.5
 20
-95.214286
 30
0.0
 42
-0.414214
  0
VERTEX
  5
4B9
330
2B8
100
AcDbEntity
  8
GUIDE
100
AcDbVertex
100
AcDb2dVertex
 10
61.5
 20
-94.214286
 30
0.0
  0
VERTEX
  5
4BA
330
2B8
100
AcDbEntity
  8
GUIDE
100
AcDbVertex
100
AcDb2dVertex
 10
61.5
 20
-86.64285700000001
 30
0.0
 42
-0.414214
  0
VERTEX
  5
4BB
330
2B8
100
AcDbEntity
  8
GUIDE
100
AcDbVertex
100
AcDb2dVertex
 10
62.5
 20
-85.64285700000001
 30
0.0
  0
VERTEX
  5
4BC
330
2B8
100
AcDbEntity
  8
GUIDE
100
AcDbVertex
100
AcDb2dVertex
 10
71.5
 20
-85.64285700000001
 30
0.0
 42
-0.414214
  0
SEQEND
  5
4B4
330
2B8
100
AcDbEntity
  8
GUIDE
  0
POLYLINE
  5
2C2
330
1A
100
AcDbEntity
  8
GUIDE
100
AcDb2dPolyline
 66
     1
 10
0.0
 20
0.0
 30
0.0
 70
     1
  0
VERTEX
  5
4BE
330
2C2
100
AcDbEntity
  8
GUIDE
100
AcDbVertex
100
AcDb2dVertex
 10
72.5
 20
-77.071429
 30
0.0
  0
VERTEX
  5
4BF
330
2C2
100
AcDbEntity
  8
GUIDE
100
AcDbVertex
100
AcDb2dVertex
 10
72.5
 20
-84.64285700000001
 30
0.0
 42
-0.414214
  0
VERTEX
  5
4C0
330
2C2
100
AcDbEntity
  8
GUIDE
100
AcDbVertex
100
AcDb2dVertex
 10
71.5
 20
-85.64285700000001
 30
0.0
  0
VERTEX
  5
4C1
330
2C2
100
AcDbEntity
  8
GUIDE
100
AcDbVertex
100
AcDb2dVertex
 10
62.5
 20
-85.64285700000001
 30
0.0
 42
-0.414214
  0
VERTEX
  5
4C2
330
2C2
100
AcDbEntity
  8
GUIDE
100
AcDbVertex
100
AcDb2dVertex
 10
61.5
 20
-84.64285700000001
 30
0.0
  0
VERTEX
  5
4C3
330
2C2
100
AcDbEntity
  8
GUIDE
100
AcDbVertex
100
AcDb2dVertex
 10
61.5
 20
-77.071429
 30
0.0
 42
-0.414214
  0
VERTEX
  5
4C4
330
2C2
100
AcDbEntity
  8
GUIDE
100
AcDbVertex
100
AcDb2dVertex
 10
62.5
 20
-76.071429
 30
0.0
  0
VERTEX
  5
4C5
330
2C2
100
AcDbEntity
  8
GUIDE
100
AcDbVertex
100
AcDb2dVertex
 10
71.5
 20
-76.071429
 30
0.0
 42
-0.414214
  0
SEQEND
  5
4BD
330
2C2
100
AcDbEntity
  8
GUIDE
  0
POLYLINE
  5
2CC
330
1A
100
AcDbEntity
  8
GUIDE
100
AcDb2dPolyline
 66
     1
 10
0.0
 20
0.0
 30
0.0
 70
     1
  0
VERTEX
  5
4C7
330
2CC
100
AcDbEntity
  8
GUIDE
100
AcDbVertex
100
AcDb2dVertex
 10
72.5
 20
-67.5
 30
0.0
  0
VERTEX
  5
4C8
330
2CC
100
AcDbEntity
  8
GUIDE
100
AcDbVertex
100
AcDb2dVertex
 10
72.5
 20
-75.071429
 30
0.0
 42
-0.414214
  0
VERTEX
  5
4C9
330
2CC
100
AcDbEntity
  8
GUIDE
100
AcDbVertex
100
AcDb2dVertex
 10
71.5
 20
-76.071429
 30
0.0
  0
VERTEX
  5
4CA
330
2CC
100
AcDbEntity
  8
GUIDE
100
AcDbVertex
100
AcDb2dVertex
 10
62.5
 20
-76.071429
 30
0.0
 42
-0.414214
  0
VERTEX
  5
4CB
330
2CC
100
AcDbEntity
  8
GUIDE
100
AcDbVertex
100
AcDb2dVertex
 10
61.5
 20
-75.071429
 30
0.0
  0
VERTEX
  5
4CC
330
2CC
100
AcDbEntity
  8
GUIDE
100
AcDbVertex
100
AcDb2dVertex
 10
61.5
 20
-67.5
 30
0.0
 42
-0.414214
  0
VERTEX
  5
4CD
330
2CC
100
AcDbEntity
  8
GUIDE
100
AcDbVertex
100
AcDb2dVertex
 10
62.5
 20
-66.5
 30
0.0
  0
VERTEX
  5
4CE
330
2CC
100
AcDbEntity
  8
GUIDE
100
AcDbVertex
100
AcDb2dVertex
 10
71.5
 20
-66.5
 30
0.0
 42
-0.414214
  0
SEQEND
  5
4C6
330
2CC
100
AcDbEntity
  8
GUIDE
  0
POLYLINE
  5
2D6
330
1A
100
AcDbEntity
  8
GUIDE
100
AcDb2dPolyline
 66
     1
 10
0.0
 20
0.0
 30
0.0
 70
     1
  0
VERTEX
  5
4D0
330
2D6
100
AcDbEntity
  8
GUIDE
100
AcDbVertex
100
AcDb2dVertex
 10
72.5
 20
-124.928571
 30
0.0
  0
VERTEX
  5
4D1
330
2D6
100
AcDbEntity
  8
GUIDE
100
AcDbVertex
100
AcDb2dVertex
 10
72.5
 20
-132.5
 30
0.0
 42
-0.414214
  0
VERTEX
  5
4D2
330
2D6
100
AcDbEntity
  8
GUIDE
100
AcDbVertex
100
AcDb2dVertex
 10
71.5
 20
-133.5
 30
0.0
  0
VERTEX
  5
4D3
330
2D6
100
AcDbEntity
  8
GUIDE
100
AcDbVertex
100
AcDb2dVertex
 10
62.5
 20
-133.5
 30
0.0
 42
-0.414214
  0
VERTEX
  5
4D4
330
2D6
100
AcDbEntity
  8
GUIDE
100
AcDbVertex
100
AcDb2dVertex
 10
61.5
 20
-132.5
 30
0.0
  0
VERTEX
  5
4D5
330
2D6
100
AcDbEntity
  8
GUIDE
100
AcDbVertex
100
AcDb2dVertex
 10
61.5
 20
-124.928571
 30
0.0
 42
-0.414214
  0
VERTEX
  5
4D6
330
2D6
100
AcDbEntity
  8
GUIDE
100
AcDbVertex
100
AcDb2dVertex
 10
62.5
 20
-123.928571
 30
0.0
  0
VERTEX
  5
4D7
330
2D6
100
AcDbEntity
  8
GUIDE
100
AcDbVertex
100
AcDb2dVertex
 10
71.5
 20
-123.928571
 30
0.0
 42
-0.414214
  0
SEQEND
  5
4CF
330
2D6
100
AcDbEntity
  8
GUIDE
  0
POLYLINE
  5
2E0
330
1A
100
AcDbEntity
  8
GUIDE
100
AcDb2dPolyline
 66
     1
 10
0.0
 20
0.0
 30
0.0
 70
     1
  0
VERTEX
  5
4D9
330
2E0
100
AcDbEntity
  8
GUIDE
100
AcDbVertex
100
AcDb2dVertex
 10
72.5
 20
-115.357143
 30
0.0
  0
VERTEX
  5
4DA
330
2E0
100
AcDbEntity
  8
GUIDE
100
AcDbVertex
100
AcDb2dVertex
 10
72.5
 20
-122.928571
 30
0.0
 42
-0.414214
  0
VERTEX
  5
4DB
330
2E0
100
AcDbEntity
  8
GUIDE
100
AcDbVertex
100
AcDb2dVertex
 10
71.5
 20
-123.928571
 30
0.0
  0
VERTEX
  5
4DC
330
2E0
100
AcDbEntity
  8
GUIDE
100
AcDbVertex
100
AcDb2dVertex
 10
62.5
 20
-123.928571
 30
0.0
 42
-0.414214
  0
VERTEX
  5
4DD
330
2E0
100
AcDbEntity
  8
GUIDE
100
AcDbVertex
100
AcDb2dVertex
 10
61.5
 20
-122.928571
 30
0.0
  0
VERTEX
  5
4DE
330
2E0
100
AcDbEntity
  8
GUIDE
100
AcDbVertex
100
AcDb2dVertex
 10
61.5
 20
-115.357143
 30
0.0
 42
-0.414214
  0
VERTEX
  5
4DF
330
2E0
100
AcDbEntity
  8
GUIDE
100
AcDbVertex
100
AcDb2dVertex
 10
62.5
 20
-114.357143
 30
0.0
  0
VERTEX
  5
4E0
330
2E0
100
AcDbEntity
  8
GUIDE
100
AcDbVertex
100
AcDb2dVertex
 10
71.5
 20
-114.357143
 30
0.0
 42
-0.414214
  0
SEQEND
  5
4D8
330
2E0
100
AcDbEntity
  8
GUIDE
  0
POLYLINE
  5
2EA
330
1A
100
AcDbEntity
  8
GUIDE
100
AcDb2dPolyline
 66
     1
 10
0.0
 20
0.0
 30
0.0
 70
     1
  0
VERTEX
  5
4E2
330
2EA
100
AcDbEntity
  8
GUIDE
100
AcDbVertex
100
AcDb2dVertex
 10
72.5
 20
-105.785714
 30
0.0
  0
VERTEX
  5
4E3
330
2EA
100
AcDbEntity
  8
GUIDE
100
AcDbVertex
100
AcDb2dVertex
 10
72.5
 20
-113.357143
 30
0.0
 42
-0.414214
  0
VERTEX
  5
4E4
330
2EA
100
AcDbEntity
  8
GUIDE
100
AcDbVertex
100
AcDb2dVertex
 10
71.5
 20
-114.357143
 30
0.0
  0
VERTEX
  5
4E5
330
2EA
100
AcDbEntity
  8
GUIDE
100
AcDbVertex
100
AcDb2dVertex
 10
62.5
 20
-114.357143
 30
0.0
 42
-0.414214
  0
VERTEX
  5
4E6
330
2EA
100
AcDbEntity
  8
GUIDE
100
AcDbVertex
100
AcDb2dVertex
 10
61.5
 20
-113.357143
 30
0.0
  0
VERTEX
  5
4E7
330
2EA
100
AcDbEntity
  8
GUIDE
100
AcDbVertex
100
AcDb2dVertex
 10
61.5
 20
-105.785714
 30
0.0
 42
-0.414214
  0
VERTEX
  5
4E8
330
2EA
100
AcDbEntity
  8
GUIDE
100
AcDbVertex
100
AcDb2dVertex
 10
62.5
 20
-104.785714
 30
0.0
  0
VERTEX
  5
4E9
330
2EA
100
AcDbEntity
  8
GUIDE
100
AcDbVertex
100
AcDb2dVertex
 10
71.5
 20
-104.785714
 30
0.0
 42
-0.414214
  0
SEQEND
  5
4E1
330
2EA
100
AcDbEntity
  8
GUIDE
  0
POLYLINE
  5
2F4
330
1A
100
AcDbEntity
  8
GUIDE
100
AcDb2dPolyline
 66
     1
 10
0.0
 20
0.0
 30
0.0
 70
     1
  0
VERTEX
  5
4EB
330
2F4
100
AcDbEntity
  8
GUIDE
100
AcDbVertex
100
AcDb2dVertex
 10
72.5
 20
-96.214286
 30
0.0
  0
VERTEX
  5
4EC
330
2F4
100
AcDbEntity
  8
GUIDE
100
AcDbVertex
100
AcDb2dVertex
 10
72.5
 20
-103.785714
 30
0.0
 42
-0.414214
  0
VERTEX
  5
4ED
330
2F4
100
AcDbEntity
  8
GUIDE
100
AcDbVertex
100
AcDb2dVertex
 10
71.5
 20
-104.785714
 30
0.0
  0
VERTEX
  5
4EE
330
2F4
100
AcDbEntity
  8
GUIDE
100
AcDbVertex
100
AcDb2dVertex
 10
62.5
 20
-104.785714
 30
0.0
 42
-0.414214
  0
VERTEX
  5
4EF
330
2F4
100
AcDbEntity
  8
GUIDE
100
AcDbVertex
100
AcDb2dVertex
 10
61.5
 20
-103.785714
 30
0.0
  0
VERTEX
  5
4F0
330
2F4
100
AcDbEntity
  8
GUIDE
100
AcDbVertex
100
AcDb2dVertex
 10
61.5
 20
-96.214286
 30
0.0
 42
-0.414214
  0
VERTEX
  5
4F1
330
2F4
100
AcDbEntity
  8
GUIDE
100
AcDbVertex
100
AcDb2dVertex
 10
62.5
 20
-95.214286
 30
0.0
  0
VERTEX
  5
4F2
330
2F4
100
AcDbEntity
  8
GUIDE
100
AcDbVertex
100
AcDb2dVertex
 10
71.5
 20
-95.214286
 30
0.0
 42
-0.414214
  0
SEQEND
  5
4EA
330
2F4
100
AcDbEntity
  8
GUIDE
  0
LINE
  5
2FE
330
1A
100
AcDbEntity
  8
GUIDE
100
AcDbLine
 10
64.5
 20
-66.5
 30
0.0
 11
64.5
 21
-64.5
 31
0.0
  0
LINE
  5
2FF
330
1A
100
AcDbEntity
  8
GUIDE
100
AcDbLine
 10
69.5
 20
-66.5
 30
0.0
 11
69.5
 21
-64.5
 31
0.0
  0
LINE
  5
300
330
1A
100
AcDbEntity
  8
GUIDE
100
AcDbLine
 10
64.5
 20
-64.5
 30
0.0
 11
69.5
 21
-64.5
 31
0.0
  0
LINE
  5
301
330
1A
100
AcDbEntity
  8
GUIDE
100
AcDbLine
 10
60.5
 20
-131.0
 30
0.0
 11
50.0
 21
-131.0
 31
0.0
  0
LINE
  5
302
330
1A
100
AcDbEntity
  8
GUIDE
100
AcDbLine
 10
50.0
 20
-140.424522
 30
0.0
 11
71.40000000000001
 21
-140.424522
 31
0.0
  0
LINE
  5
303
330
1A
100
AcDbEntity
  8
GUIDE
100
AcDbLine
 10
60.5
 20
-106.0
 30
0.0
 11
50.0
 21
-106.0
 31
0.0
  0
LINE
  5
304
330
1A
100
AcDbEntity
  8
GUIDE
100
AcDbLine
 10
60.5
 20
-100.0
 30
0.0
 11
50.0
 21
-100.0
 31
0.0
  0
LINE
  5
305
330
1A
100
AcDbEntity
  8
GUIDE
100
AcDbLine
 10
60.5
 20
-69.0
 30
0.0
 11
50.0
 21
-69.0
 31
0.0
  0
LINE
  5
306
330
1A
100
AcDbEntity
  8
GUIDE
100
AcDbLine
 10
71.40000000000001
 20
-62.1
 30
0.0
 11
50.0
 21
-62.1
 31
0.0
  0
LINE
  5
307
330
1A
100
AcDbEntity
  8
GUIDE
100
AcDbLine
 10
71.40000000000001
 20
-59.9
 30
0.0
 11
50.0
 21
-59.9
 31
0.0
  0
LINE
  5
308
330
1A
100
AcDbEntity
  8
GUIDE
100
AcDbLine
 10
50.0
 20
-137.575478
 30
0.0
 11
71.40000000000001
 21
-137.575478
 31
0.0
  0
LINE
  5
309
330
1A
100
AcDbEntity
  8
GUIDE
100
AcDbLine
 10
60.5
 20
-94.0
 30
0.0
 11
50.0
 21
-94.0
 31
0.0
  0
ENDSEC
  0
SECTION
  2
OBJECTS
  0
DICTIONARY
  5
C
330
0
100
AcDbDictionary
  3
ACAD_GROUP
350
D
  3
ACAD_LAYOUT
350
30B
  3
ACAD_MLINESTYLE
350
E
1001
ACAD
1000
TREAT_AS_HARD
1070
     0
  0
DICTIONARY
  5
4F3
330
30A
100
AcDbDictionary
  3
ACAD_XREC_ROUNDTRIP
360
4F4
  0
DICTIONARY
  5
D
102
{ACAD_REACTORS
330
C
102
}
330
C
100
AcDbDictionary
1001
ACAD
1000
TREAT_AS_HARD
1070
     0
  0
DICTIONARY
  5
30B
102
{ACAD_REACTORS
330
C
102
}
330
C
100
AcDbDictionary
1001
ACAD
1000
TREAT_AS_HARD
1070
     0
  0
DICTIONARY
  5
E
102
{ACAD_REACTORS
330
C
102
}
330
C
100
AcDbDictionary
  3
STANDARD
350
13
1001
ACAD
1000
TREAT_AS_HARD
1070
     0
  0
XRECORD
  5
4F4
102
{ACAD_REACTORS
330
4F3
102
}
330
4F3
100
AcDbXrecord
102
UCS
 74
     0
 71
     1
 10
0.0
 20
0.0
 30
0.0
 10
1.0
 20
0.0
 30
0.0
 10
0.0
 20
1.0
 30
0.0
146
0.0
 79
     0
102
VIEW
281
     0
  0
MLINESTYLE
  5
13
102
{ACAD_REACTORS
330
E
102
}
330
E
100
AcDbMlineStyle
  2
STANDARD
 70
     0
  3

 62
     0
 51
90.0
 52
90.0
 71
     2
 49
0.5
 62
   256
  6
BYLAYER
 49
-0.5
 62
   256
  6
BYLAYER
  0
ENDSEC
  0
EOF
