  0
SECTION
  2
HEADER
  9
$ACADVER
  1
AC1009
  9
$DWGCODEPAGE
  3
ansi_1252
  9
$INSBASE
 10
0.0
 20
0.0
 30
0.0
  9
$EXTMIN
 10
-31.056269
 20
-45.083542
 30
0.0
  9
$EXTMAX
 10
31.056269
 20
45.083542
 30
0.0
  9
$LIMMIN
 10
0.0
 20
0.0
  9
$LIMMAX
 10
12.0
 20
9.0
  9
$ORTHOMODE
 70
     0
  9
$REGENMODE
 70
     1
  9
$FILLMODE
 70
     1
  9
$QTEXTMODE
 70
     0
  9
$MIRRTEXT
 70
     1
  9
$DRAGMODE
 70
     2
  9
$LTSCALE
 40
0.327262
  9
$OSMODE
 70
    37
  9
$ATTMODE
 70
     1
  9
$TEXTSIZE
 40
0.2
  9
$TRACEWID
 40
0.05
  9
$TEXTSTYLE
  7
STANDARD
  9
$CLAYER
  8
0
  9
$CELTYPE
  6
BYBLOCK
  9
$CECOLOR
 62
   256
  9
$DIMSCALE
 40
1.0
  9
$DIMASZ
 40
0.18
  9
$DIMEXO
 40
0.0625
  9
$DIMDLI
 40
0.38
  9
$DIMRND
 40
0.0
  9
$DIMDLE
 40
0.0
  9
$DIMEXE
 40
0.18
  9
$DIMTP
 40
0.0
  9
$DIMTM
 40
0.0
  9
$DIMTXT
 40
0.18
  9
$DIMCEN
 40
0.09
  9
$DIMTSZ
 40
0.0
  9
$DIMTOL
 70
     0
  9
$DIMLIM
 70
     0
  9
$DIMTIH
 70
     1
  9
$DIMTOH
 70
     1
  9
$DIMSE1
 70
     0
  9
$DIMSE2
 70
     0
  9
$DIMTAD
 70
     0
  9
$DIMZIN
 70
     0
  9
$DIMBLK
  1

  9
$DIMASO
 70
     1
  9
$DIMSHO
 70
     1
  9
$DIMPOST
  1

  9
$DIMAPOST
  1

  9
$DIMALT
 70
     0
  9
$DIMALTD
 70
     2
  9
$DIMALTF
 40
25.4
  9
$DIMLFAC
 40
1.0
  9
$DIMTOFL
 70
     0
  9
$DIMTVP
 40
0.0
  9
$DIMTIX
 70
     0
  9
$DIMSOXD
 70
     0
  9
$DIMSAH
 70
     0
  9
$DIMBLK1
  1

  9
$DIMBLK2
  1

  9
$DIMSTYLE
  2
STANDARD
  9
$DIMCLRD
 70
     0
  9
$DIMCLRE
 70
     0
  9
$DIMCLRT
 70
     0
  9
$DIMTFAC
 40
1.0
  9
$DIMGAP
 40
0.09
  9
$LUNITS
 70
     2
  9
$LUPREC
 70
     4
  9
$SKETCHINC
 40
0.1
  9
$FILLETRAD
 40
0.5
  9
$AUNITS
 70
     0
  9
$AUPREC
 70
     0
  9
$MENU
  1
.
  9
$ELEVATION
 40
0.0
  9
$PELEVATION
 40
0.0
  9
$THICKNESS
 40
0.0
  9
$LIMCHECK
 70
     0
  9
$CHAMFERA
 40
0.5
  9
$CHAMFERB
 40
0.5
  9
$SKPOLY
 70
     0
  9
$TDCREATE
 40
2453619.496086343
  9
$TDUPDATE
 40
2453619.496086354
  9
$TDINDWG
 40
0.0000000116
  9
$TDUSRTIMER
 40
0.0000000116
  9
$USRTIMER
 70
     1
  9
$ANGBASE
 50
0.0
  9
$ANGDIR
 70
     0
  9
$PDMODE
 70
     0
  9
$PDSIZE
 40
0.0
  9
$PLINEWID
 40
0.0
  9
$COORDS
 70
     1
  9
$SPLFRAME
 70
     0
  9
$SPLINETYPE
 70
     6
  9
$SPLINESEGS
 70
     8
  9
$ATTDIA
 70
     0
  9
$ATTREQ
 70
     1
  9
$HANDLING
 70
     1
  9
$HANDSEED
  5
146
  9
$SURFTAB1
 70
     6
  9
$SURFTAB2
 70
     6
  9
$SURFTYPE
 70
     6
  9
$SURFU
 70
     6
  9
$SURFV
 70
     6
  9
$UCSNAME
  2

  9
$UCSORG
 10
0.0
 20
0.0
 30
0.0
  9
$UCSXDIR
 10
1.0
 20
0.0
 30
0.0
  9
$UCSYDIR
 10
0.0
 20
1.0
 30
0.0
  9
$PUCSNAME
  2

  9
$PUCSORG
 10
0.0
 20
0.0
 30
0.0
  9
$PUCSXDIR
 10
1.0
 20
0.0
 30
0.0
  9
$PUCSYDIR
 10
0.0
 20
1.0
 30
0.0
  9
$USERI1
 70
     0
  9
$USERI2
 70
     0
  9
$USERI3
 70
     0
  9
$USERI4
 70
     0
  9
$USERI5
 70
     0
  9
$USERR1
 40
0.0
  9
$USERR2
 40
0.0
  9
$USERR3
 40
0.0
  9
$USERR4
 40
0.0
  9
$USERR5
 40
0.0
  9
$WORLDVIEW
 70
     1
  9
$SHADEDGE
 70
     3
  9
$SHADEDIF
 70
    70
  9
$TILEMODE
 70
     1
  9
$MAXACTVP
 70
    64
  9
$PLIMCHECK
 70
     0
  9
$PEXTMIN
 10
1.000000000000000E+20
 20
1.000000000000000E+20
 30
1.000000000000000E+20
  9
$PEXTMAX
 10
-1.000000000000000E+20
 20
-1.000000000000000E+20
 30
-1.000000000000000E+20
  9
$PLIMMIN
 10
0.0
 20
0.0
  9
$PLIMMAX
 10
12.0
 20
9.0
  9
$UNITMODE
 70
     0
  9
$VISRETAIN
 70
     1
  9
$PLINEGEN
 70
     0
  9
$PSLTSCALE
 70
     1
  0
ENDSEC
  0
SECTION
  2
TABLES
  0
TABLE
  2
VPORT
 70
     1
  0
VPORT
  2
*ACTIVE
 70
     0
 10
0.0
 20
0.0
 11
1.0
 21
1.0
 12
10.42990654205607
 22
4.5
 13
0.0
 23
0.0
 14
0.5
 24
0.5
 15
0.5
 25
0.5
 16
0.0
 26
0.0
 36
1.0
 17
0.0
 27
0.0
 37
0.0
 40
9.0
 41
1.972972972850329
 42
50.0
 43
0.0
 44
0.0
 50
0.0
 51
0.0
 71
     0
 72
   100
 73
     1
 74
     3
 75
     0
 76
     0
 77
     0
 78
     0
  0
ENDTAB
  0
TABLE
  2
LTYPE
 70
     9
  0
LTYPE
  2
CONTINUOUS
 70
     0
  3
Solid Line
 72
    65
 73
     0
 40
0.0
  0
LTYPE
  2
MCDASH1
 70
     0
  3
MiniCad+ Generated
 72
    65
 73
     4
 40
3.055628
 49
1.527814
 49
-0.763907
 49
0.0
 49
-0.763907
  0
LTYPE
  2
MCDASH2
 70
     0
  3
MiniCad+ Generated
 72
    65
 73
     2
 40
3.527692
 49
2.469229
 49
-1.058463
  0
LTYPE
  2
MCDASH3
 70
     0
  3
MiniCad+ Generated
 72
    65
 73
     2
 40
6.35
 49
5.291537
 49
-1.058463
  0
LTYPE
  2
MCDASH4
 70
     0
  3
MiniCad+ Generated
 72
    65
 73
     2
 40
7.760767
 49
6.702692
 49
-1.058075
  0
LTYPE
  2
MCDASH5
 70
     0
  3
MiniCad+ Generated
 72
    65
 73
     2
 40
1.058075
 49
0.352692
 49
-0.705383
  0
LTYPE
  2
MCDASH6
 70
     0
  3
MiniCad+ Generated
 72
    65
 73
     4
 40
5.291538
 49
3.175
 49
-1.058075
 49
0.352692
 49
-0.705771
  0
LTYPE
  2
MCDASH7
 70
     0
  3
MiniCad+ Generated
 72
    65
 73
     6
 40
9.525001
 49
3.175
 49
-1.058075
 49
3.175
 49
-1.058463
 49
0.352692
 49
-0.705771
  0
LTYPE
  2
MCDASH8
 70
     0
  3
MiniCad+ Generated
 72
    65
 73
     6
 40
6.350001000000001
 49
3.175
 49
-1.058075
 49
0.352692
 49
-0.705771
 49
0.352692
 49
-0.705771
  0
ENDTAB
  0
TABLE
  2
LAYER
 70
     3
  0
LAYER
  2
0
 70
     0
 62
     7
  6
CONTINUOUS
  0
LAYER
  2
AXIS
 70
     0
 62
     1
  6
CONTINUOUS
  0
LAYER
  2
CONNECT
 70
     0
 62
     7
  6
CONTINUOUS
  0
ENDTAB
  0
TABLE
  2
STYLE
 70
     1
  0
STYLE
  2
STANDARD
 70
     0
 40
0.0
 41
1.0
 50
0.0
 71
     0
 42
0.2
  3
txt
  4

  0
ENDTAB
  0
TABLE
  2
VIEW
 70
     0
  0
ENDTAB
  0
TABLE
  2
UCS
 70
     0
  0
ENDTAB
  0
TABLE
  2
APPID
 70
     1
  0
APPID
  2
ACAD
 70
     0
  0
ENDTAB
  0
TABLE
  2
DIMSTYLE
 70
     1
  0
DIMSTYLE
  2
STANDARD
 70
     0
  3

  4

  5

  6

  7

 40
1.0
 41
0.18
 42
0.0625
 43
0.38
 44
0.18
 45
0.0
 46
0.0
 47
0.0
 48
0.0
140
0.18
141
0.09
142
0.0
143
25.4
144
1.0
145
0.0
146
1.0
147
0.09
 71
     0
 72
     0
 73
     1
 74
     1
 75
     0
 76
     0
 77
     0
 78
     0
170
     0
171
     2
172
     0
173
     0
174
     0
175
     0
176
     0
177
     0
178
     0
  0
ENDTAB
  0
ENDSEC
  0
SECTION
  2
BLOCKS
  0
BLOCK
  8
0
  2
$MODEL_SPACE
 70
     0
 10
0.0
 20
0.0
 30
0.0
  3
$MODEL_SPACE
  1

  0
ENDBLK
  5
141
  8
0
  0
BLOCK
 67
     1
  8
0
  2
$PAPER_SPACE
 70
     0
 10
0.0
 20
0.0
 30
0.0
  3
$PAPER_SPACE
  1

  0
ENDBLK
  5
13F
 67
     1
  8
0
  0
BLOCK
  8
0
  2
$ARROW1$
 70
     0
 10
0.0
 20
0.0
 30
0.0
  3
$ARROW1$
  1

  0
SOLID
  5
2F
  8
0
 62
     0
 10
-25.4
 20
4.318
 30
0.0
 11
-25.4
 21
-4.318
 31
0.0
 12
0.0
 22
0.0
 32
0.0
 13
0.0
 23
0.0
 33
0.0
  0
ENDBLK
  5
12F
  8
0
  0
BLOCK
  8
0
  2
$ARROW2$
 70
     0
 10
0.0
 20
0.0
 30
0.0
  3
$ARROW2$
  1

  0
SOLID
  5
33
  8
0
 62
     0
 10
-25.4
 20
12.7
 30
0.0
 11
-25.4
 21
-12.7
 31
0.0
 12
0.0
 22
0.0
 32
0.0
 13
0.0
 23
0.0
 33
0.0
  0
ENDBLK
  5
131
  8
0
  0
BLOCK
  8
0
  2
$ARROW3$
 70
     0
 10
0.0
 20
0.0
 30
0.0
  3
$ARROW3$
  1

  0
POLYLINE
  5
37
  8
0
  6
BYBLOCK
 62
     0
 66
     1
 10
0.0
 20
0.0
 30
0.0
 70
     1
 40
0.5
 41
0.5
  0
VERTEX
  5
FC
  8
0
  6
BYBLOCK
 62
     0
 10
-6.35
 20
0.0
 30
0.0
 42
1.0
  0
VERTEX
  5
FD
  8
0
  6
BYBLOCK
 62
     0
 10
6.35
 20
0.0
 30
0.0
 42
1.0
  0
SEQEND
  5
132
  8
0
  6
BYBLOCK
 62
     0
  0
ENDBLK
  5
134
  8
0
  0
BLOCK
  8
0
  2
$ARROW4$
 70
     0
 10
0.0
 20
0.0
 30
0.0
  3
$ARROW4$
  1

  0
LINE
  5
3E
  8
0
  6
BYBLOCK
 62
     0
 10
12.7
 20
12.7
 30
0.0
 11
-12.7
 21
-12.7
 31
0.0
  0
ENDBLK
  5
136
  8
0
  0
BLOCK
  8
0
  2
$ARROW5$
 70
     0
 10
0.0
 20
0.0
 30
0.0
  3
$ARROW5$
  1

  0
LINE
  5
42
  8
0
  6
BYBLOCK
 62
     0
 10
12.7
 20
12.7
 30
0.0
 11
-12.7
 21
-12.7
 31
0.0
  0
LINE
  5
43
  8
0
  6
BYBLOCK
 62
     0
 10
-12.7
 20
12.7
 30
0.0
 11
12.7
 21
-12.7
 31
0.0
  0
ENDBLK
  5
138
  8
0
  0
ENDSEC
  0
SECTION
  2
ENTITIES
  0
LINE
  5
45
  8
AXIS
 62
     1
 10
-31.056269
 20
0.0
 30
0.0
 11
-1.264053
 21
0.0
 31
0.0
  0
LINE
  5
46
  8
AXIS
 62
     1
 10
20.556268
 20
10.5
 30
0.0
 11
20.556268
 21
-10.5
 31
0.0
  0
LINE
  5
47
  8
AXIS
 62
     1
 10
10.056268
 20
0.0
 30
0.0
 11
31.056268
 21
0.0
 31
0.0
  0
POLYLINE
  5
48
  8
CONNECT
 66
     1
 10
0.0
 20
0.0
 30
0.0
 70
     1
  0
VERTEX
  5
AF
  8
CONNECT
 10
-26.779169
 20
-10.0
 30
0.0
  0
VERTEX
  5
B0
  8
CONNECT
 10
-26.779169
 20
10.0
 30
0.0
  0
VERTEX
  5
B1
  8
CONNECT
 10
-23.779169
 20
10.0
 30
0.0
  0
VERTEX
  5
B2
  8
CONNECT
 10
-23.779169
 20
-10.0
 30
0.0
  0
SEQEND
  5
139
  8
CONNECT
  0
LINE
  5
4E
  8
CONNECT
 10
-26.779169
 20
-7.5
 30
0.0
 11
-26.779169
 21
7.5
 31
0.0
  0
POLYLINE
  5
4F
  8
CONNECT
 66
     1
 10
0.0
 20
0.0
 30
0.0
  0
VERTEX
  5
B4
  8
CONNECT
 10
-23.779169
 20
8.5
 30
0.0
  0
VERTEX
  5
B5
  8
CONNECT
 10
-6.779169
 20
8.5
 30
0.0
  0
VERTEX
  5
B6
  8
CONNECT
 10
-6.779169
 20
-8.5
 30
0.0
  0
VERTEX
  5
B7
  8
CONNECT
 10
-23.779169
 20
-8.5
 30
0.0
  0
SEQEND
  5
13A
  8
CONNECT
  0
POLYLINE
  5
55
  8
CONNECT
 66
     1
 10
0.0
 20
0.0
 30
0.0
 70
     1
  0
VERTEX
  5
B9
  8
CONNECT
 10
-22.279169
 20
2.0
 30
0.0
  0
VERTEX
  5
BA
  8
CONNECT
 10
-22.279169
 20
5.0
 30
0.0
  0
VERTEX
  5
BB
  8
CONNECT
 10
-6.779169
 20
5.0
 30
0.0
  0
VERTEX
  5
BC
  8
CONNECT
 10
-6.779169
 20
2.0
 30
0.0
  0
SEQEND
  5
13B
  8
CONNECT
  0
POLYLINE
  5
5B
  8
CONNECT
 66
     1
 10
0.0
 20
0.0
 30
0.0
 70
     1
  0
VERTEX
  5
BE
  8
CONNECT
 10
-22.279169
 20
-5.0
 30
0.0
  0
VERTEX
  5
BF
  8
CONNECT
 10
-22.279169
 20
-2.0
 30
0.0
  0
VERTEX
  5
C0
  8
CONNECT
 10
-6.779169
 20
-2.0
 30
0.0
  0
VERTEX
  5
C1
  8
CONNECT
 10
-6.779169
 20
-5.0
 30
0.0
  0
SEQEND
  5
13C
  8
CONNECT
  0
POLYLINE
  5
61
  8
CONNECT
 66
     1
 10
0.0
 20
0.0
 30
0.0
 70
     1
  0
VERTEX
  5
C3
  8
CONNECT
 10
10.556268
 20
-9.0
 30
0.0
  0
VERTEX
  5
C4
  8
CONNECT
 10
10.556268
 20
9.0
 30
0.0
  0
VERTEX
  5
C5
  8
CONNECT
 10
10.556268
 20
9.000000999999999
 30
0.0
  0
VERTEX
  5
C6
  8
CONNECT
 10
10.568576
 20
9.156414
 30
0.0
  0
VERTEX
  5
C7
  8
CONNECT
 10
10.605203
 20
9.308992
 30
0.0
  0
VERTEX
  5
C8
  8
CONNECT
 10
10.665254
 20
9.453976000000001
 30
0.0
  0
VERTEX
  5
C9
  8
CONNECT
 10
10.747238
 20
9.587767
 30
0.0
  0
VERTEX
  5
CA
  8
CONNECT
 10
10.849161
 20
9.707107000000001
 30
0.0
  0
VERTEX
  5
CB
  8
CONNECT
 10
10.968464
 20
9.809004
 30
0.0
  0
VERTEX
  5
CC
  8
CONNECT
 10
11.102251
 20
9.890993999999999
 30
0.0
  0
VERTEX
  5
CD
  8
CONNECT
 10
11.247232
 20
9.951051
 30
0.0
  0
VERTEX
  5
CE
  8
CONNECT
 10
11.399809
 20
9.987684
 30
0.0
  0
VERTEX
  5
CF
  8
CONNECT
 10
11.556267
 20
10.0
 30
0.0
  0
VERTEX
  5
D0
  8
CONNECT
 10
11.556268
 20
10.0
 30
0.0
  0
VERTEX
  5
D1
  8
CONNECT
 10
29.556268
 20
10.0
 30
0.0
  0
VERTEX
  5
D2
  8
CONNECT
 10
29.556269
 20
10.0
 30
0.0
  0
VERTEX
  5
D3
  8
CONNECT
 10
29.712697
 20
9.987689
 30
0.0
  0
VERTEX
  5
D4
  8
CONNECT
 10
29.865289
 20
9.951055
 30
0.0
  0
VERTEX
  5
D5
  8
CONNECT
 10
30.010258
 20
9.891007
 30
0.0
  0
VERTEX
  5
D6
  8
CONNECT
 10
30.144048
 20
9.809022000000001
 30
0.0
  0
VERTEX
  5
D7
  8
CONNECT
 10
30.263373
 20
9.707109000000001
 30
0.0
  0
VERTEX
  5
D8
  8
CONNECT
 10
30.263375
 20
9.707107000000001
 30
0.0
  0
VERTEX
  5
D9
  8
CONNECT
 10
30.365281
 20
9.587792
 30
0.0
  0
VERTEX
  5
DA
  8
CONNECT
 10
30.447275
 20
9.453989999999999
 30
0.0
  0
VERTEX
  5
DB
  8
CONNECT
 10
30.507323
 20
9.309021
 30
0.0
  0
VERTEX
  5
DC
  8
CONNECT
 10
30.543955
 20
9.156444000000001
 30
0.0
  0
VERTEX
  5
DD
  8
CONNECT
 10
30.556268
 20
9.000000999999999
 30
0.0
  0
VERTEX
  5
DE
  8
CONNECT
 10
30.556268
 20
9.0
 30
0.0
  0
VERTEX
  5
DF
  8
CONNECT
 10
30.556268
 20
-9.0
 30
0.0
  0
VERTEX
  5
E0
  8
CONNECT
 10
30.556268
 20
-9.000000999999999
 30
0.0
  0
VERTEX
  5
E1
  8
CONNECT
 10
30.543957
 20
-9.156428999999999
 30
0.0
  0
VERTEX
  5
E2
  8
CONNECT
 10
30.507323
 20
-9.309021
 30
0.0
  0
VERTEX
  5
E3
  8
CONNECT
 10
30.447275
 20
-9.453989999999999
 30
0.0
  0
VERTEX
  5
E4
  8
CONNECT
 10
30.36529
 20
-9.58778
 30
0.0
  0
VERTEX
  5
E5
  8
CONNECT
 10
30.263375
 20
-9.707107000000001
 30
0.0
  0
VERTEX
  5
E6
  8
CONNECT
 10
30.14406
 20
-9.809013
 30
0.0
  0
VERTEX
  5
E7
  8
CONNECT
 10
30.010272
 20
-9.891
 30
0.0
  0
VERTEX
  5
E8
  8
CONNECT
 10
29.865289
 20
-9.951055
 30
0.0
  0
VERTEX
  5
E9
  8
CONNECT
 10
29.712712
 20
-9.987686999999999
 30
0.0
  0
VERTEX
  5
EA
  8
CONNECT
 10
29.556284
 20
-10.0
 30
0.0
  0
VERTEX
  5
EB
  8
CONNECT
 10
29.556269
 20
-10.0
 30
0.0
  0
VERTEX
  5
EC
  8
CONNECT
 10
29.556268
 20
-10.0
 30
0.0
  0
VERTEX
  5
ED
  8
CONNECT
 10
11.556268
 20
-10.0
 30
0.0
  0
VERTEX
  5
EE
  8
CONNECT
 10
11.556267
 20
-10.0
 30
0.0
  0
VERTEX
  5
EF
  8
CONNECT
 10
11.399839
 20
-9.987689
 30
0.0
  0
VERTEX
  5
F0
  8
CONNECT
 10
11.247261
 20
-9.95106
 30
0.0
  0
VERTEX
  5
F1
  8
CONNECT
 10
11.102278
 20
-9.891007
 30
0.0
  0
VERTEX
  5
F2
  8
CONNECT
 10
10.968488
 20
-9.809022000000001
 30
0.0
  0
VERTEX
  5
F3
  8
CONNECT
 10
10.849161
 20
-9.707107000000001
 30
0.0
  0
VERTEX
  5
F4
  8
CONNECT
 10
10.747255
 20
-9.587792
 30
0.0
  0
VERTEX
  5
F5
  8
CONNECT
 10
10.665268
 20
-9.454003999999999
 30
0.0
  0
VERTEX
  5
F6
  8
CONNECT
 10
10.605217
 20
-9.309036000000001
 30
0.0
  0
VERTEX
  5
F7
  8
CONNECT
 10
10.568584
 20
-9.156459
 30
0.0
  0
VERTEX
  5
F8
  8
CONNECT
 10
10.556268
 20
-9.000016000000001
 30
0.0
  0
VERTEX
  5
F9
  8
CONNECT
 10
10.556268
 20
-9.000000999999999
 30
0.0
  0
VERTEX
  5
FA
  8
CONNECT
 10
10.556268
 20
-9.0
 30
0.0
  0
SEQEND
  5
13D
  8
CONNECT
  0
ARC
  5
9B
  8
CONNECT
 10
20.556268
 20
0.0
 30
0.0
 40
5.0
 50
180.0
 51
90.0
  0
CIRCLE
  5
9C
  8
CONNECT
 10
20.556268
 20
0.0
 30
0.0
 40
4.5
  0
CIRCLE
  5
9D
  8
CONNECT
 10
20.556268
 20
0.0
 30
0.0
 40
5.5
  0
ENDSEC
  0
EOF
