  0
SECTION
  2
HEADER
  9
$ACADVER
  1
AC1012
  9
$DWGCODEPAGE
  3
ansi_1252
  9
$INSBASE
 10
0.0
 20
0.0
 30
0.0
  9
$EXTMIN
 10
-65.10970399999999
 20
-176.95353
 30
0.0
  9
$EXTMAX
 10
209.122297
 20
52.403664
 30
0.0
  9
$LIMMIN
 10
0.0
 20
0.0
  9
$LIMMAX
 10
297.0
 20
210.0
  9
$ORTHOMODE
 70
     0
  9
$REGENMODE
 70
     1
  9
$FILLMODE
 70
     1
  9
$QTEXTMODE
 70
     0
  9
$MIRRTEXT
 70
     1
  9
$DRAGMODE
 70
     2
  9
$LTSCALE
 40
10.0
  9
$OSMODE
 70
    37
  9
$ATTMODE
 70
     1
  9
$TEXTSIZE
 40
0.2
  9
$TRACEWID
 40
0.05
  9
$TEXTSTYLE
  7
STANDARD
  9
$CLAYER
  8
0
  9
$CELTYPE
  6
BYLAYER
  9
$CECOLOR
 62
   256
  9
$CELTSCALE
 40
1.0
  9
$DELOBJ
 70
     1
  9
$DISPSILH
 70
     0
  9
$DIMSCALE
 40
1.0
  9
$DIMASZ
 40
0.18
  9
$DIMEXO
 40
0.0625
  9
$DIMDLI
 40
0.38
  9
$DIMRND
 40
0.0
  9
$DIMDLE
 40
0.0
  9
$DIMEXE
 40
0.18
  9
$DIMTP
 40
0.0
  9
$DIMTM
 40
0.0
  9
$DIMTXT
 40
0.18
  9
$DIMCEN
 40
0.09
  9
$DIMTSZ
 40
0.0
  9
$DIMTOL
 70
     0
  9
$DIMLIM
 70
     0
  9
$DIMTIH
 70
     1
  9
$DIMTOH
 70
     1
  9
$DIMSE1
 70
     0
  9
$DIMSE2
 70
     0
  9
$DIMTAD
 70
     0
  9
$DIMZIN
 70
     0
  9
$DIMBLK
  1

  9
$DIMASO
 70
     1
  9
$DIMSHO
 70
     0
  9
$DIMPOST
  1

  9
$DIMAPOST
  1

  9
$DIMALT
 70
     0
  9
$DIMALTD
 70
     2
  9
$DIMALTF
 40
25.4
  9
$DIMLFAC
 40
1.0
  9
$DIMTOFL
 70
     0
  9
$DIMTVP
 40
0.0
  9
$DIMTIX
 70
     0
  9
$DIMSOXD
 70
     0
  9
$DIMSAH
 70
     0
  9
$DIMBLK1
  1

  9
$DIMBLK2
  1

  9
$DIMSTYLE
  2
STANDARD
  9
$DIMCLRD
 70
     0
  9
$DIMCLRE
 70
     0
  9
$DIMCLRT
 70
     0
  9
$DIMTFAC
 40
1.0
  9
$DIMGAP
 40
0.09
  9
$DIMJUST
 70
     0
  9
$DIMSD1
 70
     0
  9
$DIMSD2
 70
     0
  9
$DIMTOLJ
 70
     1
  9
$DIMTZIN
 70
     0
  9
$DIMALTZ
 70
     0
  9
$DIMALTTZ
 70
     0
  9
$DIMFIT
 70
     3
  9
$DIMUPT
 70
     0
  9
$DIMUNIT
 70
     2
  9
$DIMDEC
 70
     4
  9
$DIMTDEC
 70
     4
  9
$DIMALTU
 70
     2
  9
$DIMALTTD
 70
     2
  9
$DIMTXSTY
  7
STANDARD
  9
$DIMAUNIT
 70
     0
  9
$LUNITS
 70
     2
  9
$LUPREC
 70
     4
  9
$SKETCHINC
 40
0.1
  9
$FILLETRAD
 40
0.0
  9
$AUNITS
 70
     0
  9
$AUPREC
 70
     0
  9
$MENU
  1
c:\sitoplas\menu\CCing
  9
$ELEVATION
 40
0.0
  9
$PELEVATION
 40
0.0
  9
$THICKNESS
 40
0.0
  9
$LIMCHECK
 70
     0
  9
$CHAMFERA
 40
0.0
  9
$CHAMFERB
 40
0.0
  9
$CHAMFERC
 40
0.0
  9
$CHAMFERD
 40
0.0
  9
$SKPOLY
 70
     0
  9
$TDCREATE
 40
2447893.083333334
  9
$TDUPDATE
 40
2447893.083333334
  9
$TDINDWG
 40
0.0018467593
  9
$TDUSRTIMER
 40
0.0018467593
  9
$USRTIMER
 70
     1
  9
$ANGBASE
 50
0.0
  9
$ANGDIR
 70
     0
  9
$PDMODE
 70
     0
  9
$PDSIZE
 40
0.0
  9
$PLINEWID
 40
0.0
  9
$COORDS
 70
     1
  9
$SPLFRAME
 70
     0
  9
$SPLINETYPE
 70
     6
  9
$SPLINESEGS
 70
     8
  9
$ATTDIA
 70
     0
  9
$ATTREQ
 70
     1
  9
$HANDLING
 70
     1
  9
$HANDSEED
  5
1EA
  9
$SURFTAB1
 70
     6
  9
$SURFTAB2
 70
     6
  9
$SURFTYPE
 70
     6
  9
$SURFU
 70
     6
  9
$SURFV
 70
     6
  9
$UCSNAME
  2

  9
$UCSORG
 10
0.0
 20
0.0
 30
0.0
  9
$UCSXDIR
 10
1.0
 20
0.0
 30
0.0
  9
$UCSYDIR
 10
0.0
 20
1.0
 30
0.0
  9
$PUCSNAME
  2

  9
$PUCSORG
 10
0.0
 20
0.0
 30
0.0
  9
$PUCSXDIR
 10
1.0
 20
0.0
 30
0.0
  9
$PUCSYDIR
 10
0.0
 20
1.0
 30
0.0
  9
$USERI1
 70
     0
  9
$USERI2
 70
     0
  9
$USERI3
 70
     0
  9
$USERI4
 70
     0
  9
$USERI5
 70
     0
  9
$USERR1
 40
0.0
  9
$USERR2
 40
0.0
  9
$USERR3
 40
0.0
  9
$USERR4
 40
0.0
  9
$USERR5
 40
0.0
  9
$WORLDVIEW
 70
     1
  9
$SHADEDGE
 70
     3
  9
$SHADEDIF
 70
    70
  9
$TILEMODE
 70
     1
  9
$MAXACTVP
 70
    16
  9
$PINSBASE
 10
0.0
 20
0.0
 30
0.0
  9
$PLIMCHECK
 70
     0
  9
$PEXTMIN
 10
1.000000000000000E+20
 20
1.000000000000000E+20
 30
1.000000000000000E+20
  9
$PEXTMAX
 10
-1.000000000000000E+20
 20
-1.000000000000000E+20
 30
-1.000000000000000E+20
  9
$PLIMMIN
 10
0.0
 20
0.0
  9
$PLIMMAX
 10
12.0
 20
9.0
  9
$UNITMODE
 70
     0
  9
$VISRETAIN
 70
     0
  9
$PLINEGEN
 70
     0
  9
$PSLTSCALE
 70
     0
  9
$TREEDEPTH
 70
  3020
  9
$PICKSTYLE
 70
     1
  9
$CMLSTYLE
  2
STANDARD
  9
$CMLJUST
 70
     0
  9
$CMLSCALE
 40
1.0
  9
$SAVEIMAGES
 70
     1
  0
ENDSEC
  0
SECTION
  2
CLASSES
  0
CLASS
  1
XRECORD
  2
AcDbXrecord
  3
AutoCAD 2000
 90
    32768
280
     0
281
     0
  0
CLASS
  1
LWPOLYLINE
  2
AcDbPolyline
  3
AutoCAD 2000
 90
    32768
280
     0
281
     1
  0
CLASS
  1
HATCH
  2
AcDbHatch
  3
AutoCAD 2000
 90
    32768
280
     0
281
     1
  0
CLASS
  1
ACDBPLACEHOLDER
  2
AcDbPlaceHolder
  3
ObjectDBX Classes
 90
        0
280
     0
281
     0
  0
CLASS
  1
LAYOUT
  2
AcDbLayout
  3
ObjectDBX Classes
 90
        0
280
     0
281
     0
  0
ENDSEC
  0
SECTION
  2
TABLES
  0
TABLE
  2
VPORT
  5
8
330
0
100
AcDbSymbolTable
 70
     1
  0
VPORT
  5
169
102
{ACAD_XDICTIONARY
360
1E8
102
}
330
8
100
AcDbSymbolTableRecord
100
AcDbViewportTableRecord
  2
*ACTIVE
 70
     0
 10
0.0
 20
0.0
 11
1.0
 21
1.0
 12
191.444202
 22
-74.14192199999999
 13
0.0
 23
0.0
 14
0.5
 24
0.5
 15
0.0
 25
0.0
 16
0.0
 26
0.0
 36
1.0
 17
0.0
 27
0.0
 37
0.0
 40
267.891849
 41
1.915354
 42
50.0
 43
0.0
 44
0.0
 50
0.0
 51
0.0
 71
     0
 72
   100
 73
     1
 74
     1
 75
     1
 76
     0
 77
     0
 78
     0
  0
ENDTAB
  0
TABLE
  2
LTYPE
  5
5
330
0
100
AcDbSymbolTable
 70
     3
  0
LTYPE
  5
12
330
5
100
AcDbSymbolTableRecord
100
AcDbLinetypeTableRecord
  2
BYBLOCK
 70
     0
  3

 72
    65
 73
     0
 40
0.0
  0
LTYPE
  5
13
330
5
100
AcDbSymbolTableRecord
100
AcDbLinetypeTableRecord
  2
BYLAYER
 70
     0
  3

 72
    65
 73
     0
 40
0.0
  0
LTYPE
  5
14
330
5
100
AcDbSymbolTableRecord
100
AcDbLinetypeTableRecord
  2
CONTINUOUS
 70
     0
  3
Solid line
 72
    65
 73
     0
 40
0.0
  0
LTYPE
  5
35
330
5
100
AcDbSymbolTableRecord
100
AcDbLinetypeTableRecord
  2
DASHDOT
 70
     0
  3
__ . __ . __ . __ . __ . __ . __ . __ . __ . __
 72
    65
 73
     4
 40
1.0
 49
0.5
 74
     0
 49
-0.25
 74
     0
 49
0.0
 74
     0
 49
-0.25
 74
     0
  0
LTYPE
  5
36
330
5
100
AcDbSymbolTableRecord
100
AcDbLinetypeTableRecord
  2
DASHED
 70
     0
  3
__ __ __ __ __ __ __ __ __ __ __ __ __ __ __ __
 72
    65
 73
     2
 40
0.75
 49
0.5
 74
     0
 49
-0.25
 74
     0
  0
ENDTAB
  0
TABLE
  2
LAYER
  5
2
330
0
100
AcDbSymbolTable
 70
     2
  0
LAYER
  5
F
330
2
100
AcDbSymbolTableRecord
100
AcDbLayerTableRecord
  2
0
 70
     0
 62
     7
  6
CONTINUOUS
  0
LAYER
  5
37
330
2
100
AcDbSymbolTableRecord
100
AcDbLayerTableRecord
  2
AXIS
 70
     0
 62
     1
  6
DASHDOT
  0
ENDTAB
  0
TABLE
  2
STYLE
  5
3
330
0
100
AcDbSymbolTable
 70
     1
  0
STYLE
  5
10
330
3
100
AcDbSymbolTableRecord
100
AcDbTextStyleTableRecord
  2
STANDARD
 70
     0
 40
0.0
 41
1.0
 50
0.0
 71
     0
 42
0.2
  3
txt
  4

  0
ENDTAB
  0
TABLE
  2
VIEW
  5
6
330
0
100
AcDbSymbolTable
 70
     0
  0
ENDTAB
  0
TABLE
  2
UCS
  5
7
330
0
100
AcDbSymbolTable
 70
     0
  0
ENDTAB
  0
TABLE
  2
APPID
  5
9
330
0
100
AcDbSymbolTable
 70
     1
  0
APPID
  5
11
330
9
100
AcDbSymbolTableRecord
100
AcDbRegAppTableRecord
  2
ACAD
 70
     0
  0
ENDTAB
  0
TABLE
  2
DIMSTYLE
  5
A
330
0
100
AcDbSymbolTable
 70
     1
  0
DIMSTYLE
105
2D
330
A
100
AcDbSymbolTableRecord
100
AcDbDimStyleTableRecord
  2
STANDARD
 70
     0
  3

  4

  5

  6

  7

 40
1.0
 41
0.18
 42
0.0625
 43
0.38
 44
0.18
 45
0.0
 46
0.0
 47
0.0
 48
0.0
140
0.18
141
0.09
142
0.0
143
25.4
144
1.0
145
0.0
146
1.0
147
0.09
 71
     0
 72
     0
 73
     1
 74
     1
 75
     0
 76
     0
 77
     0
 78
     0
170
     0
171
     2
172
     0
173
     0
174
     0
175
     0
176
     0
177
     0
178
     0
270
     2
271
     4
272
     4
273
     2
274
     2
340
10
275
     0
280
     0
281
     0
282
     0
283
     1
284
     0
285
     0
286
     0
287
     3
288
     0
  0
ENDTAB
  0
TABLE
  2
BLOCK_RECORD
  5
1
330
0
100
AcDbSymbolTable
 70
     0
  0
BLOCK_RECORD
  5
18
330
1
100
AcDbSymbolTableRecord
100
AcDbBlockTableRecord
  2
*MODEL_SPACE
  0
BLOCK_RECORD
  5
15
330
1
100
AcDbSymbolTableRecord
100
AcDbBlockTableRecord
  2
*PAPER_SPACE
  0
ENDTAB
  0
ENDSEC
  0
SECTION
  2
BLOCKS
  0
BLOCK
  5
24
330
18
100
AcDbEntity
  8
0
100
AcDbBlockBegin
  2
*MODEL_SPACE
 70
     0
 71
     0
 10
0.0
 20
0.0
 30
0.0
  3
*MODEL_SPACE
  1

  0
ENDBLK
  5
25
330
18
100
AcDbEntity
  8
0
100
AcDbBlockEnd
  0
BLOCK
  5
22
330
15
100
AcDbEntity
 67
     1
  8
0
100
AcDbBlockBegin
  2
*PAPER_SPACE
 70
     0
 71
     0
 10
0.0
 20
0.0
 30
0.0
  3
*PAPER_SPACE
  1

  0
ENDBLK
  5
23
330
15
100
AcDbEntity
 67
     1
  8
0
100
AcDbBlockEnd
  0
ENDSEC
  0
SECTION
  2
ENTITIES
  0
LINE
  5
D8
330
18
100
AcDbEntity
  8
0
100
AcDbLine
 10
-55.0
 20
-44.0
 30
0.0
 11
-55.0
 21
44.0
 31
0.0
  0
LINE
  5
D9
330
18
100
AcDbEntity
  8
0
100
AcDbLine
 10
-51.0
 20
48.0
 30
0.0
 11
92.0
 21
48.0
 31
0.0
  0
LINE
  5
DA
330
18
100
AcDbEntity
  8
0
100
AcDbLine
 10
96.0
 20
44.0
 30
0.0
 11
96.0
 21
-44.0
 31
0.0
  0
ARC
  5
DB
330
18
100
AcDbEntity
  8
0
100
AcDbCircle
 10
92.0
 20
44.0
 30
0.0
 40
4.0
100
AcDbArc
 50
0.0
 51
90.0
  0
ARC
  5
DC
330
18
100
AcDbEntity
  8
0
100
AcDbCircle
 10
92.0
 20
-44.0
 30
0.0
 40
4.0
100
AcDbArc
 50
270.0
 51
0.0
  0
ARC
  5
DD
330
18
100
AcDbEntity
  8
0
100
AcDbCircle
 10
-51.0
 20
-44.0
 30
0.0
 40
4.0
100
AcDbArc
 50
180.0
 51
270.0
  0
ARC
  5
DE
330
18
100
AcDbEntity
  8
0
100
AcDbCircle
 10
-51.0
 20
44.0
 30
0.0
 40
4.0
100
AcDbArc
 50
90.0
 51
180.0
  0
POLYLINE
  5
DF
330
18
100
AcDbEntity
  8
0
100
AcDb2dPolyline
 66
     1
 10
0.0
 20
0.0
 30
0.0
 70
     1
  0
VERTEX
  5
1BF
330
DF
100
AcDbEntity
  8
0
100
AcDbVertex
100
AcDb2dVertex
 10
-49.886751
 20
-35.0
 30
0.0
  0
VERTEX
  5
1C0
330
DF
100
AcDbEntity
  8
0
100
AcDbVertex
100
AcDb2dVertex
 10
-52.773503
 20
-40.0
 30
0.0
  0
VERTEX
  5
1C1
330
DF
100
AcDbEntity
  8
0
100
AcDbVertex
100
AcDb2dVertex
 10
-49.886751
 20
-45.0
 30
0.0
  0
VERTEX
  5
1C2
330
DF
100
AcDbEntity
  8
0
100
AcDbVertex
100
AcDb2dVertex
 10
-44.113249
 20
-45.0
 30
0.0
  0
VERTEX
  5
1C3
330
DF
100
AcDbEntity
  8
0
100
AcDbVertex
100
AcDb2dVertex
 10
-41.226497
 20
-40.0
 30
0.0
  0
VERTEX
  5
1C4
330
DF
100
AcDbEntity
  8
0
100
AcDbVertex
100
AcDb2dVertex
 10
-44.113249
 20
-35.0
 30
0.0
  0
SEQEND
  5
1BE
330
DF
100
AcDbEntity
  8
0
  0
CIRCLE
  5
E7
330
18
100
AcDbEntity
  8
0
100
AcDbCircle
 10
-47.0
 20
-40.0
 30
0.0
 40
4.0
  0
LINE
  5
E8
330
18
100
AcDbEntity
  8
AXIS
100
AcDbLine
 10
-65.10970399999999
 20
0.0
 30
0.0
 11
104.733323
 21
0.0
 31
0.0
  0
CIRCLE
  5
E9
330
18
100
AcDbEntity
  8
0
100
AcDbCircle
 10
-47.0
 20
40.0
 30
0.0
 40
4.0
  0
POLYLINE
  5
EA
330
18
100
AcDbEntity
  8
0
100
AcDb2dPolyline
 66
     1
 10
0.0
 20
0.0
 30
0.0
 70
     1
  0
VERTEX
  5
1C6
330
EA
100
AcDbEntity
  8
0
100
AcDbVertex
100
AcDb2dVertex
 10
-49.886751
 20
35.0
 30
0.0
  0
VERTEX
  5
1C7
330
EA
100
AcDbEntity
  8
0
100
AcDbVertex
100
AcDb2dVertex
 10
-52.773503
 20
40.0
 30
0.0
  0
VERTEX
  5
1C8
330
EA
100
AcDbEntity
  8
0
100
AcDbVertex
100
AcDb2dVertex
 10
-49.886751
 20
45.0
 30
0.0
  0
VERTEX
  5
1C9
330
EA
100
AcDbEntity
  8
0
100
AcDbVertex
100
AcDb2dVertex
 10
-44.113249
 20
45.0
 30
0.0
  0
VERTEX
  5
1CA
330
EA
100
AcDbEntity
  8
0
100
AcDbVertex
100
AcDb2dVertex
 10
-41.226497
 20
40.0
 30
0.0
  0
VERTEX
  5
1CB
330
EA
100
AcDbEntity
  8
0
100
AcDbVertex
100
AcDb2dVertex
 10
-44.113249
 20
35.0
 30
0.0
  0
SEQEND
  5
1C5
330
EA
100
AcDbEntity
  8
0
  0
LINE
  5
F2
330
18
100
AcDbEntity
  8
0
100
AcDbLine
 10
-54.0
 20
-40.0
 30
0.0
 11
-39.58479
 21
-40.0
 31
0.0
  0
LINE
  5
F3
330
18
100
AcDbEntity
  8
0
100
AcDbLine
 10
-47.0
 20
-47.0
 30
0.0
 11
-47.0
 21
-33.362127
 31
0.0
  0
LINE
  5
F4
330
18
100
AcDbEntity
  8
0
100
AcDbLine
 10
-54.0
 20
40.0
 30
0.0
 11
-39.58479
 21
40.0
 31
0.0
  0
LINE
  5
F5
330
18
100
AcDbEntity
  8
0
100
AcDbLine
 10
-47.0
 20
47.0
 30
0.0
 11
-47.0
 21
33.362127
 31
0.0
  0
LINE
  5
F6
330
18
100
AcDbEntity
  8
0
100
AcDbLine
 10
-54.0
 20
-40.0
 30
0.0
 11
-39.58479
 21
-40.0
 31
0.0
  0
LINE
  5
F7
330
18
100
AcDbEntity
  8
0
100
AcDbLine
 10
-47.0
 20
-47.0
 30
0.0
 11
-47.0
 21
-33.362127
 31
0.0
  0
LINE
  5
F8
330
18
100
AcDbEntity
  8
0
100
AcDbLine
 10
-54.0
 20
40.0
 30
0.0
 11
-39.58479
 21
40.0
 31
0.0
  0
LINE
  5
F9
330
18
100
AcDbEntity
  8
0
100
AcDbLine
 10
-47.0
 20
47.0
 30
0.0
 11
-47.0
 21
33.362127
 31
0.0
  0
LINE
  5
FA
330
18
100
AcDbEntity
  8
0
100
AcDbLine
 10
-54.0
 20
-40.0
 30
0.0
 11
-39.58479
 21
-40.0
 31
0.0
  0
LINE
  5
FB
330
18
100
AcDbEntity
  8
0
100
AcDbLine
 10
-47.0
 20
-47.0
 30
0.0
 11
-47.0
 21
-33.362127
 31
0.0
  0
LINE
  5
FC
330
18
100
AcDbEntity
  8
0
100
AcDbLine
 10
-47.0
 20
47.0
 30
0.0
 11
-47.0
 21
33.362127
 31
0.0
  0
LINE
  5
FD
330
18
100
AcDbEntity
  8
0
100
AcDbLine
 10
-54.0
 20
40.0
 30
0.0
 11
-39.58479
 21
40.0
 31
0.0
  0
LINE
  5
FE
330
18
100
AcDbEntity
  8
0
100
AcDbLine
 10
88.0
 20
47.0
 30
0.0
 11
88.0
 21
33.362127
 31
0.0
  0
POLYLINE
  5
FF
330
18
100
AcDbEntity
  8
0
100
AcDb2dPolyline
 66
     1
 10
0.0
 20
0.0
 30
0.0
 70
     1
  0
VERTEX
  5
1CD
330
FF
100
AcDbEntity
  8
0
100
AcDbVertex
100
AcDb2dVertex
 10
90.886751
 20
35.0
 30
0.0
  0
VERTEX
  5
1CE
330
FF
100
AcDbEntity
  8
0
100
AcDbVertex
100
AcDb2dVertex
 10
93.77350300000001
 20
40.0
 30
0.0
  0
VERTEX
  5
1CF
330
FF
100
AcDbEntity
  8
0
100
AcDbVertex
100
AcDb2dVertex
 10
90.886751
 20
45.0
 30
0.0
  0
VERTEX
  5
1D0
330
FF
100
AcDbEntity
  8
0
100
AcDbVertex
100
AcDb2dVertex
 10
85.113249
 20
45.0
 30
0.0
  0
VERTEX
  5
1D1
330
FF
100
AcDbEntity
  8
0
100
AcDbVertex
100
AcDb2dVertex
 10
82.226497
 20
40.0
 30
0.0
  0
VERTEX
  5
1D2
330
FF
100
AcDbEntity
  8
0
100
AcDbVertex
100
AcDb2dVertex
 10
85.113249
 20
35.0
 30
0.0
  0
SEQEND
  5
1CC
330
FF
100
AcDbEntity
  8
0
  0
CIRCLE
  5
107
330
18
100
AcDbEntity
  8
0
100
AcDbCircle
 10
88.0
 20
40.0
 30
0.0
 40
4.0
  0
LINE
  5
108
330
18
100
AcDbEntity
  8
0
100
AcDbLine
 10
88.0
 20
47.0
 30
0.0
 11
88.0
 21
33.362127
 31
0.0
  0
LINE
  5
109
330
18
100
AcDbEntity
  8
0
100
AcDbLine
 10
88.0
 20
47.0
 30
0.0
 11
88.0
 21
33.362127
 31
0.0
  0
LINE
  5
10A
330
18
100
AcDbEntity
  8
0
100
AcDbLine
 10
88.0
 20
47.0
 30
0.0
 11
88.0
 21
33.362127
 31
0.0
  0
LINE
  5
10B
330
18
100
AcDbEntity
  8
0
100
AcDbLine
 10
95.0
 20
40.0
 30
0.0
 11
80.58479
 21
40.0
 31
0.0
  0
LINE
  5
10C
330
18
100
AcDbEntity
  8
0
100
AcDbLine
 10
95.0
 20
-40.0
 30
0.0
 11
80.58479
 21
-40.0
 31
0.0
  0
LINE
  5
10D
330
18
100
AcDbEntity
  8
0
100
AcDbLine
 10
95.0
 20
-40.0
 30
0.0
 11
80.58479
 21
-40.0
 31
0.0
  0
LINE
  5
10E
330
18
100
AcDbEntity
  8
0
100
AcDbLine
 10
95.0
 20
-40.0
 30
0.0
 11
80.58479
 21
-40.0
 31
0.0
  0
CIRCLE
  5
10F
330
18
100
AcDbEntity
  8
0
100
AcDbCircle
 10
88.0
 20
-40.0
 30
0.0
 40
4.0
  0
POLYLINE
  5
110
330
18
100
AcDbEntity
  8
0
100
AcDb2dPolyline
 66
     1
 10
0.0
 20
0.0
 30
0.0
 70
     1
  0
VERTEX
  5
1D4
330
110
100
AcDbEntity
  8
0
100
AcDbVertex
100
AcDb2dVertex
 10
90.886751
 20
-35.0
 30
0.0
  0
VERTEX
  5
1D5
330
110
100
AcDbEntity
  8
0
100
AcDbVertex
100
AcDb2dVertex
 10
93.77350300000001
 20
-40.0
 30
0.0
  0
VERTEX
  5
1D6
330
110
100
AcDbEntity
  8
0
100
AcDbVertex
100
AcDb2dVertex
 10
90.886751
 20
-45.0
 30
0.0
  0
VERTEX
  5
1D7
330
110
100
AcDbEntity
  8
0
100
AcDbVertex
100
AcDb2dVertex
 10
85.113249
 20
-45.0
 30
0.0
  0
VERTEX
  5
1D8
330
110
100
AcDbEntity
  8
0
100
AcDbVertex
100
AcDb2dVertex
 10
82.226497
 20
-40.0
 30
0.0
  0
VERTEX
  5
1D9
330
110
100
AcDbEntity
  8
0
100
AcDbVertex
100
AcDb2dVertex
 10
85.113249
 20
-35.0
 30
0.0
  0
SEQEND
  5
1D3
330
110
100
AcDbEntity
  8
0
  0
LINE
  5
118
330
18
100
AcDbEntity
  8
0
100
AcDbLine
 10
88.0
 20
-47.0
 30
0.0
 11
88.0
 21
-33.362127
 31
0.0
  0
LINE
  5
119
330
18
100
AcDbEntity
  8
0
100
AcDbLine
 10
88.0
 20
-47.0
 30
0.0
 11
88.0
 21
-33.362127
 31
0.0
  0
LINE
  5
11A
330
18
100
AcDbEntity
  8
0
100
AcDbLine
 10
88.0
 20
-47.0
 30
0.0
 11
88.0
 21
-33.362127
 31
0.0
  0
LINE
  5
11B
330
18
100
AcDbEntity
  8
0
100
AcDbLine
 10
47.0
 20
47.0
 30
0.0
 11
47.0
 21
33.362127
 31
0.0
  0
LINE
  5
11C
330
18
100
AcDbEntity
  8
0
100
AcDbLine
 10
47.0
 20
47.0
 30
0.0
 11
47.0
 21
33.362127
 31
0.0
  0
LINE
  5
11D
330
18
100
AcDbEntity
  8
0
100
AcDbLine
 10
47.0
 20
47.0
 30
0.0
 11
47.0
 21
33.362127
 31
0.0
  0
POLYLINE
  5
11E
330
18
100
AcDbEntity
  8
0
100
AcDb2dPolyline
 66
     1
 10
0.0
 20
0.0
 30
0.0
 70
     1
  0
VERTEX
  5
1DB
330
11E
100
AcDbEntity
  8
0
100
AcDbVertex
100
AcDb2dVertex
 10
49.886751
 20
35.0
 30
0.0
  0
VERTEX
  5
1DC
330
11E
100
AcDbEntity
  8
0
100
AcDbVertex
100
AcDb2dVertex
 10
52.773503
 20
40.0
 30
0.0
  0
VERTEX
  5
1DD
330
11E
100
AcDbEntity
  8
0
100
AcDbVertex
100
AcDb2dVertex
 10
49.886751
 20
45.0
 30
0.0
  0
VERTEX
  5
1DE
330
11E
100
AcDbEntity
  8
0
100
AcDbVertex
100
AcDb2dVertex
 10
44.113249
 20
45.0
 30
0.0
  0
VERTEX
  5
1DF
330
11E
100
AcDbEntity
  8
0
100
AcDbVertex
100
AcDb2dVertex
 10
41.226497
 20
40.0
 30
0.0
  0
VERTEX
  5
1E0
330
11E
100
AcDbEntity
  8
0
100
AcDbVertex
100
AcDb2dVertex
 10
44.113249
 20
35.0
 30
0.0
  0
SEQEND
  5
1DA
330
11E
100
AcDbEntity
  8
0
  0
LINE
  5
126
330
18
100
AcDbEntity
  8
0
100
AcDbLine
 10
54.0
 20
40.0
 30
0.0
 11
39.58479
 21
40.0
 31
0.0
  0
LINE
  5
127
330
18
100
AcDbEntity
  8
0
100
AcDbLine
 10
54.0
 20
40.0
 30
0.0
 11
39.58479
 21
40.0
 31
0.0
  0
LINE
  5
128
330
18
100
AcDbEntity
  8
0
100
AcDbLine
 10
54.0
 20
40.0
 30
0.0
 11
39.58479
 21
40.0
 31
0.0
  0
CIRCLE
  5
129
330
18
100
AcDbEntity
  8
0
100
AcDbCircle
 10
47.0
 20
40.0
 30
0.0
 40
4.0
  0
LINE
  5
12A
330
18
100
AcDbEntity
  8
0
100
AcDbLine
 10
47.0
 20
-47.0
 30
0.0
 11
47.0
 21
-33.362127
 31
0.0
  0
LINE
  5
12B
330
18
100
AcDbEntity
  8
0
100
AcDbLine
 10
47.0
 20
-47.0
 30
0.0
 11
47.0
 21
-33.362127
 31
0.0
  0
LINE
  5
12C
330
18
100
AcDbEntity
  8
0
100
AcDbLine
 10
47.0
 20
-47.0
 30
0.0
 11
47.0
 21
-33.362127
 31
0.0
  0
LINE
  5
12D
330
18
100
AcDbEntity
  8
0
100
AcDbLine
 10
54.0
 20
-40.0
 30
0.0
 11
39.58479
 21
-40.0
 31
0.0
  0
LINE
  5
12E
330
18
100
AcDbEntity
  8
0
100
AcDbLine
 10
54.0
 20
-40.0
 30
0.0
 11
39.58479
 21
-40.0
 31
0.0
  0
LINE
  5
12F
330
18
100
AcDbEntity
  8
0
100
AcDbLine
 10
54.0
 20
-40.0
 30
0.0
 11
39.58479
 21
-40.0
 31
0.0
  0
POLYLINE
  5
130
330
18
100
AcDbEntity
  8
0
100
AcDb2dPolyline
 66
     1
 10
0.0
 20
0.0
 30
0.0
 70
     1
  0
VERTEX
  5
1E2
330
130
100
AcDbEntity
  8
0
100
AcDbVertex
100
AcDb2dVertex
 10
49.886751
 20
-35.0
 30
0.0
  0
VERTEX
  5
1E3
330
130
100
AcDbEntity
  8
0
100
AcDbVertex
100
AcDb2dVertex
 10
52.773503
 20
-40.0
 30
0.0
  0
VERTEX
  5
1E4
330
130
100
AcDbEntity
  8
0
100
AcDbVertex
100
AcDb2dVertex
 10
49.886751
 20
-45.0
 30
0.0
  0
VERTEX
  5
1E5
330
130
100
AcDbEntity
  8
0
100
AcDbVertex
100
AcDb2dVertex
 10
44.113249
 20
-45.0
 30
0.0
  0
VERTEX
  5
1E6
330
130
100
AcDbEntity
  8
0
100
AcDbVertex
100
AcDb2dVertex
 10
41.226497
 20
-40.0
 30
0.0
  0
VERTEX
  5
1E7
330
130
100
AcDbEntity
  8
0
100
AcDbVertex
100
AcDb2dVertex
 10
44.113249
 20
-35.0
 30
0.0
  0
SEQEND
  5
1E1
330
130
100
AcDbEntity
  8
0
  0
CIRCLE
  5
138
330
18
100
AcDbEntity
  8
0
100
AcDbCircle
 10
47.0
 20
-40.0
 30
0.0
 40
4.0
  0
LINE
  5
139
330
18
100
AcDbEntity
  8
0
100
AcDbLine
 10
30.0
 20
-48.0
 30
0.0
 11
30.0
 21
48.0
 31
0.0
  0
LINE
  5
13A
330
18
100
AcDbEntity
  8
0
100
AcDbLine
 10
-30.0
 20
-48.0
 30
0.0
 11
-30.0
 21
48.0
 31
0.0
  0
LINE
  5
13B
330
18
100
AcDbEntity
  8
AXIS
100
AcDbLine
 10
0.0
 20
-52.888571
 30
0.0
 11
0.0
 21
50.509922
 31
0.0
  0
LINE
  5
13C
330
18
100
AcDbEntity
  8
0
  6
DASHED
 48
10.0
100
AcDbLine
 10
36.0
 20
19.0
 30
0.0
 11
36.0
 21
-19.0
 31
0.0
  0
LINE
  5
13D
330
18
100
AcDbEntity
  8
0
100
AcDbLine
 10
92.0
 20
-48.0
 30
0.0
 11
-51.0
 21
-48.0
 31
0.0
  0
LINE
  5
13E
330
18
100
AcDbEntity
  8
0
  6
DASHED
100
AcDbLine
 10
-19.0
 20
-48.0
 30
0.0
 11
-19.0
 21
48.0
 31
0.0
  0
LINE
  5
13F
330
18
100
AcDbEntity
  8
0
  6
DASHED
100
AcDbLine
 10
19.0
 20
-48.0
 30
0.0
 11
19.0
 21
48.0
 31
0.0
  0
LINE
  5
140
330
18
100
AcDbEntity
  8
0
  6
DASHED
100
AcDbLine
 10
36.0
 20
-19.0
 30
0.0
 11
96.0
 21
-19.0
 31
0.0
  0
LINE
  5
141
330
18
100
AcDbEntity
  8
0
  6
DASHED
100
AcDbLine
 10
36.0
 20
19.0
 30
0.0
 11
96.0
 21
19.0
 31
0.0
  0
LINE
  5
142
330
18
100
AcDbEntity
  8
AXIS
100
AcDbLine
 10
0.0
 20
-176.95353
 30
0.0
 11
0.0
 21
-85.527984
 31
0.0
  0
LINE
  5
143
330
18
100
AcDbEntity
  8
0
100
AcDbLine
 10
-55.0
 20
-99.0
 30
0.0
 11
-55.0
 21
-161.0
 31
0.0
  0
LINE
  5
144
330
18
100
AcDbEntity
  8
0
100
AcDbLine
 10
-51.0
 20
-95.0
 30
0.0
 11
92.0
 21
-95.0
 31
0.0
  0
LINE
  5
145
330
18
100
AcDbEntity
  8
0
100
AcDbLine
 10
-51.0
 20
-165.0
 30
0.0
 11
92.0
 21
-165.0
 31
0.0
  0
LINE
  5
146
330
18
100
AcDbEntity
  8
0
100
AcDbLine
 10
96.0
 20
-99.0
 30
0.0
 11
96.0
 21
-161.0
 31
0.0
  0
ARC
  5
147
330
18
100
AcDbEntity
  8
0
100
AcDbCircle
 10
92.0
 20
-99.0
 30
0.0
 40
4.0
100
AcDbArc
 50
0.0
 51
90.0
  0
ARC
  5
148
330
18
100
AcDbEntity
  8
0
100
AcDbCircle
 10
92.0
 20
-161.0
 30
0.0
 40
4.0
100
AcDbArc
 50
270.0
 51
0.0
  0
ARC
  5
149
330
18
100
AcDbEntity
  8
0
100
AcDbCircle
 10
-51.0
 20
-161.0
 30
0.0
 40
4.0
100
AcDbArc
 50
180.0
 51
270.0
  0
ARC
  5
14A
330
18
100
AcDbEntity
  8
0
100
AcDbCircle
 10
-51.0
 20
-99.0
 30
0.0
 40
4.0
100
AcDbArc
 50
90.0
 51
180.0
  0
LINE
  5
14B
330
18
100
AcDbEntity
  8
0
100
AcDbLine
 10
-55.0
 20
-129.0
 30
0.0
 11
-19.0
 21
-129.0
 31
0.0
  0
LINE
  5
14C
330
18
100
AcDbEntity
  8
0
100
AcDbLine
 10
-55.0
 20
-131.0
 30
0.0
 11
-19.0
 21
-131.0
 31
0.0
  0
LINE
  5
14D
330
18
100
AcDbEntity
  8
0
100
AcDbLine
 10
19.0
 20
-149.0
 30
0.0
 11
19.0
 21
-111.0
 31
0.0
  0
LINE
  5
14E
330
18
100
AcDbEntity
  8
0
100
AcDbLine
 10
-19.0
 20
-149.0
 30
0.0
 11
-19.0
 21
-111.0
 31
0.0
  0
LINE
  5
14F
330
18
100
AcDbEntity
  8
AXIS
100
AcDbLine
 10
-65.03903099999999
 20
-130.0
 30
0.0
 11
104.799582
 21
-130.0
 31
0.0
  0
LINE
  5
150
330
18
100
AcDbEntity
  8
0
100
AcDbLine
 10
-19.0
 20
-111.0
 30
0.0
 11
19.0
 21
-111.0
 31
0.0
  0
LINE
  5
151
330
18
100
AcDbEntity
  8
0
100
AcDbLine
 10
-19.0
 20
-149.0
 30
0.0
 11
19.0
 21
-149.0
 31
0.0
  0
LINE
  5
152
330
18
100
AcDbEntity
  8
0
  6
DASHED
 48
10.0
100
AcDbLine
 10
36.0
 20
-111.0
 30
0.0
 11
36.0
 21
-149.0
 31
0.0
  0
LINE
  5
153
330
18
100
AcDbEntity
  8
0
  6
DASHED
 48
10.0
100
AcDbLine
 10
36.0
 20
-111.0
 30
0.0
 11
96.0
 21
-111.0
 31
0.0
  0
LINE
  5
154
330
18
100
AcDbEntity
  8
0
  6
DASHED
 48
10.0
100
AcDbLine
 10
36.0
 20
-149.0
 30
0.0
 11
96.0
 21
-149.0
 31
0.0
  0
LINE
  5
155
330
18
100
AcDbEntity
  8
0
100
AcDbLine
 10
19.0
 20
-131.0
 30
0.0
 11
96.0
 21
-131.0
 31
0.0
  0
LINE
  5
156
330
18
100
AcDbEntity
  8
0
100
AcDbLine
 10
19.0
 20
-129.0
 30
0.0
 11
96.0
 21
-129.0
 31
0.0
  0
LINE
  5
157
330
18
100
AcDbEntity
  8
0
100
AcDbLine
 10
201.0
 20
-48.0
 30
0.0
 11
139.0
 21
-48.0
 31
0.0
  0
LINE
  5
158
330
18
100
AcDbEntity
  8
0
100
AcDbLine
 10
205.0
 20
44.0
 30
0.0
 11
205.0
 21
-44.0
 31
0.0
  0
LINE
  5
159
330
18
100
AcDbEntity
  8
0
100
AcDbLine
 10
135.0
 20
44.0
 30
0.0
 11
135.0
 21
-44.0
 31
0.0
  0
LINE
  5
15A
330
18
100
AcDbEntity
  8
0
100
AcDbLine
 10
139.0
 20
48.0
 30
0.0
 11
201.0
 21
48.0
 31
0.0
  0
ARC
  5
15B
330
18
100
AcDbEntity
  8
0
100
AcDbCircle
 10
139.0
 20
44.0
 30
0.0
 40
4.0
100
AcDbArc
 50
90.0
 51
180.0
  0
ARC
  5
15C
330
18
100
AcDbEntity
  8
0
100
AcDbCircle
 10
201.0
 20
44.0
 30
0.0
 40
4.0
100
AcDbArc
 50
0.0
 51
90.0
  0
ARC
  5
15D
330
18
100
AcDbEntity
  8
0
100
AcDbCircle
 10
201.0
 20
-44.0
 30
0.0
 40
4.0
100
AcDbArc
 50
270.0
 51
0.0
  0
ARC
  5
15E
330
18
100
AcDbEntity
  8
0
100
AcDbCircle
 10
139.0
 20
-44.0
 30
0.0
 40
4.0
100
AcDbArc
 50
180.0
 51
270.0
  0
LINE
  5
15F
330
18
100
AcDbEntity
  8
AXIS
100
AcDbLine
 10
170.0
 20
52.403664
 30
0.0
 11
170.0
 21
-52.612166
 31
0.0
  0
LINE
  5
160
330
18
100
AcDbEntity
  8
AXIS
100
AcDbLine
 10
129.974205
 20
0.0
 30
0.0
 11
209.122297
 21
0.0
 31
0.0
  0
ARC
  5
161
330
18
100
AcDbEntity
  8
0
100
AcDbCircle
 10
202.6
 20
0.0
 30
0.0
 40
67.59999999999999
100
AcDbArc
 50
134.76027
 51
225.23973
  0
ARC
  5
162
330
18
100
AcDbEntity
  8
0
100
AcDbCircle
 10
137.4
 20
0.0
 30
0.0
 40
67.59999999999999
100
AcDbArc
 50
314.76027
 51
45.23973
  0
LINE
  5
163
330
18
100
AcDbEntity
  8
0
100
AcDbLine
 10
169.0
 20
48.0
 30
0.0
 11
169.0
 21
-48.0
 31
0.0
  0
LINE
  5
164
330
18
100
AcDbEntity
  8
0
100
AcDbLine
 10
171.0
 20
48.0
 30
0.0
 11
171.0
 21
-48.0
 31
0.0
  0
LINE
  5
165
330
18
100
AcDbEntity
  8
0
  6
DASHED
100
AcDbLine
 10
151.0
 20
48.0
 30
0.0
 11
151.0
 21
-48.0
 31
0.0
  0
LINE
  5
166
330
18
100
AcDbEntity
  8
0
  6
DASHED
100
AcDbLine
 10
189.0
 20
48.0
 30
0.0
 11
189.0
 21
-48.0
 31
0.0
  0
LINE
  5
167
330
18
100
AcDbEntity
  8
0
  6
DASHED
100
AcDbLine
 10
151.0
 20
19.0
 30
0.0
 11
189.0
 21
19.0
 31
0.0
  0
LINE
  5
168
330
18
100
AcDbEntity
  8
0
  6
DASHED
100
AcDbLine
 10
151.0
 20
-19.0
 30
0.0
 11
189.0
 21
-19.0
 31
0.0
  0
ENDSEC
  0
SECTION
  2
OBJECTS
  0
DICTIONARY
  5
C
330
0
100
AcDbDictionary
  3
ACAD_GROUP
350
D
  3
ACAD_LAYOUT
350
16A
  3
ACAD_MLINESTYLE
350
E
1001
ACAD
1000
TREAT_AS_HARD
1070
     0
  0
DICTIONARY
  5
1E8
330
169
100
AcDbDictionary
  3
ACAD_XREC_ROUNDTRIP
360
1E9
  0
DICTIONARY
  5
D
102
{ACAD_REACTORS
330
C
102
}
330
C
100
AcDbDictionary
1001
ACAD
1000
TREAT_AS_HARD
1070
     0
  0
DICTIONARY
  5
16A
102
{ACAD_REACTORS
330
C
102
}
330
C
100
AcDbDictionary
1001
ACAD
1000
TREAT_AS_HARD
1070
     0
  0
DICTIONARY
  5
E
102
{ACAD_REACTORS
330
C
102
}
330
C
100
AcDbDictionary
  3
STANDARD
350
1B
1001
ACAD
1000
TREAT_AS_HARD
1070
     0
  0
XRECORD
  5
1E9
102
{ACAD_REACTORS
330
1E8
102
}
330
1E8
100
AcDbXrecord
102
UCS
 74
     0
 71
     1
 10
0.0
 20
0.0
 30
0.0
 10
1.0
 20
0.0
 30
0.0
 10
0.0
 20
1.0
 30
0.0
146
0.0
 79
     0
102
VIEW
281
     0
  0
MLINESTYLE
  5
1B
102
{ACAD_REACTORS
330
E
102
}
330
E
100
AcDbMlineStyle
  2
STANDARD
 70
     0
  3

 62
     0
 51
90.0
 52
90.0
 71
     2
 49
0.5
 62
   256
  6
BYLAYER
 49
-0.5
 62
   256
  6
BYLAYER
  0
ENDSEC
  0
EOF
