  0
SECTION
  2
HEADER
  9
$ACADVER
  1
AC1012
  9
$DWGCODEPAGE
  3
ansi_1252
  9
$INSBASE
 10
0.0
 20
0.0
 30
0.0
  9
$EXTMIN
 10
-3.0
 20
-98.3
 30
0.0
  9
$EXTMAX
 10
244.3
 20
99.0
 30
0.0
  9
$LIMMIN
 10
0.0
 20
0.0
  9
$LIMMAX
 10
297.0
 20
210.0
  9
$ORTHOMODE
 70
     1
  9
$REGENMODE
 70
     1
  9
$FILLMODE
 70
     1
  9
$QTEXTMODE
 70
     0
  9
$MIRRTEXT
 70
     1
  9
$DRAGMODE
 70
     2
  9
$LTSCALE
 40
10.0
  9
$OSMODE
 70
    37
  9
$ATTMODE
 70
     1
  9
$TEXTSIZE
 40
0.2
  9
$TRACEWID
 40
0.05
  9
$TEXTSTYLE
  7
STANDARD
  9
$CLAYER
  8
AXIS
  9
$CELTYPE
  6
BYLAYER
  9
$CECOLOR
 62
   256
  9
$CELTSCALE
 40
1.0
  9
$DELOBJ
 70
     1
  9
$DISPSILH
 70
     0
  9
$DIMSCALE
 40
1.0
  9
$DIMASZ
 40
0.18
  9
$DIMEXO
 40
0.0625
  9
$DIMDLI
 40
0.38
  9
$DIMRND
 40
0.0
  9
$DIMDLE
 40
0.0
  9
$DIMEXE
 40
0.18
  9
$DIMTP
 40
0.0
  9
$DIMTM
 40
0.0
  9
$DIMTXT
 40
0.18
  9
$DIMCEN
 40
0.09
  9
$DIMTSZ
 40
0.0
  9
$DIMTOL
 70
     0
  9
$DIMLIM
 70
     0
  9
$DIMTIH
 70
     1
  9
$DIMTOH
 70
     1
  9
$DIMSE1
 70
     0
  9
$DIMSE2
 70
     0
  9
$DIMTAD
 70
     0
  9
$DIMZIN
 70
     0
  9
$DIMBLK
  1

  9
$DIMASO
 70
     1
  9
$DIMSHO
 70
     0
  9
$DIMPOST
  1

  9
$DIMAPOST
  1

  9
$DIMALT
 70
     0
  9
$DIMALTD
 70
     2
  9
$DIMALTF
 40
25.4
  9
$DIMLFAC
 40
1.0
  9
$DIMTOFL
 70
     0
  9
$DIMTVP
 40
0.0
  9
$DIMTIX
 70
     0
  9
$DIMSOXD
 70
     0
  9
$DIMSAH
 70
     0
  9
$DIMBLK1
  1

  9
$DIMBLK2
  1

  9
$DIMSTYLE
  2
STANDARD
  9
$DIMCLRD
 70
     0
  9
$DIMCLRE
 70
     0
  9
$DIMCLRT
 70
     0
  9
$DIMTFAC
 40
1.0
  9
$DIMGAP
 40
0.09
  9
$DIMJUST
 70
     0
  9
$DIMSD1
 70
     0
  9
$DIMSD2
 70
     0
  9
$DIMTOLJ
 70
     1
  9
$DIMTZIN
 70
     0
  9
$DIMALTZ
 70
     0
  9
$DIMALTTZ
 70
     0
  9
$DIMFIT
 70
     3
  9
$DIMUPT
 70
     0
  9
$DIMUNIT
 70
     2
  9
$DIMDEC
 70
     4
  9
$DIMTDEC
 70
     4
  9
$DIMALTU
 70
     2
  9
$DIMALTTD
 70
     2
  9
$DIMTXSTY
  7
STANDARD
  9
$DIMAUNIT
 70
     0
  9
$LUNITS
 70
     2
  9
$LUPREC
 70
     4
  9
$SKETCHINC
 40
0.1
  9
$FILLETRAD
 40
4.0
  9
$AUNITS
 70
     0
  9
$AUPREC
 70
     0
  9
$MENU
  1
c:\sitoplas\menu\CCing
  9
$ELEVATION
 40
0.0
  9
$PELEVATION
 40
0.0
  9
$THICKNESS
 40
0.0
  9
$LIMCHECK
 70
     0
  9
$CHAMFERA
 40
0.0
  9
$CHAMFERB
 40
0.0
  9
$CHAMFERC
 40
0.0
  9
$CHAMFERD
 40
0.0
  9
$SKPOLY
 70
     0
  9
$TDCREATE
 40
2447893.083333334
  9
$TDUPDATE
 40
2447893.083333334
  9
$TDINDWG
 40
0.0636689815
  9
$TDUSRTIMER
 40
0.0636689815
  9
$USRTIMER
 70
     1
  9
$ANGBASE
 50
0.0
  9
$ANGDIR
 70
     0
  9
$PDMODE
 70
     0
  9
$PDSIZE
 40
0.0
  9
$PLINEWID
 40
0.0
  9
$COORDS
 70
     1
  9
$SPLFRAME
 70
     0
  9
$SPLINETYPE
 70
     6
  9
$SPLINESEGS
 70
     8
  9
$ATTDIA
 70
     0
  9
$ATTREQ
 70
     1
  9
$HANDLING
 70
     1
  9
$HANDSEED
  5
1BC
  9
$SURFTAB1
 70
     6
  9
$SURFTAB2
 70
     6
  9
$SURFTYPE
 70
     6
  9
$SURFU
 70
     6
  9
$SURFV
 70
     6
  9
$UCSNAME
  2

  9
$UCSORG
 10
0.0
 20
0.0
 30
0.0
  9
$UCSXDIR
 10
1.0
 20
0.0
 30
0.0
  9
$UCSYDIR
 10
0.0
 20
1.0
 30
0.0
  9
$PUCSNAME
  2

  9
$PUCSORG
 10
0.0
 20
0.0
 30
0.0
  9
$PUCSXDIR
 10
1.0
 20
0.0
 30
0.0
  9
$PUCSYDIR
 10
0.0
 20
1.0
 30
0.0
  9
$USERI1
 70
     0
  9
$USERI2
 70
     0
  9
$USERI3
 70
     0
  9
$USERI4
 70
     0
  9
$USERI5
 70
     0
  9
$USERR1
 40
0.0
  9
$USERR2
 40
0.0
  9
$USERR3
 40
0.0
  9
$USERR4
 40
0.0
  9
$USERR5
 40
0.0
  9
$WORLDVIEW
 70
     1
  9
$SHADEDGE
 70
     3
  9
$SHADEDIF
 70
    70
  9
$TILEMODE
 70
     1
  9
$MAXACTVP
 70
    16
  9
$PINSBASE
 10
0.0
 20
0.0
 30
0.0
  9
$PLIMCHECK
 70
     0
  9
$PEXTMIN
 10
1.000000000000000E+20
 20
1.000000000000000E+20
 30
1.000000000000000E+20
  9
$PEXTMAX
 10
-1.000000000000000E+20
 20
-1.000000000000000E+20
 30
-1.000000000000000E+20
  9
$PLIMMIN
 10
0.0
 20
0.0
  9
$PLIMMAX
 10
12.0
 20
9.0
  9
$UNITMODE
 70
     0
  9
$VISRETAIN
 70
     0
  9
$PLINEGEN
 70
     0
  9
$PSLTSCALE
 70
     0
  9
$TREEDEPTH
 70
  3020
  9
$PICKSTYLE
 70
     1
  9
$CMLSTYLE
  2
STANDARD
  9
$CMLJUST
 70
     0
  9
$CMLSCALE
 40
1.0
  9
$SAVEIMAGES
 70
     1
  0
ENDSEC
  0
SECTION
  2
CLASSES
  0
CLASS
  1
XRECORD
  2
AcDbXrecord
  3
AutoCAD 2000
 90
    32768
280
     0
281
     0
  0
CLASS
  1
LWPOLYLINE
  2
AcDbPolyline
  3
AutoCAD 2000
 90
    32768
280
     0
281
     1
  0
CLASS
  1
HATCH
  2
AcDbHatch
  3
AutoCAD 2000
 90
    32768
280
     0
281
     1
  0
CLASS
  1
ACDBPLACEHOLDER
  2
AcDbPlaceHolder
  3
ObjectDBX Classes
 90
        0
280
     0
281
     0
  0
CLASS
  1
LAYOUT
  2
AcDbLayout
  3
ObjectDBX Classes
 90
        0
280
     0
281
     0
  0
ENDSEC
  0
SECTION
  2
TABLES
  0
TABLE
  2
VPORT
  5
8
330
0
100
AcDbSymbolTable
 70
     1
  0
VPORT
  5
13B
102
{ACAD_XDICTIONARY
360
1BA
102
}
330
8
100
AcDbSymbolTableRecord
100
AcDbViewportTableRecord
  2
*ACTIVE
 70
     0
 10
0.0
 20
0.0
 11
1.0
 21
1.0
 12
186.122158
 22
-1.750874
 13
0.0
 23
0.0
 14
0.5
 24
0.5
 15
0.0
 25
0.0
 16
0.0
 26
0.0
 36
1.0
 17
0.0
 27
0.0
 37
0.0
 40
209.571317
 41
1.915354
 42
50.0
 43
0.0
 44
0.0
 50
0.0
 51
0.0
 71
     0
 72
   100
 73
     1
 74
     1
 75
     0
 76
     0
 77
     0
 78
     0
  0
ENDTAB
  0
TABLE
  2
LTYPE
  5
5
330
0
100
AcDbSymbolTable
 70
     3
  0
LTYPE
  5
12
330
5
100
AcDbSymbolTableRecord
100
AcDbLinetypeTableRecord
  2
BYBLOCK
 70
     0
  3

 72
    65
 73
     0
 40
0.0
  0
LTYPE
  5
13
330
5
100
AcDbSymbolTableRecord
100
AcDbLinetypeTableRecord
  2
BYLAYER
 70
     0
  3

 72
    65
 73
     0
 40
0.0
  0
LTYPE
  5
14
330
5
100
AcDbSymbolTableRecord
100
AcDbLinetypeTableRecord
  2
CONTINUOUS
 70
     0
  3
Solid line
 72
    65
 73
     0
 40
0.0
  0
LTYPE
  5
B2
330
5
100
AcDbSymbolTableRecord
100
AcDbLinetypeTableRecord
  2
DASHDOT
 70
     0
  3
__ . __ . __ . __ . __ . __ . __ . __ . __ . __
 72
    65
 73
     4
 40
1.0
 49
0.5
 74
     0
 49
-0.25
 74
     0
 49
0.0
 74
     0
 49
-0.25
 74
     0
  0
LTYPE
  5
BC
330
5
100
AcDbSymbolTableRecord
100
AcDbLinetypeTableRecord
  2
DASHED
 70
     0
  3
__ __ __ __ __ __ __ __ __ __ __ __ __ __ __ __
 72
    65
 73
     2
 40
0.75
 49
0.5
 74
     0
 49
-0.25
 74
     0
  0
ENDTAB
  0
TABLE
  2
LAYER
  5
2
330
0
100
AcDbSymbolTable
 70
     3
  0
LAYER
  5
F
330
2
100
AcDbSymbolTableRecord
100
AcDbLayerTableRecord
  2
0
 70
     0
 62
     7
  6
CONTINUOUS
  0
LAYER
  5
B1
330
2
100
AcDbSymbolTableRecord
100
AcDbLayerTableRecord
  2
AXIS
 70
     0
 62
     1
  6
DASHDOT
  0
LAYER
  5
13A
330
2
100
AcDbSymbolTableRecord
100
AcDbLayerTableRecord
  2
SUPPORT
 70
     0
 62
     3
  6
CONTINUOUS
  0
ENDTAB
  0
TABLE
  2
STYLE
  5
3
330
0
100
AcDbSymbolTable
 70
     1
  0
STYLE
  5
10
330
3
100
AcDbSymbolTableRecord
100
AcDbTextStyleTableRecord
  2
STANDARD
 70
     0
 40
0.0
 41
1.0
 50
0.0
 71
     0
 42
0.2
  3
txt
  4

  0
ENDTAB
  0
TABLE
  2
VIEW
  5
6
330
0
100
AcDbSymbolTable
 70
     0
  0
ENDTAB
  0
TABLE
  2
UCS
  5
7
330
0
100
AcDbSymbolTable
 70
     0
  0
ENDTAB
  0
TABLE
  2
APPID
  5
9
330
0
100
AcDbSymbolTable
 70
     1
  0
APPID
  5
11
330
9
100
AcDbSymbolTableRecord
100
AcDbRegAppTableRecord
  2
ACAD
 70
     0
  0
ENDTAB
  0
TABLE
  2
DIMSTYLE
  5
A
330
0
100
AcDbSymbolTable
 70
     1
  0
DIMSTYLE
105
2D
330
A
100
AcDbSymbolTableRecord
100
AcDbDimStyleTableRecord
  2
STANDARD
 70
     0
  3

  4

  5

  6

  7

 40
1.0
 41
0.18
 42
0.0625
 43
0.38
 44
0.18
 45
0.0
 46
0.0
 47
0.0
 48
0.0
140
0.18
141
0.09
142
0.0
143
25.4
144
1.0
145
0.0
146
1.0
147
0.09
 71
     0
 72
     0
 73
     1
 74
     1
 75
     0
 76
     0
 77
     0
 78
     0
170
     0
171
     2
172
     0
173
     0
174
     0
175
     0
176
     0
177
     0
178
     0
270
     2
271
     4
272
     4
273
     2
274
     2
340
10
275
     0
280
     0
281
     0
282
     0
283
     1
284
     0
285
     0
286
     0
287
     3
288
     0
  0
ENDTAB
  0
TABLE
  2
BLOCK_RECORD
  5
1
330
0
100
AcDbSymbolTable
 70
     0
  0
BLOCK_RECORD
  5
18
330
1
100
AcDbSymbolTableRecord
100
AcDbBlockTableRecord
  2
*MODEL_SPACE
  0
BLOCK_RECORD
  5
15
330
1
100
AcDbSymbolTableRecord
100
AcDbBlockTableRecord
  2
*PAPER_SPACE
  0
ENDTAB
  0
ENDSEC
  0
SECTION
  2
BLOCKS
  0
BLOCK
  5
24
330
18
100
AcDbEntity
  8
0
100
AcDbBlockBegin
  2
*MODEL_SPACE
 70
     0
 71
     0
 10
0.0
 20
0.0
 30
0.0
  3
*MODEL_SPACE
  1

  0
ENDBLK
  5
25
330
18
100
AcDbEntity
  8
0
100
AcDbBlockEnd
  0
BLOCK
  5
22
330
15
100
AcDbEntity
 67
     1
  8
0
100
AcDbBlockBegin
  2
*PAPER_SPACE
 70
     0
 71
     0
 10
0.0
 20
0.0
 30
0.0
  3
*PAPER_SPACE
  1

  0
ENDBLK
  5
23
330
15
100
AcDbEntity
 67
     1
  8
0
100
AcDbBlockEnd
  0
ENDSEC
  0
SECTION
  2
ENTITIES
  0
LINE
  5
38
330
18
100
AcDbEntity
  8
SUPPORT
100
AcDbLine
 10
0.0
 20
4.0
 30
0.0
 11
0.0
 21
92.0
 31
0.0
  0
LINE
  5
39
330
18
100
AcDbEntity
  8
SUPPORT
100
AcDbLine
 10
4.0
 20
96.0
 30
0.0
 11
142.0
 21
96.0
 31
0.0
  0
LINE
  5
3A
330
18
100
AcDbEntity
  8
SUPPORT
100
AcDbLine
 10
146.0
 20
92.0
 30
0.0
 11
146.0
 21
4.0
 31
0.0
  0
LINE
  5
3B
330
18
100
AcDbEntity
  8
SUPPORT
100
AcDbLine
 10
142.0
 20
0.0
 30
0.0
 11
4.0
 21
0.0
 31
0.0
  0
ARC
  5
3C
330
18
100
AcDbEntity
  8
SUPPORT
100
AcDbCircle
 10
142.0
 20
92.0
 30
0.0
 40
4.0
100
AcDbArc
 50
0.0
 51
90.0
  0
ARC
  5
3D
330
18
100
AcDbEntity
  8
SUPPORT
100
AcDbCircle
 10
142.0
 20
4.0
 30
0.0
 40
4.0
100
AcDbArc
 50
270.0
 51
0.0
  0
ARC
  5
3E
330
18
100
AcDbEntity
  8
SUPPORT
100
AcDbCircle
 10
4.0
 20
4.0
 30
0.0
 40
4.0
100
AcDbArc
 50
180.0
 51
270.0
  0
ARC
  5
3F
330
18
100
AcDbEntity
  8
SUPPORT
100
AcDbCircle
 10
4.0
 20
92.0
 30
0.0
 40
4.0
100
AcDbArc
 50
90.0
 51
180.0
  0
POLYLINE
  5
48
330
18
100
AcDbEntity
  8
SUPPORT
100
AcDb2dPolyline
 66
     1
 10
0.0
 20
0.0
 30
0.0
 70
     1
  0
VERTEX
  5
191
330
48
100
AcDbEntity
  8
SUPPORT
100
AcDbVertex
100
AcDb2dVertex
 10
5.113249
 20
13.0
 30
0.0
  0
VERTEX
  5
192
330
48
100
AcDbEntity
  8
SUPPORT
100
AcDbVertex
100
AcDb2dVertex
 10
2.226497
 20
8.0
 30
0.0
  0
VERTEX
  5
193
330
48
100
AcDbEntity
  8
SUPPORT
100
AcDbVertex
100
AcDb2dVertex
 10
5.113249
 20
3.0
 30
0.0
  0
VERTEX
  5
194
330
48
100
AcDbEntity
  8
SUPPORT
100
AcDbVertex
100
AcDb2dVertex
 10
10.886751
 20
3.0
 30
0.0
  0
VERTEX
  5
195
330
48
100
AcDbEntity
  8
SUPPORT
100
AcDbVertex
100
AcDb2dVertex
 10
13.773503
 20
8.0
 30
0.0
  0
VERTEX
  5
196
330
48
100
AcDbEntity
  8
SUPPORT
100
AcDbVertex
100
AcDb2dVertex
 10
10.886751
 20
13.0
 30
0.0
  0
SEQEND
  5
190
330
48
100
AcDbEntity
  8
SUPPORT
  0
LINE
  5
50
330
18
100
AcDbEntity
  8
SUPPORT
100
AcDbLine
 10
1.0
 20
8.0
 30
0.0
 11
14.0
 21
8.0
 31
0.0
  0
LINE
  5
51
330
18
100
AcDbEntity
  8
SUPPORT
100
AcDbLine
 10
8.0
 20
14.0
 30
0.0
 11
8.0
 21
1.0
 31
0.0
  0
CIRCLE
  5
52
330
18
100
AcDbEntity
  8
SUPPORT
100
AcDbCircle
 10
8.0
 20
8.0
 30
0.0
 40
4.0
  0
LINE
  5
53
330
18
100
AcDbEntity
  8
AXIS
  6
DASHDOT
100
AcDbLine
 10
-2.0
 20
48.0
 30
0.0
 11
149.0
 21
48.0
 31
0.0
  0
CIRCLE
  5
56
330
18
100
AcDbEntity
  8
SUPPORT
100
AcDbCircle
 10
8.0
 20
88.0
 30
0.0
 40
4.0
  0
LINE
  5
57
330
18
100
AcDbEntity
  8
SUPPORT
100
AcDbLine
 10
1.0
 20
88.0
 30
0.0
 11
14.0
 21
88.0
 31
0.0
  0
POLYLINE
  5
58
330
18
100
AcDbEntity
  8
SUPPORT
100
AcDb2dPolyline
 66
     1
 10
0.0
 20
0.0
 30
0.0
 70
     1
  0
VERTEX
  5
198
330
58
100
AcDbEntity
  8
SUPPORT
100
AcDbVertex
100
AcDb2dVertex
 10
5.113249
 20
83.0
 30
0.0
  0
VERTEX
  5
199
330
58
100
AcDbEntity
  8
SUPPORT
100
AcDbVertex
100
AcDb2dVertex
 10
2.226497
 20
88.0
 30
0.0
  0
VERTEX
  5
19A
330
58
100
AcDbEntity
  8
SUPPORT
100
AcDbVertex
100
AcDb2dVertex
 10
5.113249
 20
93.0
 30
0.0
  0
VERTEX
  5
19B
330
58
100
AcDbEntity
  8
SUPPORT
100
AcDbVertex
100
AcDb2dVertex
 10
10.886751
 20
93.0
 30
0.0
  0
VERTEX
  5
19C
330
58
100
AcDbEntity
  8
SUPPORT
100
AcDbVertex
100
AcDb2dVertex
 10
13.773503
 20
88.0
 30
0.0
  0
VERTEX
  5
19D
330
58
100
AcDbEntity
  8
SUPPORT
100
AcDbVertex
100
AcDb2dVertex
 10
10.886751
 20
83.0
 30
0.0
  0
SEQEND
  5
197
330
58
100
AcDbEntity
  8
SUPPORT
  0
LINE
  5
60
330
18
100
AcDbEntity
  8
SUPPORT
100
AcDbLine
 10
8.0
 20
82.0
 30
0.0
 11
8.0
 21
95.0
 31
0.0
  0
POLYLINE
  5
61
330
18
100
AcDbEntity
  8
SUPPORT
100
AcDb2dPolyline
 66
     1
 10
0.0
 20
0.0
 30
0.0
 70
     1
  0
VERTEX
  5
19F
330
61
100
AcDbEntity
  8
SUPPORT
100
AcDbVertex
100
AcDb2dVertex
 10
140.886751
 20
83.0
 30
0.0
  0
VERTEX
  5
1A0
330
61
100
AcDbEntity
  8
SUPPORT
100
AcDbVertex
100
AcDb2dVertex
 10
143.773503
 20
88.0
 30
0.0
  0
VERTEX
  5
1A1
330
61
100
AcDbEntity
  8
SUPPORT
100
AcDbVertex
100
AcDb2dVertex
 10
140.886751
 20
93.0
 30
0.0
  0
VERTEX
  5
1A2
330
61
100
AcDbEntity
  8
SUPPORT
100
AcDbVertex
100
AcDb2dVertex
 10
135.113249
 20
93.0
 30
0.0
  0
VERTEX
  5
1A3
330
61
100
AcDbEntity
  8
SUPPORT
100
AcDbVertex
100
AcDb2dVertex
 10
132.226497
 20
88.0
 30
0.0
  0
VERTEX
  5
1A4
330
61
100
AcDbEntity
  8
SUPPORT
100
AcDbVertex
100
AcDb2dVertex
 10
135.113249
 20
83.0
 30
0.0
  0
SEQEND
  5
19E
330
61
100
AcDbEntity
  8
SUPPORT
  0
LINE
  5
69
330
18
100
AcDbEntity
  8
SUPPORT
100
AcDbLine
 10
145.0
 20
88.0
 30
0.0
 11
132.0
 21
88.0
 31
0.0
  0
CIRCLE
  5
6A
330
18
100
AcDbEntity
  8
SUPPORT
100
AcDbCircle
 10
138.0
 20
88.0
 30
0.0
 40
4.0
  0
LINE
  5
6B
330
18
100
AcDbEntity
  8
SUPPORT
100
AcDbLine
 10
138.0
 20
82.0
 30
0.0
 11
138.0
 21
95.0
 31
0.0
  0
CIRCLE
  5
6C
330
18
100
AcDbEntity
  8
SUPPORT
100
AcDbCircle
 10
138.0
 20
8.0
 30
0.0
 40
4.0
  0
LINE
  5
6D
330
18
100
AcDbEntity
  8
SUPPORT
100
AcDbLine
 10
145.0
 20
8.0
 30
0.0
 11
132.0
 21
8.0
 31
0.0
  0
POLYLINE
  5
6E
330
18
100
AcDbEntity
  8
SUPPORT
100
AcDb2dPolyline
 66
     1
 10
0.0
 20
0.0
 30
0.0
 70
     1
  0
VERTEX
  5
1A6
330
6E
100
AcDbEntity
  8
SUPPORT
100
AcDbVertex
100
AcDb2dVertex
 10
140.886751
 20
13.0
 30
0.0
  0
VERTEX
  5
1A7
330
6E
100
AcDbEntity
  8
SUPPORT
100
AcDbVertex
100
AcDb2dVertex
 10
143.773503
 20
8.0
 30
0.0
  0
VERTEX
  5
1A8
330
6E
100
AcDbEntity
  8
SUPPORT
100
AcDbVertex
100
AcDb2dVertex
 10
140.886751
 20
3.0
 30
0.0
  0
VERTEX
  5
1A9
330
6E
100
AcDbEntity
  8
SUPPORT
100
AcDbVertex
100
AcDb2dVertex
 10
135.113249
 20
3.0
 30
0.0
  0
VERTEX
  5
1AA
330
6E
100
AcDbEntity
  8
SUPPORT
100
AcDbVertex
100
AcDb2dVertex
 10
132.226497
 20
8.0
 30
0.0
  0
VERTEX
  5
1AB
330
6E
100
AcDbEntity
  8
SUPPORT
100
AcDbVertex
100
AcDb2dVertex
 10
135.113249
 20
13.0
 30
0.0
  0
SEQEND
  5
1A5
330
6E
100
AcDbEntity
  8
SUPPORT
  0
LINE
  5
76
330
18
100
AcDbEntity
  8
SUPPORT
100
AcDbLine
 10
138.0
 20
14.0
 30
0.0
 11
138.0
 21
1.0
 31
0.0
  0
LINE
  5
77
330
18
100
AcDbEntity
  8
AXIS
  6
DASHDOT
100
AcDbLine
 10
51.0
 20
-98.3
 30
0.0
 11
51.0
 21
-12.0
 31
0.0
  0
LINE
  5
86
330
18
100
AcDbEntity
  8
SUPPORT
100
AcDbLine
 10
9.886799999999999
 20
0.0
 30
0.0
 11
9.886799999999999
 21
3.0
 31
0.0
  0
LINE
  5
88
330
18
100
AcDbEntity
  8
SUPPORT
100
AcDbLine
 10
93.0
 20
82.0
 30
0.0
 11
93.0
 21
95.0
 31
0.0
  0
CIRCLE
  5
89
330
18
100
AcDbEntity
  8
SUPPORT
100
AcDbCircle
 10
93.0
 20
88.0
 30
0.0
 40
4.0
  0
POLYLINE
  5
8A
330
18
100
AcDbEntity
  8
SUPPORT
100
AcDb2dPolyline
 66
     1
 10
0.0
 20
0.0
 30
0.0
 70
     1
  0
VERTEX
  5
1AD
330
8A
100
AcDbEntity
  8
SUPPORT
100
AcDbVertex
100
AcDb2dVertex
 10
90.113249
 20
83.0
 30
0.0
  0
VERTEX
  5
1AE
330
8A
100
AcDbEntity
  8
SUPPORT
100
AcDbVertex
100
AcDb2dVertex
 10
87.226497
 20
88.0
 30
0.0
  0
VERTEX
  5
1AF
330
8A
100
AcDbEntity
  8
SUPPORT
100
AcDbVertex
100
AcDb2dVertex
 10
90.113249
 20
93.0
 30
0.0
  0
VERTEX
  5
1B0
330
8A
100
AcDbEntity
  8
SUPPORT
100
AcDbVertex
100
AcDb2dVertex
 10
95.886751
 20
93.0
 30
0.0
  0
VERTEX
  5
1B1
330
8A
100
AcDbEntity
  8
SUPPORT
100
AcDbVertex
100
AcDb2dVertex
 10
98.77350300000001
 20
88.0
 30
0.0
  0
VERTEX
  5
1B2
330
8A
100
AcDbEntity
  8
SUPPORT
100
AcDbVertex
100
AcDb2dVertex
 10
95.886751
 20
83.0
 30
0.0
  0
SEQEND
  5
1AC
330
8A
100
AcDbEntity
  8
SUPPORT
  0
LINE
  5
92
330
18
100
AcDbEntity
  8
SUPPORT
100
AcDbLine
 10
86.0
 20
88.0
 30
0.0
 11
99.0
 21
88.0
 31
0.0
  0
LINE
  5
93
330
18
100
AcDbEntity
  8
SUPPORT
100
AcDbLine
 10
93.0
 20
14.0
 30
0.0
 11
93.0
 21
1.0
 31
0.0
  0
POLYLINE
  5
94
330
18
100
AcDbEntity
  8
SUPPORT
100
AcDb2dPolyline
 66
     1
 10
0.0
 20
0.0
 30
0.0
 70
     1
  0
VERTEX
  5
1B4
330
94
100
AcDbEntity
  8
SUPPORT
100
AcDbVertex
100
AcDb2dVertex
 10
90.113249
 20
13.0
 30
0.0
  0
VERTEX
  5
1B5
330
94
100
AcDbEntity
  8
SUPPORT
100
AcDbVertex
100
AcDb2dVertex
 10
87.226497
 20
8.0
 30
0.0
  0
VERTEX
  5
1B6
330
94
100
AcDbEntity
  8
SUPPORT
100
AcDbVertex
100
AcDb2dVertex
 10
90.113249
 20
3.0
 30
0.0
  0
VERTEX
  5
1B7
330
94
100
AcDbEntity
  8
SUPPORT
100
AcDbVertex
100
AcDb2dVertex
 10
95.886751
 20
3.0
 30
0.0
  0
VERTEX
  5
1B8
330
94
100
AcDbEntity
  8
SUPPORT
100
AcDbVertex
100
AcDb2dVertex
 10
98.77350300000001
 20
8.0
 30
0.0
  0
VERTEX
  5
1B9
330
94
100
AcDbEntity
  8
SUPPORT
100
AcDbVertex
100
AcDb2dVertex
 10
95.886751
 20
13.0
 30
0.0
  0
SEQEND
  5
1B3
330
94
100
AcDbEntity
  8
SUPPORT
  0
LINE
  5
9C
330
18
100
AcDbEntity
  8
SUPPORT
100
AcDbLine
 10
86.0
 20
8.0
 30
0.0
 11
99.0
 21
8.0
 31
0.0
  0
CIRCLE
  5
9D
330
18
100
AcDbEntity
  8
SUPPORT
100
AcDbCircle
 10
93.0
 20
8.0
 30
0.0
 40
4.0
  0
LINE
  5
9E
330
18
100
AcDbEntity
  8
SUPPORT
100
AcDbLine
 10
9.886799999999999
 20
93.0
 30
0.0
 11
9.886799999999999
 21
96.0
 31
0.0
  0
LINE
  5
9F
330
18
100
AcDbEntity
  8
SUPPORT
100
AcDbLine
 10
9.886799999999999
 20
13.0
 30
0.0
 11
9.886799999999999
 21
83.0
 31
0.0
  0
LINE
  5
A7
330
18
100
AcDbEntity
  8
SUPPORT
100
AcDbLine
 10
146.0
 20
83.70615599999999
 30
0.0
 11
141.294451
 21
83.70615599999999
 31
0.0
  0
LINE
  5
A8
330
18
100
AcDbEntity
  8
SUPPORT
100
AcDbLine
 10
134.705549
 20
83.70615599999999
 30
0.0
 11
96.294451
 21
83.70615599999999
 31
0.0
  0
ARC
  5
AB
330
18
100
AcDbEntity
  8
SUPPORT
100
AcDbCircle
 10
89.781204
 20
87.563621
 30
0.0
 40
3.806301
100
AcDbArc
 50
173.416773
 51
268.876437
  0
LINE
  5
AC
330
18
100
AcDbEntity
  8
SUPPORT
100
AcDbLine
 10
86.0
 20
88.0
 30
0.0
 11
86.0
 21
96.0
 31
0.0
  0
LINE
  5
AD
330
18
100
AcDbEntity
  8
SUPPORT
100
AcDbLine
 10
146.0
 20
12.293844
 30
0.0
 11
141.294451
 21
12.293844
 31
0.0
  0
LINE
  5
AE
330
18
100
AcDbEntity
  8
SUPPORT
100
AcDbLine
 10
134.705549
 20
12.293844
 30
0.0
 11
96.294451
 21
12.293844
 31
0.0
  0
ARC
  5
AF
330
18
100
AcDbEntity
  8
SUPPORT
100
AcDbCircle
 10
89.781204
 20
8.436379000000001
 30
0.0
 40
3.806301
100
AcDbArc
 50
91.123563
 51
186.583227
  0
LINE
  5
B0
330
18
100
AcDbEntity
  8
SUPPORT
100
AcDbLine
 10
86.0
 20
8.0
 30
0.0
 11
86.0
 21
0.0
 31
0.0
  0
LINE
  5
B6
330
18
100
AcDbEntity
  8
SUPPORT
  6
CONTINUOUS
100
AcDbLine
 10
51.0
 20
48.0
 30
0.0
 11
89.675156
 21
12.241202
 31
0.0
  0
LINE
  5
B8
330
18
100
AcDbEntity
  8
SUPPORT
  6
CONTINUOUS
100
AcDbLine
 10
51.0
 20
48.0
 30
0.0
 11
89.675156
 21
83.758798
 31
0.0
  0
LINE
  5
C4
330
18
100
AcDbEntity
  8
SUPPORT
100
AcDbLine
 10
0.0
 20
-44.15
 30
0.0
 11
0.0
 21
-54.15
 31
0.0
  0
LINE
  5
C5
330
18
100
AcDbEntity
  8
SUPPORT
100
AcDbLine
 10
51.0
 20
-95.3
 30
0.0
 11
142.0
 21
-95.3
 31
0.0
  0
LINE
  5
C6
330
18
100
AcDbEntity
  8
SUPPORT
100
AcDbLine
 10
146.0
 20
-91.3
 30
0.0
 11
146.0
 21
-56.15
 31
0.0
  0
LINE
  5
C7
330
18
100
AcDbEntity
  8
SUPPORT
100
AcDbLine
 10
142.0
 20
-15.0
 30
0.0
 11
51.0
 21
-15.0
 31
0.0
  0
ARC
  5
C8
330
18
100
AcDbEntity
  8
SUPPORT
100
AcDbCircle
 10
142.0
 20
-19.0
 30
0.0
 40
4.0
100
AcDbArc
 50
0.0
 51
90.0
  0
ARC
  5
C9
330
18
100
AcDbEntity
  8
SUPPORT
100
AcDbCircle
 10
142.0
 20
-91.3
 30
0.0
 40
4.0
100
AcDbArc
 50
270.0
 51
0.0
  0
LINE
  5
CC
330
18
100
AcDbEntity
  8
AXIS
  6
DASHDOT
100
AcDbLine
 10
51.0
 20
0.0
 30
0.0
 11
51.0
 21
99.0
 31
0.0
  0
ARC
  5
CE
330
18
100
AcDbEntity
  8
SUPPORT
100
AcDbCircle
 10
51.0
 20
-55.15
 30
0.0
 40
40.15
100
AcDbArc
 50
201.937749
 51
338.062251
  0
LINE
  5
CF
330
18
100
AcDbEntity
  8
AXIS
  6
DASHDOT
100
AcDbLine
 10
-3.0
 20
-55.15
 30
0.0
 11
149.0
 21
-55.15
 31
0.0
  0
LINE
  5
D2
330
18
100
AcDbEntity
  8
SUPPORT
  6
CONTINUOUS
100
AcDbLine
 10
4.0
 20
-40.15
 30
0.0
 11
13.757249
 21
-40.15
 31
0.0
  0
LINE
  5
D3
330
18
100
AcDbEntity
  8
SUPPORT
  6
CONTINUOUS
100
AcDbLine
 10
4.0
 20
-70.15000000000001
 30
0.0
 11
13.757249
 21
-70.15000000000001
 31
0.0
  0
ARC
  5
D8
330
18
100
AcDbEntity
  8
SUPPORT
100
AcDbCircle
 10
4.0
 20
-44.15
 30
0.0
 40
4.0
100
AcDbArc
 50
90.0
 51
180.0
  0
ARC
  5
D9
330
18
100
AcDbEntity
  8
SUPPORT
100
AcDbCircle
 10
4.0
 20
-66.15000000000001
 30
0.0
 40
4.0
100
AcDbArc
 50
180.0
 51
270.0
  0
LINE
  5
DA
330
18
100
AcDbEntity
  8
SUPPORT
  6
CONTINUOUS
100
AcDbLine
 10
0.0
 20
-54.15
 30
0.0
 11
20.866588
 21
-54.15
 31
0.0
  0
LINE
  5
DC
330
18
100
AcDbEntity
  8
SUPPORT
100
AcDbLine
 10
2.0
 20
-54.15
 30
0.0
 11
2.0
 21
-56.15
 31
0.0
  0
LINE
  5
DD
330
18
100
AcDbEntity
  8
SUPPORT
100
AcDbLine
 10
0.0
 20
-56.15
 30
0.0
 11
0.0
 21
-66.15000000000001
 31
0.0
  0
LINE
  5
DE
330
18
100
AcDbEntity
  8
SUPPORT
  6
CONTINUOUS
100
AcDbLine
 10
81.13341200000001
 20
-54.15
 30
0.0
 11
146.0
 21
-54.15
 31
0.0
  0
LINE
  5
DF
330
18
100
AcDbEntity
  8
SUPPORT
  6
CONTINUOUS
100
AcDbLine
 10
81.13341200000001
 20
-56.15
 30
0.0
 11
146.0
 21
-56.15
 31
0.0
  0
ARC
  5
E0
330
18
100
AcDbEntity
  8
SUPPORT
100
AcDbCircle
 10
51.0
 20
-55.15
 30
0.0
 40
40.15
100
AcDbArc
 50
21.937749
 51
158.062251
  0
LINE
  5
E1
330
18
100
AcDbEntity
  8
SUPPORT
  6
DASHED
100
AcDbLine
 10
86.0
 20
-85.3
 30
0.0
 11
86.0
 21
-25.0
 31
0.0
  0
LINE
  5
E4
330
18
100
AcDbEntity
  8
SUPPORT
100
AcDbLine
 10
144.0
 20
-56.15
 30
0.0
 11
144.0
 21
-54.15
 31
0.0
  0
LINE
  5
E5
330
18
100
AcDbEntity
  8
SUPPORT
100
AcDbLine
 10
146.0
 20
-54.15
 30
0.0
 11
146.0
 21
-19.0
 31
0.0
  0
LINE
  5
EF
330
18
100
AcDbEntity
  8
SUPPORT
100
AcDbLine
 10
0.0
 20
-56.15
 30
0.0
 11
20.866854
 21
-56.157968
 31
0.0
  0
LINE
  5
FC
330
18
100
AcDbEntity
  8
SUPPORT
100
AcDbLine
 10
161.0
 20
4.0
 30
0.0
 11
161.0
 21
92.0
 31
0.0
  0
LINE
  5
FD
330
18
100
AcDbEntity
  8
SUPPORT
100
AcDbLine
 10
165.0
 20
96.0
 30
0.0
 11
200.15
 21
96.0
 31
0.0
  0
LINE
  5
FE
330
18
100
AcDbEntity
  8
SUPPORT
100
AcDbLine
 10
241.3
 20
92.0
 30
0.0
 11
241.3
 21
4.0
 31
0.0
  0
LINE
  5
FF
330
18
100
AcDbEntity
  8
SUPPORT
100
AcDbLine
 10
237.3
 20
0.0
 30
0.0
 11
202.15
 21
0.0
 31
0.0
  0
ARC
  5
100
330
18
100
AcDbEntity
  8
SUPPORT
100
AcDbCircle
 10
237.3
 20
92.0
 30
0.0
 40
4.0
100
AcDbArc
 50
0.0
 51
90.0
  0
ARC
  5
101
330
18
100
AcDbEntity
  8
SUPPORT
100
AcDbCircle
 10
165.0
 20
92.0
 30
0.0
 40
4.0
100
AcDbArc
 50
90.0
 51
180.0
  0
ARC
  5
102
330
18
100
AcDbEntity
  8
SUPPORT
100
AcDbCircle
 10
165.0
 20
4.0
 30
0.0
 40
4.0
100
AcDbArc
 50
180.0
 51
270.0
  0
ARC
  5
103
330
18
100
AcDbEntity
  8
SUPPORT
100
AcDbCircle
 10
237.3
 20
4.0
 30
0.0
 40
4.0
100
AcDbArc
 50
270.0
 51
0.0
  0
LINE
  5
107
330
18
100
AcDbEntity
  8
AXIS
  6
DASHDOT
100
AcDbLine
 10
158.0
 20
48.0
 30
0.0
 11
244.3
 21
48.0
 31
0.0
  0
LINE
  5
10A
330
18
100
AcDbEntity
  8
AXIS
  6
DASHDOT
100
AcDbLine
 10
201.15
 20
99.0
 30
0.0
 11
201.15
 21
-3.0
 31
0.0
  0
LINE
  5
10C
330
18
100
AcDbEntity
  8
SUPPORT
  6
CONTINUOUS
100
AcDbLine
 10
200.15
 20
96.0
 30
0.0
 11
200.15
 21
0.0
 31
0.0
  0
LINE
  5
10D
330
18
100
AcDbEntity
  8
SUPPORT
  6
CONTINUOUS
100
AcDbLine
 10
202.15
 20
96.0
 30
0.0
 11
202.15
 21
0.0
 31
0.0
  0
LINE
  5
10E
330
18
100
AcDbEntity
  8
SUPPORT
100
AcDbLine
 10
202.15
 20
2.0
 30
0.0
 11
200.15
 21
2.0
 31
0.0
  0
LINE
  5
10F
330
18
100
AcDbEntity
  8
SUPPORT
100
AcDbLine
 10
200.15
 20
94.0
 30
0.0
 11
202.15
 21
94.0
 31
0.0
  0
LINE
  5
110
330
18
100
AcDbEntity
  8
SUPPORT
100
AcDbLine
 10
202.15
 20
96.0
 30
0.0
 11
237.3
 21
96.0
 31
0.0
  0
LINE
  5
111
330
18
100
AcDbEntity
  8
SUPPORT
100
AcDbLine
 10
200.15
 20
0.0
 30
0.0
 11
165.0
 21
0.0
 31
0.0
  0
LINE
  5
114
330
18
100
AcDbEntity
  8
SUPPORT
  6
CONTINUOUS
100
AcDbLine
 10
186.15
 20
96.0
 30
0.0
 11
186.15
 21
0.0
 31
0.0
  0
LINE
  5
115
330
18
100
AcDbEntity
  8
SUPPORT
  6
CONTINUOUS
100
AcDbLine
 10
216.15
 20
96.0
 30
0.0
 11
216.15
 21
0.0
 31
0.0
  0
LINE
  5
117
330
18
100
AcDbEntity
  8
SUPPORT
  6
CONTINUOUS
100
AcDbLine
 10
88.242751
 20
-70.15000000000001
 30
0.0
 11
146.0
 21
-70.15000000000001
 31
0.0
  0
LINE
  5
118
330
18
100
AcDbEntity
  8
SUPPORT
  6
CONTINUOUS
100
AcDbLine
 10
88.242751
 20
-40.15
 30
0.0
 11
146.0
 21
-40.15
 31
0.0
  0
CIRCLE
  5
11D
330
18
100
AcDbEntity
  8
SUPPORT
100
AcDbCircle
 10
51.0
 20
-55.15
 30
0.0
 40
30.15
  0
LINE
  5
11E
330
18
100
AcDbEntity
  8
SUPPORT
  6
DASHED
100
AcDbLine
 10
81.15000000000001
 20
0.0
 30
0.0
 11
81.15000000000001
 21
96.0
 31
0.0
  0
LINE
  5
11F
330
18
100
AcDbEntity
  8
SUPPORT
  6
DASHED
100
AcDbLine
 10
20.85
 20
0.0
 30
0.0
 11
20.85
 21
96.0
 31
0.0
  0
LINE
  5
120
330
18
100
AcDbEntity
  8
SUPPORT
  6
DASHED
100
AcDbLine
 10
171.0
 20
96.0
 30
0.0
 11
171.0
 21
0.0
 31
0.0
  0
LINE
  5
121
330
18
100
AcDbEntity
  8
SUPPORT
  6
DASHED
100
AcDbLine
 10
231.3
 20
96.0
 30
0.0
 11
231.3
 21
0.0
 31
0.0
  0
LINE
  5
131
330
18
100
AcDbEntity
  8
SUPPORT
  6
DASHED
100
AcDbLine
 10
86.0
 20
-25.0
 30
0.0
 11
146.0
 21
-25.0
 31
0.0
  0
LINE
  5
132
330
18
100
AcDbEntity
  8
SUPPORT
  6
DASHED
100
AcDbLine
 10
86.0
 20
-85.3
 30
0.0
 11
146.0
 21
-85.3
 31
0.0
  0
CIRCLE
  5
133
330
18
100
AcDbEntity
  8
SUPPORT
  6
DASHED
100
AcDbCircle
 10
201.15
 20
48.0
 30
0.0
 40
30.15
  0
ENDSEC
  0
SECTION
  2
OBJECTS
  0
DICTIONARY
  5
C
330
0
100
AcDbDictionary
  3
ACAD_GROUP
350
D
  3
ACAD_LAYOUT
350
13C
  3
ACAD_MLINESTYLE
350
E
1001
ACAD
1000
TREAT_AS_HARD
1070
     0
  0
DICTIONARY
  5
1BA
330
13B
100
AcDbDictionary
  3
ACAD_XREC_ROUNDTRIP
360
1BB
  0
DICTIONARY
  5
D
102
{ACAD_REACTORS
330
C
102
}
330
C
100
AcDbDictionary
1001
ACAD
1000
TREAT_AS_HARD
1070
     0
  0
DICTIONARY
  5
13C
102
{ACAD_REACTORS
330
C
102
}
330
C
100
AcDbDictionary
1001
ACAD
1000
TREAT_AS_HARD
1070
     0
  0
DICTIONARY
  5
E
102
{ACAD_REACTORS
330
C
102
}
330
C
100
AcDbDictionary
  3
STANDARD
350
1B
1001
ACAD
1000
TREAT_AS_HARD
1070
     0
  0
XRECORD
  5
1BB
102
{ACAD_REACTORS
330
1BA
102
}
330
1BA
100
AcDbXrecord
102
UCS
 74
     0
 71
     1
 10
0.0
 20
0.0
 30
0.0
 10
1.0
 20
0.0
 30
0.0
 10
0.0
 20
1.0
 30
0.0
146
0.0
 79
     0
102
VIEW
281
     0
  0
MLINESTYLE
  5
1B
102
{ACAD_REACTORS
330
E
102
}
330
E
100
AcDbMlineStyle
  2
STANDARD
 70
     0
  3

 62
     0
 51
90.0
 52
90.0
 71
     2
 49
0.5
 62
   256
  6
BYLAYER
 49
-0.5
 62
   256
  6
BYLAYER
  0
ENDSEC
  0
EOF
