  0
SECTION
  2
HEADER
  9
$ACADVER
  1
AC1012
  9
$DWGCODEPAGE
  3
ansi_1252
  9
$INSBASE
 10
0.0
 20
0.0
 30
0.0
  9
$EXTMIN
 10
-0.828427
 20
-102.487796
 30
0.0
  9
$EXTMAX
 10
331.056029
 20
86.302172
 30
0.0
  9
$LIMMIN
 10
0.0
 20
0.0
  9
$LIMMAX
 10
12.0
 20
9.0
  9
$ORTHOMODE
 70
     1
  9
$REGENMODE
 70
     1
  9
$FILLMODE
 70
     1
  9
$QTEXTMODE
 70
     0
  9
$MIRRTEXT
 70
     1
  9
$DRAGMODE
 70
     2
  9
$LTSCALE
 40
10.0
  9
$OSMODE
 70
    37
  9
$ATTMODE
 70
     1
  9
$TEXTSIZE
 40
0.2
  9
$TRACEWID
 40
0.05
  9
$TEXTSTYLE
  7
STANDARD
  9
$CLAYER
  8
AXIS
  9
$CELTYPE
  6
BYLAYER
  9
$CECOLOR
 62
   256
  9
$CELTSCALE
 40
1.0
  9
$DELOBJ
 70
     1
  9
$DISPSILH
 70
     0
  9
$DIMSCALE
 40
1.0
  9
$DIMASZ
 40
0.18
  9
$DIMEXO
 40
0.0625
  9
$DIMDLI
 40
0.38
  9
$DIMRND
 40
0.0
  9
$DIMDLE
 40
0.0
  9
$DIMEXE
 40
0.18
  9
$DIMTP
 40
0.0
  9
$DIMTM
 40
0.0
  9
$DIMTXT
 40
0.18
  9
$DIMCEN
 40
0.09
  9
$DIMTSZ
 40
0.0
  9
$DIMTOL
 70
     0
  9
$DIMLIM
 70
     0
  9
$DIMTIH
 70
     1
  9
$DIMTOH
 70
     1
  9
$DIMSE1
 70
     0
  9
$DIMSE2
 70
     0
  9
$DIMTAD
 70
     0
  9
$DIMZIN
 70
     0
  9
$DIMBLK
  1

  9
$DIMASO
 70
     1
  9
$DIMSHO
 70
     1
  9
$DIMPOST
  1

  9
$DIMAPOST
  1

  9
$DIMALT
 70
     0
  9
$DIMALTD
 70
     2
  9
$DIMALTF
 40
25.4
  9
$DIMLFAC
 40
1.0
  9
$DIMTOFL
 70
     0
  9
$DIMTVP
 40
0.0
  9
$DIMTIX
 70
     0
  9
$DIMSOXD
 70
     0
  9
$DIMSAH
 70
     0
  9
$DIMBLK1
  1

  9
$DIMBLK2
  1

  9
$DIMSTYLE
  2
STANDARD
  9
$DIMCLRD
 70
     0
  9
$DIMCLRE
 70
     0
  9
$DIMCLRT
 70
     0
  9
$DIMTFAC
 40
1.0
  9
$DIMGAP
 40
0.09
  9
$DIMJUST
 70
     0
  9
$DIMSD1
 70
     0
  9
$DIMSD2
 70
     0
  9
$DIMTOLJ
 70
     1
  9
$DIMTZIN
 70
     0
  9
$DIMALTZ
 70
     0
  9
$DIMALTTZ
 70
     0
  9
$DIMFIT
 70
     3
  9
$DIMUPT
 70
     0
  9
$DIMUNIT
 70
     2
  9
$DIMDEC
 70
     4
  9
$DIMTDEC
 70
     4
  9
$DIMALTU
 70
     2
  9
$DIMALTTD
 70
     2
  9
$DIMTXSTY
  7
STANDARD
  9
$DIMAUNIT
 70
     0
  9
$LUNITS
 70
     2
  9
$LUPREC
 70
     4
  9
$SKETCHINC
 40
0.1
  9
$FILLETRAD
 40
4.0
  9
$AUNITS
 70
     0
  9
$AUPREC
 70
     0
  9
$MENU
  1
acad
  9
$ELEVATION
 40
0.0
  9
$PELEVATION
 40
0.0
  9
$THICKNESS
 40
0.0
  9
$LIMCHECK
 70
     0
  9
$CHAMFERA
 40
0.0
  9
$CHAMFERB
 40
0.0
  9
$CHAMFERC
 40
0.0
  9
$CHAMFERD
 40
0.0
  9
$SKPOLY
 70
     0
  9
$TDCREATE
 40
2447893.083333334
  9
$TDUPDATE
 40
2447893.083333334
  9
$TDINDWG
 40
0.0803190972
  9
$TDUSRTIMER
 40
0.0803190972
  9
$USRTIMER
 70
     1
  9
$ANGBASE
 50
0.0
  9
$ANGDIR
 70
     0
  9
$PDMODE
 70
     0
  9
$PDSIZE
 40
0.0
  9
$PLINEWID
 40
0.0
  9
$COORDS
 70
     1
  9
$SPLFRAME
 70
     0
  9
$SPLINETYPE
 70
     6
  9
$SPLINESEGS
 70
     8
  9
$ATTDIA
 70
     0
  9
$ATTREQ
 70
     1
  9
$HANDLING
 70
     1
  9
$HANDSEED
  5
171
  9
$SURFTAB1
 70
     6
  9
$SURFTAB2
 70
     6
  9
$SURFTYPE
 70
     6
  9
$SURFU
 70
     6
  9
$SURFV
 70
     6
  9
$UCSNAME
  2

  9
$UCSORG
 10
0.0
 20
0.0
 30
0.0
  9
$UCSXDIR
 10
1.0
 20
0.0
 30
0.0
  9
$UCSYDIR
 10
0.0
 20
1.0
 30
0.0
  9
$PUCSNAME
  2

  9
$PUCSORG
 10
0.0
 20
0.0
 30
0.0
  9
$PUCSXDIR
 10
1.0
 20
0.0
 30
0.0
  9
$PUCSYDIR
 10
0.0
 20
1.0
 30
0.0
  9
$USERI1
 70
     0
  9
$USERI2
 70
     0
  9
$USERI3
 70
     0
  9
$USERI4
 70
     0
  9
$USERI5
 70
     0
  9
$USERR1
 40
0.0
  9
$USERR2
 40
0.0
  9
$USERR3
 40
0.0
  9
$USERR4
 40
0.0
  9
$USERR5
 40
0.0
  9
$WORLDVIEW
 70
     1
  9
$SHADEDGE
 70
     3
  9
$SHADEDIF
 70
    70
  9
$TILEMODE
 70
     1
  9
$MAXACTVP
 70
    16
  9
$PINSBASE
 10
0.0
 20
0.0
 30
0.0
  9
$PLIMCHECK
 70
     0
  9
$PEXTMIN
 10
1.000000000000000E+20
 20
1.000000000000000E+20
 30
1.000000000000000E+20
  9
$PEXTMAX
 10
-1.000000000000000E+20
 20
-1.000000000000000E+20
 30
-1.000000000000000E+20
  9
$PLIMMIN
 10
0.0
 20
0.0
  9
$PLIMMAX
 10
12.0
 20
9.0
  9
$UNITMODE
 70
     0
  9
$VISRETAIN
 70
     0
  9
$PLINEGEN
 70
     0
  9
$PSLTSCALE
 70
     1
  9
$TREEDEPTH
 70
  3020
  9
$PICKSTYLE
 70
     1
  9
$CMLSTYLE
  2
STANDARD
  9
$CMLJUST
 70
     0
  9
$CMLSCALE
 40
1.0
  9
$SAVEIMAGES
 70
     1
  0
ENDSEC
  0
SECTION
  2
CLASSES
  0
CLASS
  1
XRECORD
  2
AcDbXrecord
  3
AutoCAD 2000
 90
    32768
280
     0
281
     0
  0
CLASS
  1
LWPOLYLINE
  2
AcDbPolyline
  3
AutoCAD 2000
 90
    32768
280
     0
281
     1
  0
CLASS
  1
HATCH
  2
AcDbHatch
  3
AutoCAD 2000
 90
    32768
280
     0
281
     1
  0
CLASS
  1
ACDBPLACEHOLDER
  2
AcDbPlaceHolder
  3
ObjectDBX Classes
 90
        0
280
     0
281
     0
  0
CLASS
  1
LAYOUT
  2
AcDbLayout
  3
ObjectDBX Classes
 90
        0
280
     0
281
     0
  0
ENDSEC
  0
SECTION
  2
TABLES
  0
TABLE
  2
VPORT
  5
8
330
0
100
AcDbSymbolTable
 70
     1
  0
VPORT
  5
F0
102
{ACAD_XDICTIONARY
360
16F
102
}
330
8
100
AcDbSymbolTableRecord
100
AcDbViewportTableRecord
  2
*ACTIVE
 70
     0
 10
0.0
 20
0.0
 11
1.0
 21
1.0
 12
179.30418
 22
-7.311933
 13
0.0
 23
0.0
 14
1.0
 24
1.0
 15
0.0
 25
0.0
 16
0.0
 26
0.0
 36
1.0
 17
0.0
 27
0.0
 37
0.0
 40
187.228208
 41
1.915354
 42
50.0
 43
0.0
 44
0.0
 50
0.0
 51
0.0
 71
     0
 72
   100
 73
     1
 74
     1
 75
     0
 76
     0
 77
     0
 78
     0
  0
ENDTAB
  0
TABLE
  2
LTYPE
  5
5
330
0
100
AcDbSymbolTable
 70
     3
  0
LTYPE
  5
14
330
5
100
AcDbSymbolTableRecord
100
AcDbLinetypeTableRecord
  2
BYBLOCK
 70
     0
  3

 72
    65
 73
     0
 40
0.0
  0
LTYPE
  5
15
330
5
100
AcDbSymbolTableRecord
100
AcDbLinetypeTableRecord
  2
BYLAYER
 70
     0
  3

 72
    65
 73
     0
 40
0.0
  0
LTYPE
  5
16
330
5
100
AcDbSymbolTableRecord
100
AcDbLinetypeTableRecord
  2
CONTINUOUS
 70
     0
  3
Solid line
 72
    65
 73
     0
 40
0.0
  0
LTYPE
  5
C2
330
5
100
AcDbSymbolTableRecord
100
AcDbLinetypeTableRecord
  2
DASHED
 70
     0
  3
__ __ __ __ __ __ __ __ __ __ __ __ __ __ __ __
 72
    65
 73
     2
 40
0.75
 49
0.5
 74
     0
 49
-0.25
 74
     0
  0
LTYPE
  5
D1
330
5
100
AcDbSymbolTableRecord
100
AcDbLinetypeTableRecord
  2
DASHDOT
 70
     0
  3
__ . __ . __ . __ . __ . __ . __ . __ . __ . __
 72
    65
 73
     4
 40
1.0
 49
0.5
 74
     0
 49
-0.25
 74
     0
 49
0.0
 74
     0
 49
-0.25
 74
     0
  0
ENDTAB
  0
TABLE
  2
LAYER
  5
2
330
0
100
AcDbSymbolTable
 70
     3
  0
LAYER
  5
F
330
2
100
AcDbSymbolTableRecord
100
AcDbLayerTableRecord
  2
0
 70
     0
 62
     7
  6
CONTINUOUS
  0
LAYER
  5
D0
330
2
100
AcDbSymbolTableRecord
100
AcDbLayerTableRecord
  2
AXIS
 70
     0
 62
     1
  6
DASHDOT
  0
LAYER
  5
EF
330
2
100
AcDbSymbolTableRecord
100
AcDbLayerTableRecord
  2
SUPPORT
 70
     0
 62
     3
  6
CONTINUOUS
  0
ENDTAB
  0
TABLE
  2
STYLE
  5
3
330
0
100
AcDbSymbolTable
 70
     1
  0
STYLE
  5
10
330
3
100
AcDbSymbolTableRecord
100
AcDbTextStyleTableRecord
  2
STANDARD
 70
     0
 40
0.0
 41
1.0
 50
0.0
 71
     0
 42
0.2
  3
txt
  4

  0
ENDTAB
  0
TABLE
  2
VIEW
  5
6
330
0
100
AcDbSymbolTable
 70
     0
  0
ENDTAB
  0
TABLE
  2
UCS
  5
7
330
0
100
AcDbSymbolTable
 70
     0
  0
ENDTAB
  0
TABLE
  2
APPID
  5
9
330
0
100
AcDbSymbolTable
 70
     1
  0
APPID
  5
11
330
9
100
AcDbSymbolTableRecord
100
AcDbRegAppTableRecord
  2
ACAD
 70
     0
  0
ENDTAB
  0
TABLE
  2
DIMSTYLE
  5
A
330
0
100
AcDbSymbolTable
 70
     1
  0
DIMSTYLE
105
1D
330
A
100
AcDbSymbolTableRecord
100
AcDbDimStyleTableRecord
  2
STANDARD
 70
     0
  3

  4

  5

  6

  7

 40
1.0
 41
0.18
 42
0.0625
 43
0.38
 44
0.18
 45
0.0
 46
0.0
 47
0.0
 48
0.0
140
0.18
141
0.09
142
0.0
143
25.4
144
1.0
145
0.0
146
1.0
147
0.09
 71
     0
 72
     0
 73
     1
 74
     1
 75
     0
 76
     0
 77
     0
 78
     0
170
     0
171
     2
172
     0
173
     0
174
     0
175
     0
176
     0
177
     0
178
     0
270
     2
271
     4
272
     4
273
     2
274
     2
340
10
275
     0
280
     0
281
     0
282
     0
283
     1
284
     0
285
     0
286
     0
287
     3
288
     0
  0
ENDTAB
  0
TABLE
  2
BLOCK_RECORD
  5
1
330
0
100
AcDbSymbolTable
 70
     0
  0
BLOCK_RECORD
  5
1A
330
1
100
AcDbSymbolTableRecord
100
AcDbBlockTableRecord
  2
*MODEL_SPACE
  0
BLOCK_RECORD
  5
17
330
1
100
AcDbSymbolTableRecord
100
AcDbBlockTableRecord
  2
*PAPER_SPACE
  0
ENDTAB
  0
ENDSEC
  0
SECTION
  2
BLOCKS
  0
BLOCK
  5
1B
330
1A
100
AcDbEntity
  8
0
100
AcDbBlockBegin
  2
*MODEL_SPACE
 70
     0
 71
     0
 10
0.0
 20
0.0
 30
0.0
  3
*MODEL_SPACE
  1

  0
ENDBLK
  5
1C
330
1A
100
AcDbEntity
  8
0
100
AcDbBlockEnd
  0
BLOCK
  5
18
330
17
100
AcDbEntity
 67
     1
  8
0
100
AcDbBlockBegin
  2
*PAPER_SPACE
 70
     0
 71
     0
 10
0.0
 20
0.0
 30
0.0
  3
*PAPER_SPACE
  1

  0
ENDBLK
  5
19
330
17
100
AcDbEntity
 67
     1
  8
0
100
AcDbBlockEnd
  0
ENDSEC
  0
SECTION
  2
ENTITIES
  0
LINE
  5
2E
330
1A
100
AcDbEntity
  8
SUPPORT
100
AcDbLine
 10
0.0
 20
4.0
 30
0.0
 11
0.0
 21
80.0
 31
0.0
  0
LINE
  5
2F
330
1A
100
AcDbEntity
  8
SUPPORT
100
AcDbLine
 10
4.0
 20
84.0
 30
0.0
 11
130.0
 21
84.0
 31
0.0
  0
LINE
  5
30
330
1A
100
AcDbEntity
  8
SUPPORT
100
AcDbLine
 10
134.0
 20
80.0
 30
0.0
 11
134.0
 21
4.0
 31
0.0
  0
LINE
  5
31
330
1A
100
AcDbEntity
  8
SUPPORT
100
AcDbLine
 10
130.0
 20
0.0
 30
0.0
 11
4.0
 21
0.0
 31
0.0
  0
ARC
  5
32
330
1A
100
AcDbEntity
  8
SUPPORT
100
AcDbCircle
 10
4.0
 20
80.0
 30
0.0
 40
4.0
100
AcDbArc
 50
90.0
 51
180.0
  0
ARC
  5
33
330
1A
100
AcDbEntity
  8
SUPPORT
100
AcDbCircle
 10
130.0
 20
80.0
 30
0.0
 40
4.0
100
AcDbArc
 50
0.0
 51
90.0
  0
ARC
  5
34
330
1A
100
AcDbEntity
  8
SUPPORT
100
AcDbCircle
 10
130.0
 20
4.0
 30
0.0
 40
4.0
100
AcDbArc
 50
270.0
 51
0.0
  0
ARC
  5
35
330
1A
100
AcDbEntity
  8
SUPPORT
100
AcDbCircle
 10
4.0
 20
4.0
 30
0.0
 40
4.0
100
AcDbArc
 50
180.0
 51
270.0
  0
POLYLINE
  5
36
330
1A
100
AcDbEntity
  8
SUPPORT
100
AcDb2dPolyline
 66
     1
 10
0.0
 20
0.0
 30
0.0
 70
     1
  0
VERTEX
  5
146
330
36
100
AcDbEntity
  8
SUPPORT
100
AcDbVertex
100
AcDb2dVertex
 10
5.113249
 20
13.0
 30
0.0
  0
VERTEX
  5
147
330
36
100
AcDbEntity
  8
SUPPORT
100
AcDbVertex
100
AcDb2dVertex
 10
2.226497
 20
8.0
 30
0.0
  0
VERTEX
  5
148
330
36
100
AcDbEntity
  8
SUPPORT
100
AcDbVertex
100
AcDb2dVertex
 10
5.113249
 20
3.0
 30
0.0
  0
VERTEX
  5
149
330
36
100
AcDbEntity
  8
SUPPORT
100
AcDbVertex
100
AcDb2dVertex
 10
10.886751
 20
3.0
 30
0.0
  0
VERTEX
  5
14A
330
36
100
AcDbEntity
  8
SUPPORT
100
AcDbVertex
100
AcDb2dVertex
 10
13.773503
 20
8.0
 30
0.0
  0
VERTEX
  5
14B
330
36
100
AcDbEntity
  8
SUPPORT
100
AcDbVertex
100
AcDb2dVertex
 10
10.886751
 20
13.0
 30
0.0
  0
SEQEND
  5
145
330
36
100
AcDbEntity
  8
SUPPORT
  0
CIRCLE
  5
3E
330
1A
100
AcDbEntity
  8
SUPPORT
100
AcDbCircle
 10
8.0
 20
8.0
 30
0.0
 40
4.0
  0
LINE
  5
3F
330
1A
100
AcDbEntity
  8
SUPPORT
100
AcDbLine
 10
1.0
 20
8.0
 30
0.0
 11
15.0
 21
8.0
 31
0.0
  0
LINE
  5
41
330
1A
100
AcDbEntity
  8
SUPPORT
100
AcDbLine
 10
8.0
 20
15.0
 30
0.0
 11
8.0
 21
1.0
 31
0.0
  0
LINE
  5
42
330
1A
100
AcDbEntity
  8
SUPPORT
100
AcDbLine
 10
133.0
 20
8.0
 30
0.0
 11
119.0
 21
8.0
 31
0.0
  0
CIRCLE
  5
43
330
1A
100
AcDbEntity
  8
SUPPORT
100
AcDbCircle
 10
126.0
 20
8.0
 30
0.0
 40
4.0
  0
POLYLINE
  5
44
330
1A
100
AcDbEntity
  8
SUPPORT
100
AcDb2dPolyline
 66
     1
 10
0.0
 20
0.0
 30
0.0
 70
     1
  0
VERTEX
  5
14D
330
44
100
AcDbEntity
  8
SUPPORT
100
AcDbVertex
100
AcDb2dVertex
 10
128.886751
 20
13.0
 30
0.0
  0
VERTEX
  5
14E
330
44
100
AcDbEntity
  8
SUPPORT
100
AcDbVertex
100
AcDb2dVertex
 10
131.773503
 20
8.0
 30
0.0
  0
VERTEX
  5
14F
330
44
100
AcDbEntity
  8
SUPPORT
100
AcDbVertex
100
AcDb2dVertex
 10
128.886751
 20
3.0
 30
0.0
  0
VERTEX
  5
150
330
44
100
AcDbEntity
  8
SUPPORT
100
AcDbVertex
100
AcDb2dVertex
 10
123.113249
 20
3.0
 30
0.0
  0
VERTEX
  5
151
330
44
100
AcDbEntity
  8
SUPPORT
100
AcDbVertex
100
AcDb2dVertex
 10
120.226497
 20
8.0
 30
0.0
  0
VERTEX
  5
152
330
44
100
AcDbEntity
  8
SUPPORT
100
AcDbVertex
100
AcDb2dVertex
 10
123.113249
 20
13.0
 30
0.0
  0
SEQEND
  5
14C
330
44
100
AcDbEntity
  8
SUPPORT
  0
LINE
  5
4C
330
1A
100
AcDbEntity
  8
SUPPORT
100
AcDbLine
 10
126.0
 20
15.0
 30
0.0
 11
126.0
 21
1.0
 31
0.0
  0
POLYLINE
  5
4D
330
1A
100
AcDbEntity
  8
SUPPORT
100
AcDb2dPolyline
 66
     1
 10
0.0
 20
0.0
 30
0.0
 70
     1
  0
VERTEX
  5
154
330
4D
100
AcDbEntity
  8
SUPPORT
100
AcDbVertex
100
AcDb2dVertex
 10
128.886751
 20
71.0
 30
0.0
  0
VERTEX
  5
155
330
4D
100
AcDbEntity
  8
SUPPORT
100
AcDbVertex
100
AcDb2dVertex
 10
131.773503
 20
76.0
 30
0.0
  0
VERTEX
  5
156
330
4D
100
AcDbEntity
  8
SUPPORT
100
AcDbVertex
100
AcDb2dVertex
 10
128.886751
 20
81.0
 30
0.0
  0
VERTEX
  5
157
330
4D
100
AcDbEntity
  8
SUPPORT
100
AcDbVertex
100
AcDb2dVertex
 10
123.113249
 20
81.0
 30
0.0
  0
VERTEX
  5
158
330
4D
100
AcDbEntity
  8
SUPPORT
100
AcDbVertex
100
AcDb2dVertex
 10
120.226497
 20
76.0
 30
0.0
  0
VERTEX
  5
159
330
4D
100
AcDbEntity
  8
SUPPORT
100
AcDbVertex
100
AcDb2dVertex
 10
123.113249
 20
71.0
 30
0.0
  0
SEQEND
  5
153
330
4D
100
AcDbEntity
  8
SUPPORT
  0
CIRCLE
  5
55
330
1A
100
AcDbEntity
  8
SUPPORT
100
AcDbCircle
 10
126.0
 20
76.0
 30
0.0
 40
4.0
  0
LINE
  5
56
330
1A
100
AcDbEntity
  8
SUPPORT
100
AcDbLine
 10
133.0
 20
76.0
 30
0.0
 11
119.0
 21
76.0
 31
0.0
  0
LINE
  5
57
330
1A
100
AcDbEntity
  8
SUPPORT
100
AcDbLine
 10
126.0
 20
69.0
 30
0.0
 11
126.0
 21
83.0
 31
0.0
  0
LINE
  5
58
330
1A
100
AcDbEntity
  8
SUPPORT
100
AcDbLine
 10
1.0
 20
76.0
 30
0.0
 11
15.0
 21
76.0
 31
0.0
  0
CIRCLE
  5
59
330
1A
100
AcDbEntity
  8
SUPPORT
100
AcDbCircle
 10
8.0
 20
76.0
 30
0.0
 40
4.0
  0
POLYLINE
  5
5A
330
1A
100
AcDbEntity
  8
SUPPORT
100
AcDb2dPolyline
 66
     1
 10
0.0
 20
0.0
 30
0.0
 70
     1
  0
VERTEX
  5
15B
330
5A
100
AcDbEntity
  8
SUPPORT
100
AcDbVertex
100
AcDb2dVertex
 10
5.113249
 20
71.0
 30
0.0
  0
VERTEX
  5
15C
330
5A
100
AcDbEntity
  8
SUPPORT
100
AcDbVertex
100
AcDb2dVertex
 10
2.226497
 20
76.0
 30
0.0
  0
VERTEX
  5
15D
330
5A
100
AcDbEntity
  8
SUPPORT
100
AcDbVertex
100
AcDb2dVertex
 10
5.113249
 20
81.0
 30
0.0
  0
VERTEX
  5
15E
330
5A
100
AcDbEntity
  8
SUPPORT
100
AcDbVertex
100
AcDb2dVertex
 10
10.886751
 20
81.0
 30
0.0
  0
VERTEX
  5
15F
330
5A
100
AcDbEntity
  8
SUPPORT
100
AcDbVertex
100
AcDb2dVertex
 10
13.773503
 20
76.0
 30
0.0
  0
VERTEX
  5
160
330
5A
100
AcDbEntity
  8
SUPPORT
100
AcDbVertex
100
AcDb2dVertex
 10
10.886751
 20
71.0
 30
0.0
  0
SEQEND
  5
15A
330
5A
100
AcDbEntity
  8
SUPPORT
  0
LINE
  5
62
330
1A
100
AcDbEntity
  8
SUPPORT
100
AcDbLine
 10
8.0
 20
69.0
 30
0.0
 11
8.0
 21
83.0
 31
0.0
  0
LINE
  5
63
330
1A
100
AcDbEntity
  8
SUPPORT
100
AcDbLine
 10
10.886751
 20
71.0
 30
0.0
 11
10.886751
 21
13.0
 31
0.0
  0
LINE
  5
65
330
1A
100
AcDbEntity
  8
SUPPORT
100
AcDbLine
 10
10.886751
 20
81.0
 30
0.0
 11
10.886751
 21
84.0
 31
0.0
  0
LINE
  5
66
330
1A
100
AcDbEntity
  8
SUPPORT
100
AcDbLine
 10
10.886751
 20
84.0
 30
0.0
 11
39.598873
 21
84.0
 31
0.0
  0
LINE
  5
67
330
1A
100
AcDbEntity
  8
SUPPORT
100
AcDbLine
 10
10.886751
 20
3.0
 30
0.0
 11
10.886751
 21
0.0
 31
0.0
  0
LINE
  5
68
330
1A
100
AcDbEntity
  8
AXIS
100
AcDbLine
 10
44.0
 20
-100.926037
 30
0.0
 11
44.0
 21
-27.462319
 31
0.0
  0
POLYLINE
  5
6D
330
1A
100
AcDbEntity
  8
SUPPORT
100
AcDb2dPolyline
 66
     1
 10
0.0
 20
0.0
 30
0.0
 70
     1
  0
VERTEX
  5
162
330
6D
100
AcDbEntity
  8
SUPPORT
100
AcDbVertex
100
AcDb2dVertex
 10
82.886751
 20
71.0
 30
0.0
  0
VERTEX
  5
163
330
6D
100
AcDbEntity
  8
SUPPORT
100
AcDbVertex
100
AcDb2dVertex
 10
85.77350300000001
 20
76.0
 30
0.0
  0
VERTEX
  5
164
330
6D
100
AcDbEntity
  8
SUPPORT
100
AcDbVertex
100
AcDb2dVertex
 10
82.886751
 20
81.0
 30
0.0
  0
VERTEX
  5
165
330
6D
100
AcDbEntity
  8
SUPPORT
100
AcDbVertex
100
AcDb2dVertex
 10
77.113249
 20
81.0
 30
0.0
  0
VERTEX
  5
166
330
6D
100
AcDbEntity
  8
SUPPORT
100
AcDbVertex
100
AcDb2dVertex
 10
74.226497
 20
76.0
 30
0.0
  0
VERTEX
  5
167
330
6D
100
AcDbEntity
  8
SUPPORT
100
AcDbVertex
100
AcDb2dVertex
 10
77.113249
 20
71.0
 30
0.0
  0
SEQEND
  5
161
330
6D
100
AcDbEntity
  8
SUPPORT
  0
CIRCLE
  5
75
330
1A
100
AcDbEntity
  8
SUPPORT
100
AcDbCircle
 10
80.0
 20
76.0
 30
0.0
 40
4.0
  0
LINE
  5
76
330
1A
100
AcDbEntity
  8
SUPPORT
100
AcDbLine
 10
87.0
 20
76.0
 30
0.0
 11
73.0
 21
76.0
 31
0.0
  0
LINE
  5
77
330
1A
100
AcDbEntity
  8
SUPPORT
100
AcDbLine
 10
80.0
 20
69.0
 30
0.0
 11
80.0
 21
83.0
 31
0.0
  0
LINE
  5
78
330
1A
100
AcDbEntity
  8
SUPPORT
100
AcDbLine
 10
87.0
 20
8.0
 30
0.0
 11
73.0
 21
8.0
 31
0.0
  0
LINE
  5
79
330
1A
100
AcDbEntity
  8
SUPPORT
100
AcDbLine
 10
80.0
 20
15.0
 30
0.0
 11
80.0
 21
1.0
 31
0.0
  0
POLYLINE
  5
7A
330
1A
100
AcDbEntity
  8
SUPPORT
100
AcDb2dPolyline
 66
     1
 10
0.0
 20
0.0
 30
0.0
 70
     1
  0
VERTEX
  5
169
330
7A
100
AcDbEntity
  8
SUPPORT
100
AcDbVertex
100
AcDb2dVertex
 10
82.886751
 20
13.0
 30
0.0
  0
VERTEX
  5
16A
330
7A
100
AcDbEntity
  8
SUPPORT
100
AcDbVertex
100
AcDb2dVertex
 10
85.77350300000001
 20
8.0
 30
0.0
  0
VERTEX
  5
16B
330
7A
100
AcDbEntity
  8
SUPPORT
100
AcDbVertex
100
AcDb2dVertex
 10
82.886751
 20
3.0
 30
0.0
  0
VERTEX
  5
16C
330
7A
100
AcDbEntity
  8
SUPPORT
100
AcDbVertex
100
AcDb2dVertex
 10
77.113249
 20
3.0
 30
0.0
  0
VERTEX
  5
16D
330
7A
100
AcDbEntity
  8
SUPPORT
100
AcDbVertex
100
AcDb2dVertex
 10
74.226497
 20
8.0
 30
0.0
  0
VERTEX
  5
16E
330
7A
100
AcDbEntity
  8
SUPPORT
100
AcDbVertex
100
AcDb2dVertex
 10
77.113249
 20
13.0
 30
0.0
  0
SEQEND
  5
168
330
7A
100
AcDbEntity
  8
SUPPORT
  0
CIRCLE
  5
82
330
1A
100
AcDbEntity
  8
SUPPORT
100
AcDbCircle
 10
80.0
 20
8.0
 30
0.0
 40
4.0
  0
LINE
  5
83
330
1A
100
AcDbEntity
  8
SUPPORT
100
AcDbLine
 10
73.0
 20
76.0
 30
0.0
 11
73.0
 21
84.0
 31
0.0
  0
LINE
  5
84
330
1A
100
AcDbEntity
  8
SUPPORT
100
AcDbLine
 10
73.0
 20
8.0
 30
0.0
 11
73.0
 21
0.0
 31
0.0
  0
LINE
  5
85
330
1A
100
AcDbEntity
  8
SUPPORT
100
AcDbLine
 10
134.0
 20
12.8
 30
0.0
 11
129.0029
 21
12.798825
 31
0.0
  0
LINE
  5
86
330
1A
100
AcDbEntity
  8
SUPPORT
100
AcDbLine
 10
122.996285
 20
12.797413
 30
0.0
 11
83.009142
 21
12.788014
 31
0.0
  0
ARC
  5
87
330
1A
100
AcDbEntity
  8
SUPPORT
100
AcDbCircle
 10
78.116461
 20
7.719825
 30
0.0
 40
5.190474
100
AcDbArc
 50
102.53387
 51
176.865644
  0
ARC
  5
88
330
1A
100
AcDbEntity
  8
SUPPORT
100
AcDbCircle
 10
78.116461
 20
76.280175
 30
0.0
 40
5.190474
100
AcDbArc
 50
183.134356
 51
257.46613
  0
LINE
  5
89
330
1A
100
AcDbEntity
  8
SUPPORT
100
AcDbLine
 10
122.996285
 20
71.20258699999999
 30
0.0
 11
83.009142
 21
71.211986
 31
0.0
  0
LINE
  5
8A
330
1A
100
AcDbEntity
  8
SUPPORT
100
AcDbLine
 10
134.0
 20
71.2
 30
0.0
 11
129.0029
 21
71.20117500000001
 31
0.0
  0
LINE
  5
8B
330
1A
100
AcDbEntity
  8
SUPPORT
100
AcDbLine
 10
44.0
 20
42.0
 30
0.0
 11
76.99004100000001
 21
12.786599
 31
0.0
  0
LINE
  5
8C
330
1A
100
AcDbEntity
  8
SUPPORT
100
AcDbLine
 10
44.0
 20
42.0
 30
0.0
 11
76.99004100000001
 21
71.21340100000001
 31
0.0
  0
LINE
  5
91
330
1A
100
AcDbEntity
  8
AXIS
100
AcDbLine
 10
0.0
 20
42.0
 30
0.0
 11
134.0
 21
42.0
 31
0.0
  0
LINE
  5
92
330
1A
100
AcDbEntity
  8
AXIS
100
AcDbLine
 10
2.0
 20
-64.15000000000001
 30
0.0
 11
60.85
 21
-64.15000000000001
 31
0.0
  0
LINE
  5
93
330
1A
100
AcDbEntity
  8
SUPPORT
100
AcDbLine
 10
44.0
 20
-30.0
 30
0.0
 11
130.0
 21
-30.0
 31
0.0
  0
LINE
  5
94
330
1A
100
AcDbEntity
  8
SUPPORT
100
AcDbLine
 10
44.0
 20
-98.3
 30
0.0
 11
130.0
 21
-98.3
 31
0.0
  0
LINE
  5
95
330
1A
100
AcDbEntity
  8
SUPPORT
100
AcDbLine
 10
134.0
 20
-34.0
 30
0.0
 11
134.0
 21
-94.3
 31
0.0
  0
ARC
  5
9B
330
1A
100
AcDbEntity
  8
SUPPORT
100
AcDbCircle
 10
44.0
 20
-64.15000000000001
 30
0.0
 40
34.15
100
AcDbArc
 50
90.0
 51
152.061651
  0
LINE
  5
A3
330
1A
100
AcDbEntity
  8
SUPPORT
100
AcDbLine
 10
0.0
 20
-48.15
 30
0.0
 11
13.830106
 21
-48.15
 31
0.0
  0
LINE
  5
A4
330
1A
100
AcDbEntity
  8
SUPPORT
100
AcDbLine
 10
0.0
 20
-48.15
 30
0.0
 11
0.0
 21
-63.15
 31
0.0
  0
LINE
  5
A5
330
1A
100
AcDbEntity
  8
SUPPORT
100
AcDbLine
 10
0.0
 20
-80.15000000000001
 30
0.0
 11
0.0
 21
-65.15000000000001
 31
0.0
  0
LINE
  5
A6
330
1A
100
AcDbEntity
  8
SUPPORT
100
AcDbLine
 10
0.0
 20
-80.15000000000001
 30
0.0
 11
13.830106
 21
-80.15000000000001
 31
0.0
  0
ARC
  5
A7
330
1A
100
AcDbEntity
  8
SUPPORT
100
AcDbCircle
 10
44.0
 20
-64.15000000000001
 30
0.0
 40
34.15
100
AcDbArc
 50
207.938349
 51
270.0
  0
LINE
  5
A8
330
1A
100
AcDbEntity
  8
SUPPORT
100
AcDbLine
 10
0.0
 20
-63.15
 30
0.0
 11
19.870713
 21
-63.15
 31
0.0
  0
LINE
  5
A9
330
1A
100
AcDbEntity
  8
SUPPORT
100
AcDbLine
 10
0.0
 20
-65.15000000000001
 30
0.0
 11
19.870713
 21
-65.15000000000001
 31
0.0
  0
LINE
  5
AA
330
1A
100
AcDbEntity
  8
SUPPORT
100
AcDbLine
 10
2.0
 20
-65.15000000000001
 30
0.0
 11
2.0
 21
-64.15000000000001
 31
0.0
  0
LINE
  5
AB
330
1A
100
AcDbEntity
  8
SUPPORT
100
AcDbLine
 10
2.0
 20
-63.15
 30
0.0
 11
2.0
 21
-64.15000000000001
 31
0.0
  0
ARC
  5
AD
330
1A
100
AcDbEntity
  8
SUPPORT
100
AcDbCircle
 10
44.0
 20
-64.15000000000001
 30
0.0
 40
34.15
100
AcDbArc
 50
270.0
 51
332.061651
  0
LINE
  5
AF
330
1A
100
AcDbEntity
  8
SUPPORT
100
AcDbLine
 10
74.169894
 20
-80.15000000000001
 30
0.0
 11
134.0
 21
-80.15000000000001
 31
0.0
  0
LINE
  5
B0
330
1A
100
AcDbEntity
  8
SUPPORT
100
AcDbLine
 10
74.169894
 20
-48.15
 30
0.0
 11
134.0
 21
-48.15
 31
0.0
  0
LINE
  5
B1
330
1A
100
AcDbEntity
  8
SUPPORT
100
AcDbLine
 10
68.12928700000001
 20
-63.15
 30
0.0
 11
134.0
 21
-63.15
 31
0.0
  0
LINE
  5
B2
330
1A
100
AcDbEntity
  8
SUPPORT
100
AcDbLine
 10
68.12928700000001
 20
-65.15000000000001
 30
0.0
 11
134.0
 21
-65.15000000000001
 31
0.0
  0
LINE
  5
B3
330
1A
100
AcDbEntity
  8
SUPPORT
100
AcDbLine
 10
60.85
 20
-64.15000000000001
 30
0.0
 11
134.0
 21
-64.15000000000001
 31
0.0
  0
ARC
  5
B4
330
1A
100
AcDbEntity
  8
SUPPORT
100
AcDbCircle
 10
44.0
 20
-64.15000000000001
 30
0.0
 40
34.15
100
AcDbArc
 50
27.938349
 51
90.0
  0
LINE
  5
B6
330
1A
100
AcDbEntity
  8
AXIS
100
AcDbLine
 10
44.0
 20
0.0
 30
0.0
 11
44.0
 21
86.302172
 31
0.0
  0
ARC
  5
B7
330
1A
100
AcDbEntity
  8
SUPPORT
100
AcDbCircle
 10
130.0
 20
-34.0
 30
0.0
 40
4.0
100
AcDbArc
 50
0.0
 51
90.0
  0
ARC
  5
B8
330
1A
100
AcDbEntity
  8
SUPPORT
100
AcDbCircle
 10
130.0
 20
-94.3
 30
0.0
 40
4.0
100
AcDbArc
 50
270.0
 51
0.0
  0
LINE
  5
B9
330
1A
100
AcDbEntity
  8
SUPPORT
100
AcDbLine
 10
251.864793
 20
0.0
 30
0.0
 11
320.164793
 21
0.0
 31
0.0
  0
LINE
  5
BA
330
1A
100
AcDbEntity
  8
SUPPORT
100
AcDbLine
 10
251.864793
 20
84.0
 30
0.0
 11
320.164793
 21
84.0
 31
0.0
  0
LINE
  5
BB
330
1A
100
AcDbEntity
  8
SUPPORT
100
AcDbLine
 10
320.164793
 20
0.0
 30
0.0
 11
320.164793
 21
84.0
 31
0.0
  0
LINE
  5
BC
330
1A
100
AcDbEntity
  8
SUPPORT
100
AcDbLine
 10
251.864793
 20
0.0
 30
0.0
 11
251.864793
 21
84.0
 31
0.0
  0
LINE
  5
BE
330
1A
100
AcDbEntity
  8
AXIS
100
AcDbLine
 10
286.014793
 20
0.0
 30
0.0
 11
286.014793
 21
84.0
 31
0.0
  0
LINE
  5
C1
330
1A
100
AcDbEntity
  8
SUPPORT
  6
DASHED
100
AcDbLine
 10
74.0
 20
-45.1
 30
0.0
 11
74.0
 21
-83.2
 31
0.0
  0
LINE
  5
C5
330
1A
100
AcDbEntity
  8
SUPPORT
100
AcDbLine
 10
285.014793
 20
0.0
 30
0.0
 11
285.014793
 21
84.0
 31
0.0
  0
LINE
  5
C6
330
1A
100
AcDbEntity
  8
SUPPORT
100
AcDbLine
 10
287.014793
 20
0.0
 30
0.0
 11
287.014793
 21
84.0
 31
0.0
  0
LINE
  5
C7
330
1A
100
AcDbEntity
  8
SUPPORT
100
AcDbLine
 10
270.014793
 20
0.0
 30
0.0
 11
270.014793
 21
84.0
 31
0.0
  0
LINE
  5
C8
330
1A
100
AcDbEntity
  8
SUPPORT
100
AcDbLine
 10
302.014793
 20
0.0
 30
0.0
 11
302.014793
 21
84.0
 31
0.0
  0
LINE
  5
CB
330
1A
100
AcDbEntity
  8
AXIS
100
AcDbLine
 10
238.6683
 20
42.0
 30
0.0
 11
331.056029
 21
42.0
 31
0.0
  0
CIRCLE
  5
DE
330
1A
100
AcDbEntity
  8
SUPPORT
100
AcDbCircle
 10
44.0
 20
-64.15000000000001
 30
0.0
 40
24.15
  0
LINE
  5
DF
330
1A
100
AcDbEntity
  8
SUPPORT
  6
DASHED
100
AcDbLine
 10
68.15000000000001
 20
0.0
 30
0.0
 11
68.15000000000001
 21
84.0
 31
0.0
  0
LINE
  5
E0
330
1A
100
AcDbEntity
  8
SUPPORT
  6
DASHED
100
AcDbLine
 10
19.85
 20
0.0
 30
0.0
 11
19.85
 21
84.0
 31
0.0
  0
LINE
  5
E1
330
1A
100
AcDbEntity
  8
SUPPORT
  6
DASHED
100
AcDbLine
 10
261.864793
 20
0.0
 30
0.0
 11
261.864793
 21
84.0
 31
0.0
  0
LINE
  5
E2
330
1A
100
AcDbEntity
  8
SUPPORT
  6
DASHED
100
AcDbLine
 10
310.164793
 20
0.0
 30
0.0
 11
310.164793
 21
84.0
 31
0.0
  0
CIRCLE
  5
E6
330
1A
100
AcDbEntity
  8
SUPPORT
  6
DASHED
100
AcDbCircle
 10
286.014793
 20
42.0
 30
0.0
 40
19.05
  0
LINE
  5
E7
330
1A
100
AcDbEntity
  8
SUPPORT
  6
DASHED
100
AcDbLine
 10
74.0
 20
-45.1
 30
0.0
 11
134.0
 21
-45.1
 31
0.0
  0
LINE
  5
E8
330
1A
100
AcDbEntity
  8
SUPPORT
  6
DASHED
100
AcDbLine
 10
74.0
 20
-83.2
 30
0.0
 11
134.0
 21
-83.2
 31
0.0
  0
ENDSEC
  0
SECTION
  2
OBJECTS
  0
DICTIONARY
  5
C
330
0
100
AcDbDictionary
  3
ACAD_GROUP
350
D
  3
ACAD_LAYOUT
350
F1
  3
ACAD_MLINESTYLE
350
E
1001
ACAD
1000
TREAT_AS_HARD
1070
     0
  0
DICTIONARY
  5
16F
330
F0
100
AcDbDictionary
  3
ACAD_XREC_ROUNDTRIP
360
170
  0
DICTIONARY
  5
D
102
{ACAD_REACTORS
330
C
102
}
330
C
100
AcDbDictionary
1001
ACAD
1000
TREAT_AS_HARD
1070
     0
  0
DICTIONARY
  5
F1
102
{ACAD_REACTORS
330
C
102
}
330
C
100
AcDbDictionary
1001
ACAD
1000
TREAT_AS_HARD
1070
     0
  0
DICTIONARY
  5
E
102
{ACAD_REACTORS
330
C
102
}
330
C
100
AcDbDictionary
  3
STANDARD
350
13
1001
ACAD
1000
TREAT_AS_HARD
1070
     0
  0
XRECORD
  5
170
102
{ACAD_REACTORS
330
16F
102
}
330
16F
100
AcDbXrecord
102
UCS
 74
     0
 71
     1
 10
0.0
 20
0.0
 30
0.0
 10
1.0
 20
0.0
 30
0.0
 10
0.0
 20
1.0
 30
0.0
146
0.0
 79
     0
102
VIEW
281
     0
  0
MLINESTYLE
  5
13
102
{ACAD_REACTORS
330
E
102
}
330
E
100
AcDbMlineStyle
  2
STANDARD
 70
     0
  3

 62
     0
 51
90.0
 52
90.0
 71
     2
 49
0.5
 62
   256
  6
BYLAYER
 49
-0.5
 62
   256
  6
BYLAYER
  0
ENDSEC
  0
EOF
