  0
SECTION
  2
HEADER
  9
$ACADVER
  1
AC1012
  9
$DWGCODEPAGE
  3
ansi_1252
  9
$INSBASE
 10
0.0
 20
0.0
 30
0.0
  9
$EXTMIN
 10
-57.5
 20
-24.8166
 30
0.0
  9
$EXTMAX
 10
93.741569
 20
93.903578
 30
0.0
  9
$LIMMIN
 10
0.0
 20
0.0
  9
$LIMMAX
 10
12.0
 20
9.0
  9
$ORTHOMODE
 70
     1
  9
$REGENMODE
 70
     1
  9
$FILLMODE
 70
     1
  9
$QTEXTMODE
 70
     0
  9
$MIRRTEXT
 70
     1
  9
$DRAGMODE
 70
     2
  9
$LTSCALE
 40
1.0
  9
$OSMODE
 70
    37
  9
$ATTMODE
 70
     1
  9
$TEXTSIZE
 40
0.2
  9
$TRACEWID
 40
0.05
  9
$TEXTSTYLE
  7
STANDARD
  9
$CLAYER
  8
0
  9
$CELTYPE
  6
BYLAYER
  9
$CECOLOR
 62
   256
  9
$CELTSCALE
 40
1.0
  9
$DELOBJ
 70
     1
  9
$DISPSILH
 70
     0
  9
$DIMSCALE
 40
1.0
  9
$DIMASZ
 40
0.18
  9
$DIMEXO
 40
0.0625
  9
$DIMDLI
 40
0.38
  9
$DIMRND
 40
0.0
  9
$DIMDLE
 40
0.0
  9
$DIMEXE
 40
0.18
  9
$DIMTP
 40
0.0
  9
$DIMTM
 40
0.0
  9
$DIMTXT
 40
0.18
  9
$DIMCEN
 40
0.09
  9
$DIMTSZ
 40
0.0
  9
$DIMTOL
 70
     0
  9
$DIMLIM
 70
     0
  9
$DIMTIH
 70
     1
  9
$DIMTOH
 70
     1
  9
$DIMSE1
 70
     0
  9
$DIMSE2
 70
     0
  9
$DIMTAD
 70
     0
  9
$DIMZIN
 70
     0
  9
$DIMBLK
  1

  9
$DIMASO
 70
     1
  9
$DIMSHO
 70
     1
  9
$DIMPOST
  1

  9
$DIMAPOST
  1

  9
$DIMALT
 70
     0
  9
$DIMALTD
 70
     2
  9
$DIMALTF
 40
25.4
  9
$DIMLFAC
 40
1.0
  9
$DIMTOFL
 70
     0
  9
$DIMTVP
 40
0.0
  9
$DIMTIX
 70
     0
  9
$DIMSOXD
 70
     0
  9
$DIMSAH
 70
     0
  9
$DIMBLK1
  1

  9
$DIMBLK2
  1

  9
$DIMSTYLE
  2
STANDARD
  9
$DIMCLRD
 70
     0
  9
$DIMCLRE
 70
     0
  9
$DIMCLRT
 70
     0
  9
$DIMTFAC
 40
1.0
  9
$DIMGAP
 40
0.09
  9
$DIMJUST
 70
     0
  9
$DIMSD1
 70
     0
  9
$DIMSD2
 70
     0
  9
$DIMTOLJ
 70
     1
  9
$DIMTZIN
 70
     0
  9
$DIMALTZ
 70
     0
  9
$DIMALTTZ
 70
     0
  9
$DIMFIT
 70
     3
  9
$DIMUPT
 70
     0
  9
$DIMUNIT
 70
     2
  9
$DIMDEC
 70
     4
  9
$DIMTDEC
 70
     4
  9
$DIMALTU
 70
     2
  9
$DIMALTTD
 70
     2
  9
$DIMTXSTY
  7
STANDARD
  9
$DIMAUNIT
 70
     0
  9
$LUNITS
 70
     2
  9
$LUPREC
 70
     4
  9
$SKETCHINC
 40
0.1
  9
$FILLETRAD
 40
0.0
  9
$AUNITS
 70
     0
  9
$AUPREC
 70
     0
  9
$MENU
  1
acad
  9
$ELEVATION
 40
0.0
  9
$PELEVATION
 40
0.0
  9
$THICKNESS
 40
0.0
  9
$LIMCHECK
 70
     0
  9
$CHAMFERA
 40
0.0
  9
$CHAMFERB
 40
0.0
  9
$CHAMFERC
 40
0.0
  9
$CHAMFERD
 40
0.0
  9
$SKPOLY
 70
     0
  9
$TDCREATE
 40
2447893.083333334
  9
$TDUPDATE
 40
2447893.083333334
  9
$TDINDWG
 40
0.0028587963
  9
$TDUSRTIMER
 40
0.0028587963
  9
$USRTIMER
 70
     1
  9
$ANGBASE
 50
0.0
  9
$ANGDIR
 70
     0
  9
$PDMODE
 70
     0
  9
$PDSIZE
 40
0.0
  9
$PLINEWID
 40
0.0
  9
$COORDS
 70
     1
  9
$SPLFRAME
 70
     0
  9
$SPLINETYPE
 70
     6
  9
$SPLINESEGS
 70
     8
  9
$ATTDIA
 70
     0
  9
$ATTREQ
 70
     1
  9
$HANDLING
 70
     1
  9
$HANDSEED
  5
354
  9
$SURFTAB1
 70
     6
  9
$SURFTAB2
 70
     6
  9
$SURFTYPE
 70
     6
  9
$SURFU
 70
     6
  9
$SURFV
 70
     6
  9
$UCSNAME
  2

  9
$UCSORG
 10
0.0
 20
0.0
 30
0.0
  9
$UCSXDIR
 10
1.0
 20
0.0
 30
0.0
  9
$UCSYDIR
 10
0.0
 20
1.0
 30
0.0
  9
$PUCSNAME
  2

  9
$PUCSORG
 10
0.0
 20
0.0
 30
0.0
  9
$PUCSXDIR
 10
1.0
 20
0.0
 30
0.0
  9
$PUCSYDIR
 10
0.0
 20
1.0
 30
0.0
  9
$USERI1
 70
     0
  9
$USERI2
 70
     0
  9
$USERI3
 70
     0
  9
$USERI4
 70
     0
  9
$USERI5
 70
     0
  9
$USERR1
 40
0.0
  9
$USERR2
 40
0.0
  9
$USERR3
 40
0.0
  9
$USERR4
 40
0.0
  9
$USERR5
 40
0.0
  9
$WORLDVIEW
 70
     1
  9
$SHADEDGE
 70
     3
  9
$SHADEDIF
 70
    70
  9
$TILEMODE
 70
     1
  9
$MAXACTVP
 70
    16
  9
$PINSBASE
 10
0.0
 20
0.0
 30
0.0
  9
$PLIMCHECK
 70
     0
  9
$PEXTMIN
 10
1.000000000000000E+20
 20
1.000000000000000E+20
 30
1.000000000000000E+20
  9
$PEXTMAX
 10
-1.000000000000000E+20
 20
-1.000000000000000E+20
 30
-1.000000000000000E+20
  9
$PLIMMIN
 10
0.0
 20
0.0
  9
$PLIMMAX
 10
12.0
 20
9.0
  9
$UNITMODE
 70
     0
  9
$VISRETAIN
 70
     0
  9
$PLINEGEN
 70
     0
  9
$PSLTSCALE
 70
     1
  9
$TREEDEPTH
 70
  3020
  9
$PICKSTYLE
 70
     1
  9
$CMLSTYLE
  2
STANDARD
  9
$CMLJUST
 70
     0
  9
$CMLSCALE
 40
1.0
  9
$SAVEIMAGES
 70
     1
  0
ENDSEC
  0
SECTION
  2
CLASSES
  0
CLASS
  1
XRECORD
  2
AcDbXrecord
  3
AutoCAD 2000
 90
    32768
280
     0
281
     0
  0
CLASS
  1
LWPOLYLINE
  2
AcDbPolyline
  3
AutoCAD 2000
 90
    32768
280
     0
281
     1
  0
CLASS
  1
HATCH
  2
AcDbHatch
  3
AutoCAD 2000
 90
    32768
280
     0
281
     1
  0
CLASS
  1
ACDBPLACEHOLDER
  2
AcDbPlaceHolder
  3
ObjectDBX Classes
 90
        0
280
     0
281
     0
  0
CLASS
  1
LAYOUT
  2
AcDbLayout
  3
ObjectDBX Classes
 90
        0
280
     0
281
     0
  0
ENDSEC
  0
SECTION
  2
TABLES
  0
TABLE
  2
VPORT
  5
8
330
0
100
AcDbSymbolTable
 70
     1
  0
VPORT
  5
1F1
102
{ACAD_XDICTIONARY
360
352
102
}
330
8
100
AcDbSymbolTableRecord
100
AcDbViewportTableRecord
  2
*ACTIVE
 70
     0
 10
0.0
 20
0.0
 11
1.0
 21
1.0
 12
56.195604
 22
34.543489
 13
0.0
 23
0.0
 14
1.0
 24
1.0
 15
0.0
 25
0.0
 16
0.0
 26
0.0
 36
1.0
 17
0.0
 27
0.0
 37
0.0
 40
237.440357
 41
1.915354
 42
50.0
 43
0.0
 44
0.0
 50
0.0
 51
0.0
 71
     0
 72
   100
 73
     1
 74
     1
 75
     0
 76
     0
 77
     0
 78
     0
  0
ENDTAB
  0
TABLE
  2
LTYPE
  5
5
330
0
100
AcDbSymbolTable
 70
     2
  0
LTYPE
  5
14
330
5
100
AcDbSymbolTableRecord
100
AcDbLinetypeTableRecord
  2
BYBLOCK
 70
     0
  3

 72
    65
 73
     0
 40
0.0
  0
LTYPE
  5
15
330
5
100
AcDbSymbolTableRecord
100
AcDbLinetypeTableRecord
  2
BYLAYER
 70
     0
  3

 72
    65
 73
     0
 40
0.0
  0
LTYPE
  5
16
330
5
100
AcDbSymbolTableRecord
100
AcDbLinetypeTableRecord
  2
CONTINUOUS
 70
     0
  3
Solid line
 72
    65
 73
     0
 40
0.0
  0
LTYPE
  5
28
330
5
100
AcDbSymbolTableRecord
100
AcDbLinetypeTableRecord
  2
DASHDOT
 70
     0
  3
__ . __ . __ . __ . __ . __ . __ . __ . __ . __
 72
    65
 73
     4
 40
1.0
 49
0.5
 74
     0
 49
-0.25
 74
     0
 49
0.0
 74
     0
 49
-0.25
 74
     0
  0
ENDTAB
  0
TABLE
  2
LAYER
  5
2
330
0
100
AcDbSymbolTable
 70
     3
  0
LAYER
  5
F
330
2
100
AcDbSymbolTableRecord
100
AcDbLayerTableRecord
  2
0
 70
     0
 62
     7
  6
CONTINUOUS
  0
LAYER
  5
29
330
2
100
AcDbSymbolTableRecord
100
AcDbLayerTableRecord
  2
CONNECT
 70
     0
 62
     7
  6
CONTINUOUS
  0
LAYER
  5
2A
330
2
100
AcDbSymbolTableRecord
100
AcDbLayerTableRecord
  2
AXIS
 70
     0
 62
     1
  6
DASHDOT
  0
ENDTAB
  0
TABLE
  2
STYLE
  5
3
330
0
100
AcDbSymbolTable
 70
     1
  0
STYLE
  5
10
330
3
100
AcDbSymbolTableRecord
100
AcDbTextStyleTableRecord
  2
STANDARD
 70
     0
 40
0.0
 41
1.0
 50
0.0
 71
     0
 42
0.2
  3
txt
  4

  0
ENDTAB
  0
TABLE
  2
VIEW
  5
6
330
0
100
AcDbSymbolTable
 70
     0
  0
ENDTAB
  0
TABLE
  2
UCS
  5
7
330
0
100
AcDbSymbolTable
 70
     0
  0
ENDTAB
  0
TABLE
  2
APPID
  5
9
330
0
100
AcDbSymbolTable
 70
     1
  0
APPID
  5
11
330
9
100
AcDbSymbolTableRecord
100
AcDbRegAppTableRecord
  2
ACAD
 70
     0
  0
ENDTAB
  0
TABLE
  2
DIMSTYLE
  5
A
330
0
100
AcDbSymbolTable
 70
     1
  0
DIMSTYLE
105
1D
330
A
100
AcDbSymbolTableRecord
100
AcDbDimStyleTableRecord
  2
STANDARD
 70
     0
  3

  4

  5

  6

  7

 40
1.0
 41
0.18
 42
0.0625
 43
0.38
 44
0.18
 45
0.0
 46
0.0
 47
0.0
 48
0.0
140
0.18
141
0.09
142
0.0
143
25.4
144
1.0
145
0.0
146
1.0
147
0.09
 71
     0
 72
     0
 73
     1
 74
     1
 75
     0
 76
     0
 77
     0
 78
     0
170
     0
171
     2
172
     0
173
     0
174
     0
175
     0
176
     0
177
     0
178
     0
270
     2
271
     4
272
     4
273
     2
274
     2
340
10
275
     0
280
     0
281
     0
282
     0
283
     1
284
     0
285
     0
286
     0
287
     3
288
     0
  0
ENDTAB
  0
TABLE
  2
BLOCK_RECORD
  5
1
330
0
100
AcDbSymbolTable
 70
     0
  0
BLOCK_RECORD
  5
1A
330
1
100
AcDbSymbolTableRecord
100
AcDbBlockTableRecord
  2
*MODEL_SPACE
  0
BLOCK_RECORD
  5
17
330
1
100
AcDbSymbolTableRecord
100
AcDbBlockTableRecord
  2
*PAPER_SPACE
  0
ENDTAB
  0
ENDSEC
  0
SECTION
  2
BLOCKS
  0
BLOCK
  5
1B
330
1A
100
AcDbEntity
  8
0
100
AcDbBlockBegin
  2
*MODEL_SPACE
 70
     0
 71
     0
 10
0.0
 20
0.0
 30
0.0
  3
*MODEL_SPACE
  1

  0
ENDBLK
  5
1C
330
1A
100
AcDbEntity
  8
0
100
AcDbBlockEnd
  0
BLOCK
  5
18
330
17
100
AcDbEntity
 67
     1
  8
0
100
AcDbBlockBegin
  2
*PAPER_SPACE
 70
     0
 71
     0
 10
0.0
 20
0.0
 30
0.0
  3
*PAPER_SPACE
  1

  0
ENDBLK
  5
19
330
17
100
AcDbEntity
 67
     1
  8
0
100
AcDbBlockEnd
  0
ENDSEC
  0
SECTION
  2
ENTITIES
  0
LINE
  5
117
330
1A
100
AcDbEntity
  8
CONNECT
100
AcDbLine
 10
-40.034926
 20
6.1834
 30
0.0
 11
19.965074
 21
6.1834
 31
0.0
  0
LINE
  5
118
330
1A
100
AcDbEntity
  8
CONNECT
100
AcDbLine
 10
-40.034926
 20
-13.8166
 30
0.0
 11
19.965074
 21
-13.8166
 31
0.0
  0
LINE
  5
119
330
1A
100
AcDbEntity
  8
CONNECT
100
AcDbLine
 10
-40.034926
 20
6.1834
 30
0.0
 11
-40.034926
 21
-13.8166
 31
0.0
  0
LINE
  5
11A
330
1A
100
AcDbEntity
  8
CONNECT
100
AcDbLine
 10
19.965074
 20
6.1834
 30
0.0
 11
19.965074
 21
-13.8166
 31
0.0
  0
LINE
  5
11B
330
1A
100
AcDbEntity
  8
CONNECT
100
AcDbLine
 10
-11.034926
 20
6.1834
 30
0.0
 11
-11.034926
 21
-13.8166
 31
0.0
  0
LINE
  5
11C
330
1A
100
AcDbEntity
  8
CONNECT
100
AcDbLine
 10
-9.034926000000001
 20
6.1834
 30
0.0
 11
-9.034926000000001
 21
-13.8166
 31
0.0
  0
LINE
  5
11D
330
1A
100
AcDbEntity
  8
AXIS
100
AcDbLine
 10
-10.034926
 20
-24.8166
 30
0.0
 11
-10.034926
 21
17.1834
 31
0.0
  0
POLYLINE
  5
11E
330
1A
100
AcDbEntity
  8
CONNECT
100
AcDb2dPolyline
 66
     1
 10
0.0
 20
0.0
 30
0.0
 70
     1
  0
VERTEX
  5
2B8
330
11E
100
AcDbEntity
  8
CONNECT
100
AcDbVertex
100
AcDb2dVertex
 10
-44.034926
 20
-7.8166
 30
0.0
  0
VERTEX
  5
2B9
330
11E
100
AcDbEntity
  8
CONNECT
100
AcDbVertex
100
AcDb2dVertex
 10
-44.034926
 20
0.1834
 30
0.0
  0
VERTEX
  5
2BA
330
11E
100
AcDbEntity
  8
CONNECT
100
AcDbVertex
100
AcDb2dVertex
 10
-41.034926
 20
0.1834
 30
0.0
  0
VERTEX
  5
2BB
330
11E
100
AcDbEntity
  8
CONNECT
100
AcDbVertex
100
AcDb2dVertex
 10
-41.034926
 20
-7.8166
 30
0.0
  0
SEQEND
  5
2B7
330
11E
100
AcDbEntity
  8
CONNECT
  0
POLYLINE
  5
124
330
1A
100
AcDbEntity
  8
CONNECT
100
AcDb2dPolyline
 66
     1
 10
0.0
 20
0.0
 30
0.0
 70
     1
  0
VERTEX
  5
2BD
330
124
100
AcDbEntity
  8
CONNECT
100
AcDbVertex
100
AcDb2dVertex
 10
-44.034926
 20
-6.8166
 30
0.0
  0
VERTEX
  5
2BE
330
124
100
AcDbEntity
  8
CONNECT
100
AcDbVertex
100
AcDb2dVertex
 10
-44.034926
 20
-0.8166
 30
0.0
  0
VERTEX
  5
2BF
330
124
100
AcDbEntity
  8
CONNECT
100
AcDbVertex
100
AcDb2dVertex
 10
-41.034926
 20
-0.8166
 30
0.0
  0
VERTEX
  5
2C0
330
124
100
AcDbEntity
  8
CONNECT
100
AcDbVertex
100
AcDb2dVertex
 10
-41.034926
 20
-6.8166
 30
0.0
  0
SEQEND
  5
2BC
330
124
100
AcDbEntity
  8
CONNECT
  0
POLYLINE
  5
12A
330
1A
100
AcDbEntity
  8
CONNECT
100
AcDb2dPolyline
 66
     1
 10
0.0
 20
0.0
 30
0.0
 70
     1
  0
VERTEX
  5
2C2
330
12A
100
AcDbEntity
  8
CONNECT
100
AcDbVertex
100
AcDb2dVertex
 10
19.965074
 20
-6.8166
 30
0.0
  0
VERTEX
  5
2C3
330
12A
100
AcDbEntity
  8
CONNECT
100
AcDbVertex
100
AcDb2dVertex
 10
19.965074
 20
-0.8166
 30
0.0
  0
VERTEX
  5
2C4
330
12A
100
AcDbEntity
  8
CONNECT
100
AcDbVertex
100
AcDb2dVertex
 10
22.965074
 20
-0.8166
 30
0.0
  0
VERTEX
  5
2C5
330
12A
100
AcDbEntity
  8
CONNECT
100
AcDbVertex
100
AcDb2dVertex
 10
22.965074
 20
-6.8166
 30
0.0
  0
SEQEND
  5
2C1
330
12A
100
AcDbEntity
  8
CONNECT
  0
POLYLINE
  5
130
330
1A
100
AcDbEntity
  8
CONNECT
100
AcDb2dPolyline
 66
     1
 10
0.0
 20
0.0
 30
0.0
 70
     1
  0
VERTEX
  5
2C7
330
130
100
AcDbEntity
  8
CONNECT
100
AcDbVertex
100
AcDb2dVertex
 10
19.965074
 20
-7.8166
 30
0.0
  0
VERTEX
  5
2C8
330
130
100
AcDbEntity
  8
CONNECT
100
AcDbVertex
100
AcDb2dVertex
 10
19.965074
 20
0.1834
 30
0.0
  0
VERTEX
  5
2C9
330
130
100
AcDbEntity
  8
CONNECT
100
AcDbVertex
100
AcDb2dVertex
 10
22.965074
 20
0.1834
 30
0.0
  0
VERTEX
  5
2CA
330
130
100
AcDbEntity
  8
CONNECT
100
AcDbVertex
100
AcDb2dVertex
 10
22.965074
 20
-7.8166
 30
0.0
  0
SEQEND
  5
2C6
330
130
100
AcDbEntity
  8
CONNECT
  0
LINE
  5
136
330
1A
100
AcDbEntity
  8
CONNECT
100
AcDbLine
 10
-45.438817
 20
-6.812693
 30
0.0
 11
-45.438817
 21
-0.820508
 31
0.0
  0
LINE
  5
137
330
1A
100
AcDbEntity
  8
CONNECT
100
AcDbLine
 10
-44.034926
 20
0.1834
 30
0.0
 11
-45.438817
 21
-0.820508
 31
0.0
  0
LINE
  5
138
330
1A
100
AcDbEntity
  8
CONNECT
100
AcDbLine
 10
-44.034926
 20
-7.8166
 30
0.0
 11
-45.438817
 21
-6.812693
 31
0.0
  0
POLYLINE
  5
139
330
1A
100
AcDbEntity
  8
CONNECT
100
AcDb2dPolyline
 66
     1
 10
0.0
 20
0.0
 30
0.0
 70
     1
  0
VERTEX
  5
2CC
330
139
100
AcDbEntity
  8
CONNECT
100
AcDbVertex
100
AcDb2dVertex
 10
-41.034926
 20
-8.816599999999999
 30
0.0
  0
VERTEX
  5
2CD
330
139
100
AcDbEntity
  8
CONNECT
100
AcDbVertex
100
AcDb2dVertex
 10
-41.034926
 20
1.1834
 30
0.0
  0
VERTEX
  5
2CE
330
139
100
AcDbEntity
  8
CONNECT
100
AcDbVertex
100
AcDb2dVertex
 10
-40.034926
 20
1.1834
 30
0.0
  0
VERTEX
  5
2CF
330
139
100
AcDbEntity
  8
CONNECT
100
AcDbVertex
100
AcDb2dVertex
 10
-40.034926
 20
-8.816599999999999
 30
0.0
  0
SEQEND
  5
2CB
330
139
100
AcDbEntity
  8
CONNECT
  0
POLYLINE
  5
13F
330
1A
100
AcDbEntity
  8
CONNECT
100
AcDb2dPolyline
 66
     1
 10
0.0
 20
0.0
 30
0.0
 70
     1
  0
VERTEX
  5
2D1
330
13F
100
AcDbEntity
  8
CONNECT
100
AcDbVertex
100
AcDb2dVertex
 10
-51.732671
 20
-4.8166
 30
0.0
  0
VERTEX
  5
2D2
330
13F
100
AcDbEntity
  8
CONNECT
100
AcDbVertex
100
AcDb2dVertex
 10
-51.732671
 20
-2.8166
 30
0.0
  0
VERTEX
  5
2D3
330
13F
100
AcDbEntity
  8
CONNECT
100
AcDbVertex
100
AcDb2dVertex
 10
-50.732671
 20
-1.8166
 30
0.0
  0
VERTEX
  5
2D4
330
13F
100
AcDbEntity
  8
CONNECT
100
AcDbVertex
100
AcDb2dVertex
 10
-45.438817
 20
-1.8166
 30
0.0
  0
VERTEX
  5
2D5
330
13F
100
AcDbEntity
  8
CONNECT
100
AcDbVertex
100
AcDb2dVertex
 10
-45.438817
 20
-5.8166
 30
0.0
  0
VERTEX
  5
2D6
330
13F
100
AcDbEntity
  8
CONNECT
100
AcDbVertex
100
AcDb2dVertex
 10
-50.732671
 20
-5.8166
 30
0.0
  0
SEQEND
  5
2D0
330
13F
100
AcDbEntity
  8
CONNECT
  0
LINE
  5
147
330
1A
100
AcDbEntity
  8
CONNECT
100
AcDbLine
 10
-50.732671
 20
-1.8166
 30
0.0
 11
-50.732671
 21
-5.8166
 31
0.0
  0
POLYLINE
  5
148
330
1A
100
AcDbEntity
  8
0
100
AcDb2dPolyline
 66
     1
 10
0.0
 20
0.0
 30
0.0
  0
VERTEX
  5
2D8
330
148
100
AcDbEntity
  8
0
100
AcDbVertex
100
AcDb2dVertex
 10
64.339191
 20
-84.81659999999999
 30
0.0
  0
VERTEX
  5
2D9
330
148
100
AcDbEntity
  8
0
100
AcDbVertex
100
AcDb2dVertex
 10
64.339191
 20
-84.81659999999999
 30
0.0
  0
SEQEND
  5
2D7
330
148
100
AcDbEntity
  8
0
  0
POLYLINE
  5
14B
330
1A
100
AcDbEntity
  8
CONNECT
100
AcDb2dPolyline
 66
     1
 10
0.0
 20
0.0
 30
0.0
  0
VERTEX
  5
2DB
330
14B
100
AcDbEntity
  8
CONNECT
100
AcDbVertex
100
AcDb2dVertex
 10
-11.034926
 20
-1.8166
 30
0.0
  0
VERTEX
  5
2DC
330
14B
100
AcDbEntity
  8
CONNECT
100
AcDbVertex
100
AcDb2dVertex
 10
-9.034926000000001
 20
-1.8166
 30
0.0
  0
SEQEND
  5
2DA
330
14B
100
AcDbEntity
  8
CONNECT
  0
POLYLINE
  5
14F
330
1A
100
AcDbEntity
  8
CONNECT
100
AcDb2dPolyline
 66
     1
 10
0.0
 20
0.0
 30
0.0
  0
VERTEX
  5
2DE
330
14F
100
AcDbEntity
  8
CONNECT
100
AcDbVertex
100
AcDb2dVertex
 10
-9.034926000000001
 20
-5.8166
 30
0.0
  0
VERTEX
  5
2DF
330
14F
100
AcDbEntity
  8
CONNECT
100
AcDbVertex
100
AcDb2dVertex
 10
-11.034926
 20
-5.8166
 30
0.0
  0
SEQEND
  5
2DD
330
14F
100
AcDbEntity
  8
CONNECT
  0
LINE
  5
153
330
1A
100
AcDbEntity
  8
AXIS
100
AcDbLine
 10
-57.5
 20
-3.8166
 30
0.0
 11
29.465074
 21
-3.8166
 31
0.0
  0
LINE
  5
154
330
1A
100
AcDbEntity
  8
AXIS
 48
10.0
100
AcDbLine
 10
-10.034926
 20
40.196471
 30
0.0
 11
-10.034926
 21
82.196471
 31
0.0
  0
LINE
  5
155
330
1A
100
AcDbEntity
  8
AXIS
 48
10.0
100
AcDbLine
 10
-31.534926
 20
61.196471
 30
0.0
 11
11.465074
 21
61.196471
 31
0.0
  0
ARC
  5
156
330
1A
100
AcDbEntity
  8
CONNECT
100
AcDbCircle
 10
-10.034926
 20
61.196471
 30
0.0
 40
19.0
100
AcDbArc
 50
93.016961
 51
266.983039
  0
LINE
  5
157
330
1A
100
AcDbEntity
  8
CONNECT
100
AcDbLine
 10
-9.034926000000001
 20
28.696471
 30
0.0
 11
-9.034926000000001
 21
42.222805
 31
0.0
  0
LINE
  5
158
330
1A
100
AcDbEntity
  8
CONNECT
100
AcDbLine
 10
-11.034926
 20
28.696471
 30
0.0
 11
-11.034926
 21
42.222805
 31
0.0
  0
POLYLINE
  5
159
330
1A
100
AcDbEntity
  8
CONNECT
100
AcDb2dPolyline
 66
     1
 10
0.0
 20
0.0
 30
0.0
 70
     1
  0
VERTEX
  5
2E1
330
159
100
AcDbEntity
  8
CONNECT
100
AcDbVertex
100
AcDb2dVertex
 10
-44.034926
 20
82.196471
 30
0.0
  0
VERTEX
  5
2E2
330
159
100
AcDbEntity
  8
CONNECT
100
AcDbVertex
100
AcDb2dVertex
 10
-44.034926
 20
90.196471
 30
0.0
  0
VERTEX
  5
2E3
330
159
100
AcDbEntity
  8
CONNECT
100
AcDbVertex
100
AcDb2dVertex
 10
-41.034926
 20
90.196471
 30
0.0
  0
VERTEX
  5
2E4
330
159
100
AcDbEntity
  8
CONNECT
100
AcDbVertex
100
AcDb2dVertex
 10
-41.034926
 20
82.196471
 30
0.0
  0
SEQEND
  5
2E0
330
159
100
AcDbEntity
  8
CONNECT
  0
POLYLINE
  5
15F
330
1A
100
AcDbEntity
  8
CONNECT
100
AcDb2dPolyline
 66
     1
 10
0.0
 20
0.0
 30
0.0
 70
     1
  0
VERTEX
  5
2E6
330
15F
100
AcDbEntity
  8
CONNECT
100
AcDbVertex
100
AcDb2dVertex
 10
-44.034926
 20
83.196471
 30
0.0
  0
VERTEX
  5
2E7
330
15F
100
AcDbEntity
  8
CONNECT
100
AcDbVertex
100
AcDb2dVertex
 10
-44.034926
 20
89.196471
 30
0.0
  0
VERTEX
  5
2E8
330
15F
100
AcDbEntity
  8
CONNECT
100
AcDbVertex
100
AcDb2dVertex
 10
-41.034926
 20
89.196471
 30
0.0
  0
VERTEX
  5
2E9
330
15F
100
AcDbEntity
  8
CONNECT
100
AcDbVertex
100
AcDb2dVertex
 10
-41.034926
 20
83.196471
 30
0.0
  0
SEQEND
  5
2E5
330
15F
100
AcDbEntity
  8
CONNECT
  0
POLYLINE
  5
165
330
1A
100
AcDbEntity
  8
CONNECT
100
AcDb2dPolyline
 66
     1
 10
0.0
 20
0.0
 30
0.0
 70
     1
  0
VERTEX
  5
2EB
330
165
100
AcDbEntity
  8
CONNECT
100
AcDbVertex
100
AcDb2dVertex
 10
19.965074
 20
83.196471
 30
0.0
  0
VERTEX
  5
2EC
330
165
100
AcDbEntity
  8
CONNECT
100
AcDbVertex
100
AcDb2dVertex
 10
19.965074
 20
89.196471
 30
0.0
  0
VERTEX
  5
2ED
330
165
100
AcDbEntity
  8
CONNECT
100
AcDbVertex
100
AcDb2dVertex
 10
22.965074
 20
89.196471
 30
0.0
  0
VERTEX
  5
2EE
330
165
100
AcDbEntity
  8
CONNECT
100
AcDbVertex
100
AcDb2dVertex
 10
22.965074
 20
83.196471
 30
0.0
  0
SEQEND
  5
2EA
330
165
100
AcDbEntity
  8
CONNECT
  0
POLYLINE
  5
16B
330
1A
100
AcDbEntity
  8
CONNECT
100
AcDb2dPolyline
 66
     1
 10
0.0
 20
0.0
 30
0.0
 70
     1
  0
VERTEX
  5
2F0
330
16B
100
AcDbEntity
  8
CONNECT
100
AcDbVertex
100
AcDb2dVertex
 10
19.965074
 20
82.196471
 30
0.0
  0
VERTEX
  5
2F1
330
16B
100
AcDbEntity
  8
CONNECT
100
AcDbVertex
100
AcDb2dVertex
 10
19.965074
 20
90.196471
 30
0.0
  0
VERTEX
  5
2F2
330
16B
100
AcDbEntity
  8
CONNECT
100
AcDbVertex
100
AcDb2dVertex
 10
22.965074
 20
90.196471
 30
0.0
  0
VERTEX
  5
2F3
330
16B
100
AcDbEntity
  8
CONNECT
100
AcDbVertex
100
AcDb2dVertex
 10
22.965074
 20
82.196471
 30
0.0
  0
SEQEND
  5
2EF
330
16B
100
AcDbEntity
  8
CONNECT
  0
LINE
  5
171
330
1A
100
AcDbEntity
  8
CONNECT
100
AcDbLine
 10
-45.438817
 20
83.200379
 30
0.0
 11
-45.438817
 21
89.192564
 31
0.0
  0
LINE
  5
172
330
1A
100
AcDbEntity
  8
CONNECT
100
AcDbLine
 10
-44.034926
 20
90.196471
 30
0.0
 11
-45.438817
 21
89.192564
 31
0.0
  0
LINE
  5
173
330
1A
100
AcDbEntity
  8
CONNECT
100
AcDbLine
 10
-44.034926
 20
82.196471
 30
0.0
 11
-45.438817
 21
83.200379
 31
0.0
  0
POLYLINE
  5
174
330
1A
100
AcDbEntity
  8
CONNECT
100
AcDb2dPolyline
 66
     1
 10
0.0
 20
0.0
 30
0.0
 70
     1
  0
VERTEX
  5
2F5
330
174
100
AcDbEntity
  8
CONNECT
100
AcDbVertex
100
AcDb2dVertex
 10
-41.034926
 20
81.196471
 30
0.0
  0
VERTEX
  5
2F6
330
174
100
AcDbEntity
  8
CONNECT
100
AcDbVertex
100
AcDb2dVertex
 10
-41.034926
 20
91.196471
 30
0.0
  0
VERTEX
  5
2F7
330
174
100
AcDbEntity
  8
CONNECT
100
AcDbVertex
100
AcDb2dVertex
 10
-40.034926
 20
91.196471
 30
0.0
  0
VERTEX
  5
2F8
330
174
100
AcDbEntity
  8
CONNECT
100
AcDbVertex
100
AcDb2dVertex
 10
-40.034926
 20
81.196471
 30
0.0
  0
SEQEND
  5
2F4
330
174
100
AcDbEntity
  8
CONNECT
  0
POLYLINE
  5
17A
330
1A
100
AcDbEntity
  8
CONNECT
100
AcDb2dPolyline
 66
     1
 10
0.0
 20
0.0
 30
0.0
 70
     1
  0
VERTEX
  5
2FA
330
17A
100
AcDbEntity
  8
CONNECT
100
AcDbVertex
100
AcDb2dVertex
 10
-51.732671
 20
85.196471
 30
0.0
  0
VERTEX
  5
2FB
330
17A
100
AcDbEntity
  8
CONNECT
100
AcDbVertex
100
AcDb2dVertex
 10
-51.732671
 20
87.196471
 30
0.0
  0
VERTEX
  5
2FC
330
17A
100
AcDbEntity
  8
CONNECT
100
AcDbVertex
100
AcDb2dVertex
 10
-50.732671
 20
88.196471
 30
0.0
  0
VERTEX
  5
2FD
330
17A
100
AcDbEntity
  8
CONNECT
100
AcDbVertex
100
AcDb2dVertex
 10
-45.438817
 20
88.196471
 30
0.0
  0
VERTEX
  5
2FE
330
17A
100
AcDbEntity
  8
CONNECT
100
AcDbVertex
100
AcDb2dVertex
 10
-45.438817
 20
84.196471
 30
0.0
  0
VERTEX
  5
2FF
330
17A
100
AcDbEntity
  8
CONNECT
100
AcDbVertex
100
AcDb2dVertex
 10
-50.732671
 20
84.196471
 30
0.0
  0
SEQEND
  5
2F9
330
17A
100
AcDbEntity
  8
CONNECT
  0
LINE
  5
182
330
1A
100
AcDbEntity
  8
CONNECT
100
AcDbLine
 10
-50.732671
 20
88.196471
 30
0.0
 11
-50.732671
 21
84.196471
 31
0.0
  0
POLYLINE
  5
183
330
1A
100
AcDbEntity
  8
CONNECT
100
AcDb2dPolyline
 66
     1
 10
0.0
 20
0.0
 30
0.0
 70
     1
  0
VERTEX
  5
301
330
183
100
AcDbEntity
  8
CONNECT
100
AcDbVertex
100
AcDb2dVertex
 10
-51.732671
 20
37.196471
 30
0.0
  0
VERTEX
  5
302
330
183
100
AcDbEntity
  8
CONNECT
100
AcDbVertex
100
AcDb2dVertex
 10
-51.732671
 20
35.196471
 30
0.0
  0
VERTEX
  5
303
330
183
100
AcDbEntity
  8
CONNECT
100
AcDbVertex
100
AcDb2dVertex
 10
-50.732671
 20
34.196471
 30
0.0
  0
VERTEX
  5
304
330
183
100
AcDbEntity
  8
CONNECT
100
AcDbVertex
100
AcDb2dVertex
 10
-45.438817
 20
34.196471
 30
0.0
  0
VERTEX
  5
305
330
183
100
AcDbEntity
  8
CONNECT
100
AcDbVertex
100
AcDb2dVertex
 10
-45.438817
 20
38.196471
 30
0.0
  0
VERTEX
  5
306
330
183
100
AcDbEntity
  8
CONNECT
100
AcDbVertex
100
AcDb2dVertex
 10
-50.732671
 20
38.196471
 30
0.0
  0
SEQEND
  5
300
330
183
100
AcDbEntity
  8
CONNECT
  0
LINE
  5
18B
330
1A
100
AcDbEntity
  8
CONNECT
100
AcDbLine
 10
-50.732671
 20
34.196471
 30
0.0
 11
-50.732671
 21
38.196471
 31
0.0
  0
POLYLINE
  5
18C
330
1A
100
AcDbEntity
  8
CONNECT
100
AcDb2dPolyline
 66
     1
 10
0.0
 20
0.0
 30
0.0
 70
     1
  0
VERTEX
  5
308
330
18C
100
AcDbEntity
  8
CONNECT
100
AcDbVertex
100
AcDb2dVertex
 10
-41.034926
 20
41.196471
 30
0.0
  0
VERTEX
  5
309
330
18C
100
AcDbEntity
  8
CONNECT
100
AcDbVertex
100
AcDb2dVertex
 10
-41.034926
 20
31.196471
 30
0.0
  0
VERTEX
  5
30A
330
18C
100
AcDbEntity
  8
CONNECT
100
AcDbVertex
100
AcDb2dVertex
 10
-40.034926
 20
31.196471
 30
0.0
  0
VERTEX
  5
30B
330
18C
100
AcDbEntity
  8
CONNECT
100
AcDbVertex
100
AcDb2dVertex
 10
-40.034926
 20
41.196471
 30
0.0
  0
SEQEND
  5
307
330
18C
100
AcDbEntity
  8
CONNECT
  0
POLYLINE
  5
192
330
1A
100
AcDbEntity
  8
CONNECT
100
AcDb2dPolyline
 66
     1
 10
0.0
 20
0.0
 30
0.0
 70
     1
  0
VERTEX
  5
30D
330
192
100
AcDbEntity
  8
CONNECT
100
AcDbVertex
100
AcDb2dVertex
 10
-44.034926
 20
40.196471
 30
0.0
  0
VERTEX
  5
30E
330
192
100
AcDbEntity
  8
CONNECT
100
AcDbVertex
100
AcDb2dVertex
 10
-44.034926
 20
32.196471
 30
0.0
  0
VERTEX
  5
30F
330
192
100
AcDbEntity
  8
CONNECT
100
AcDbVertex
100
AcDb2dVertex
 10
-41.034926
 20
32.196471
 30
0.0
  0
VERTEX
  5
310
330
192
100
AcDbEntity
  8
CONNECT
100
AcDbVertex
100
AcDb2dVertex
 10
-41.034926
 20
40.196471
 30
0.0
  0
SEQEND
  5
30C
330
192
100
AcDbEntity
  8
CONNECT
  0
POLYLINE
  5
198
330
1A
100
AcDbEntity
  8
CONNECT
100
AcDb2dPolyline
 66
     1
 10
0.0
 20
0.0
 30
0.0
 70
     1
  0
VERTEX
  5
312
330
198
100
AcDbEntity
  8
CONNECT
100
AcDbVertex
100
AcDb2dVertex
 10
-44.034926
 20
39.196471
 30
0.0
  0
VERTEX
  5
313
330
198
100
AcDbEntity
  8
CONNECT
100
AcDbVertex
100
AcDb2dVertex
 10
-44.034926
 20
33.196471
 30
0.0
  0
VERTEX
  5
314
330
198
100
AcDbEntity
  8
CONNECT
100
AcDbVertex
100
AcDb2dVertex
 10
-41.034926
 20
33.196471
 30
0.0
  0
VERTEX
  5
315
330
198
100
AcDbEntity
  8
CONNECT
100
AcDbVertex
100
AcDb2dVertex
 10
-41.034926
 20
39.196471
 30
0.0
  0
SEQEND
  5
311
330
198
100
AcDbEntity
  8
CONNECT
  0
LINE
  5
19E
330
1A
100
AcDbEntity
  8
CONNECT
100
AcDbLine
 10
-45.438817
 20
39.192564
 30
0.0
 11
-45.438817
 21
33.200379
 31
0.0
  0
LINE
  5
19F
330
1A
100
AcDbEntity
  8
CONNECT
100
AcDbLine
 10
-44.034926
 20
40.196471
 30
0.0
 11
-45.438817
 21
39.192564
 31
0.0
  0
LINE
  5
1A0
330
1A
100
AcDbEntity
  8
CONNECT
100
AcDbLine
 10
-44.034926
 20
32.196471
 30
0.0
 11
-45.438817
 21
33.200379
 31
0.0
  0
POLYLINE
  5
1A1
330
1A
100
AcDbEntity
  8
CONNECT
100
AcDb2dPolyline
 66
     1
 10
0.0
 20
0.0
 30
0.0
 70
     1
  0
VERTEX
  5
317
330
1A1
100
AcDbEntity
  8
CONNECT
100
AcDbVertex
100
AcDb2dVertex
 10
19.965074
 20
40.196471
 30
0.0
  0
VERTEX
  5
318
330
1A1
100
AcDbEntity
  8
CONNECT
100
AcDbVertex
100
AcDb2dVertex
 10
19.965074
 20
32.196471
 30
0.0
  0
VERTEX
  5
319
330
1A1
100
AcDbEntity
  8
CONNECT
100
AcDbVertex
100
AcDb2dVertex
 10
22.965074
 20
32.196471
 30
0.0
  0
VERTEX
  5
31A
330
1A1
100
AcDbEntity
  8
CONNECT
100
AcDbVertex
100
AcDb2dVertex
 10
22.965074
 20
40.196471
 30
0.0
  0
SEQEND
  5
316
330
1A1
100
AcDbEntity
  8
CONNECT
  0
POLYLINE
  5
1A7
330
1A
100
AcDbEntity
  8
CONNECT
100
AcDb2dPolyline
 66
     1
 10
0.0
 20
0.0
 30
0.0
 70
     1
  0
VERTEX
  5
31C
330
1A7
100
AcDbEntity
  8
CONNECT
100
AcDbVertex
100
AcDb2dVertex
 10
19.965074
 20
39.196471
 30
0.0
  0
VERTEX
  5
31D
330
1A7
100
AcDbEntity
  8
CONNECT
100
AcDbVertex
100
AcDb2dVertex
 10
19.965074
 20
33.196471
 30
0.0
  0
VERTEX
  5
31E
330
1A7
100
AcDbEntity
  8
CONNECT
100
AcDbVertex
100
AcDb2dVertex
 10
22.965074
 20
33.196471
 30
0.0
  0
VERTEX
  5
31F
330
1A7
100
AcDbEntity
  8
CONNECT
100
AcDbVertex
100
AcDb2dVertex
 10
22.965074
 20
39.196471
 30
0.0
  0
SEQEND
  5
31B
330
1A7
100
AcDbEntity
  8
CONNECT
  0
POLYLINE
  5
1AD
330
1A
100
AcDbEntity
  8
CONNECT
100
AcDb2dPolyline
 66
     1
 10
0.0
 20
0.0
 30
0.0
  0
VERTEX
  5
321
330
1AD
100
AcDbEntity
  8
CONNECT
100
AcDbVertex
100
AcDb2dVertex
 10
-40.034926
 20
28.696471
 30
0.0
  0
VERTEX
  5
322
330
1AD
100
AcDbEntity
  8
CONNECT
100
AcDbVertex
100
AcDb2dVertex
 10
-40.034926
 20
93.696471
 30
0.0
  0
VERTEX
  5
323
330
1AD
100
AcDbEntity
  8
CONNECT
100
AcDbVertex
100
AcDb2dVertex
 10
-11.034926
 20
93.696471
 30
0.0
  0
SEQEND
  5
320
330
1AD
100
AcDbEntity
  8
CONNECT
  0
POLYLINE
  5
1B2
330
1A
100
AcDbEntity
  8
CONNECT
100
AcDb2dPolyline
 66
     1
 10
0.0
 20
0.0
 30
0.0
  0
VERTEX
  5
325
330
1B2
100
AcDbEntity
  8
CONNECT
100
AcDbVertex
100
AcDb2dVertex
 10
-9.034926000000001
 20
93.696471
 30
0.0
  0
VERTEX
  5
326
330
1B2
100
AcDbEntity
  8
CONNECT
100
AcDbVertex
100
AcDb2dVertex
 10
19.965074
 20
93.696471
 30
0.0
  0
VERTEX
  5
327
330
1B2
100
AcDbEntity
  8
CONNECT
100
AcDbVertex
100
AcDb2dVertex
 10
19.965074
 20
28.696471
 30
0.0
  0
VERTEX
  5
328
330
1B2
100
AcDbEntity
  8
CONNECT
100
AcDbVertex
100
AcDb2dVertex
 10
-9.034926000000001
 20
28.696471
 30
0.0
  0
SEQEND
  5
324
330
1B2
100
AcDbEntity
  8
CONNECT
  0
POLYLINE
  5
1B8
330
1A
100
AcDbEntity
  8
CONNECT
100
AcDb2dPolyline
 66
     1
 10
0.0
 20
0.0
 30
0.0
  0
VERTEX
  5
32A
330
1B8
100
AcDbEntity
  8
CONNECT
100
AcDbVertex
100
AcDb2dVertex
 10
-11.034926
 20
28.696471
 30
0.0
  0
VERTEX
  5
32B
330
1B8
100
AcDbEntity
  8
CONNECT
100
AcDbVertex
100
AcDb2dVertex
 10
-40.034926
 20
28.696471
 30
0.0
  0
SEQEND
  5
329
330
1B8
100
AcDbEntity
  8
CONNECT
  0
ARC
  5
1BC
330
1A
100
AcDbEntity
  8
CONNECT
100
AcDbCircle
 10
-10.034926
 20
61.196471
 30
0.0
 40
19.0
100
AcDbArc
 50
273.016961
 51
86.98303900000001
  0
LINE
  5
1BD
330
1A
100
AcDbEntity
  8
CONNECT
100
AcDbLine
 10
-11.034926
 20
80.170137
 30
0.0
 11
-11.034926
 21
93.696471
 31
0.0
  0
LINE
  5
1BE
330
1A
100
AcDbEntity
  8
CONNECT
100
AcDbLine
 10
-9.034926000000001
 20
80.170137
 30
0.0
 11
-9.034926000000001
 21
93.696471
 31
0.0
  0
POLYLINE
  5
1BF
330
1A
100
AcDbEntity
  8
0
100
AcDb2dPolyline
 66
     1
 10
0.0
 20
0.0
 30
0.0
  0
VERTEX
  5
32D
330
1BF
100
AcDbEntity
  8
0
100
AcDbVertex
100
AcDb2dVertex
 10
26.374116
 20
56.5
 30
0.0
  0
VERTEX
  5
32E
330
1BF
100
AcDbEntity
  8
0
100
AcDbVertex
100
AcDb2dVertex
 10
26.374116
 20
56.5
 30
0.0
  0
SEQEND
  5
32C
330
1BF
100
AcDbEntity
  8
0
  0
POLYLINE
  5
1C2
330
1A
100
AcDbEntity
  8
CONNECT
100
AcDb2dPolyline
 66
     1
 10
0.0
 20
0.0
 30
0.0
  0
VERTEX
  5
330
330
1C2
100
AcDbEntity
  8
CONNECT
100
AcDbVertex
100
AcDb2dVertex
 10
-11.034926
 20
88.196471
 30
0.0
  0
VERTEX
  5
331
330
1C2
100
AcDbEntity
  8
CONNECT
100
AcDbVertex
100
AcDb2dVertex
 10
-9.034926000000001
 20
88.196471
 30
0.0
  0
SEQEND
  5
32F
330
1C2
100
AcDbEntity
  8
CONNECT
  0
POLYLINE
  5
1C6
330
1A
100
AcDbEntity
  8
CONNECT
100
AcDb2dPolyline
 66
     1
 10
0.0
 20
0.0
 30
0.0
  0
VERTEX
  5
333
330
1C6
100
AcDbEntity
  8
CONNECT
100
AcDbVertex
100
AcDb2dVertex
 10
-9.034926000000001
 20
84.196471
 30
0.0
  0
VERTEX
  5
334
330
1C6
100
AcDbEntity
  8
CONNECT
100
AcDbVertex
100
AcDb2dVertex
 10
-11.034926
 20
84.196471
 30
0.0
  0
SEQEND
  5
332
330
1C6
100
AcDbEntity
  8
CONNECT
  0
POLYLINE
  5
1CA
330
1A
100
AcDbEntity
  8
CONNECT
100
AcDb2dPolyline
 66
     1
 10
0.0
 20
0.0
 30
0.0
  0
VERTEX
  5
336
330
1CA
100
AcDbEntity
  8
CONNECT
100
AcDbVertex
100
AcDb2dVertex
 10
-9.034926000000001
 20
38.196471
 30
0.0
  0
VERTEX
  5
337
330
1CA
100
AcDbEntity
  8
CONNECT
100
AcDbVertex
100
AcDb2dVertex
 10
-11.034926
 20
38.196471
 30
0.0
  0
SEQEND
  5
335
330
1CA
100
AcDbEntity
  8
CONNECT
  0
POLYLINE
  5
1CE
330
1A
100
AcDbEntity
  8
CONNECT
100
AcDb2dPolyline
 66
     1
 10
0.0
 20
0.0
 30
0.0
  0
VERTEX
  5
339
330
1CE
100
AcDbEntity
  8
CONNECT
100
AcDbVertex
100
AcDb2dVertex
 10
-11.034926
 20
34.196471
 30
0.0
  0
VERTEX
  5
33A
330
1CE
100
AcDbEntity
  8
CONNECT
100
AcDbVertex
100
AcDb2dVertex
 10
-9.034926000000001
 20
34.196471
 30
0.0
  0
SEQEND
  5
338
330
1CE
100
AcDbEntity
  8
CONNECT
  0
LINE
  5
1D2
330
1A
100
AcDbEntity
  8
AXIS
 48
10.0
100
AcDbLine
 10
-54.534926
 20
86.196471
 30
0.0
 11
26.465074
 21
86.196471
 31
0.0
  0
LINE
  5
1D3
330
1A
100
AcDbEntity
  8
AXIS
 48
10.0
100
AcDbLine
 10
-54.534926
 20
36.196471
 30
0.0
 11
26.465074
 21
36.196471
 31
0.0
  0
POLYLINE
  5
1D4
330
1A
100
AcDbEntity
  8
CONNECT
100
AcDb2dPolyline
 66
     1
 10
0.0
 20
0.0
 30
0.0
 70
     1
  0
VERTEX
  5
33C
330
1D4
100
AcDbEntity
  8
CONNECT
100
AcDbVertex
100
AcDb2dVertex
 10
62.025883
 20
29.696471
 30
0.0
  0
VERTEX
  5
33D
330
1D4
100
AcDbEntity
  8
CONNECT
100
AcDbVertex
100
AcDb2dVertex
 10
62.025883
 20
92.696471
 30
0.0
 42
-0.414214
  0
VERTEX
  5
33E
330
1D4
100
AcDbEntity
  8
CONNECT
100
AcDbVertex
100
AcDb2dVertex
 10
63.025883
 20
93.696471
 30
0.0
  0
VERTEX
  5
33F
330
1D4
100
AcDbEntity
  8
CONNECT
100
AcDbVertex
100
AcDb2dVertex
 10
81.02588299999999
 20
93.696471
 30
0.0
 42
-0.414214
  0
VERTEX
  5
340
330
1D4
100
AcDbEntity
  8
CONNECT
100
AcDbVertex
100
AcDb2dVertex
 10
82.02588299999999
 20
92.696471
 30
0.0
  0
VERTEX
  5
341
330
1D4
100
AcDbEntity
  8
CONNECT
100
AcDbVertex
100
AcDb2dVertex
 10
82.02588299999999
 20
29.696471
 30
0.0
 42
-0.414214
  0
VERTEX
  5
342
330
1D4
100
AcDbEntity
  8
CONNECT
100
AcDbVertex
100
AcDb2dVertex
 10
81.02588299999999
 20
28.696471
 30
0.0
  0
VERTEX
  5
343
330
1D4
100
AcDbEntity
  8
CONNECT
100
AcDbVertex
100
AcDb2dVertex
 10
63.025883
 20
28.696471
 30
0.0
 42
-0.414214
  0
SEQEND
  5
33B
330
1D4
100
AcDbEntity
  8
CONNECT
  0
LINE
  5
1DE
330
1A
100
AcDbEntity
  8
AXIS
 48
10.0
100
AcDbLine
 10
49.998043
 20
61.196471
 30
0.0
 11
93.741569
 21
61.196471
 31
0.0
  0
POLYLINE
  5
1DF
330
1A
100
AcDbEntity
  8
CONNECT
100
AcDb2dPolyline
 66
     1
 10
0.0
 20
0.0
 30
0.0
 70
     1
  0
VERTEX
  5
345
330
1DF
100
AcDbEntity
  8
CONNECT
100
AcDbVertex
100
AcDb2dVertex
 10
70.02588299999999
 20
89.660573
 30
0.0
  0
VERTEX
  5
346
330
1DF
100
AcDbEntity
  8
CONNECT
100
AcDbVertex
100
AcDb2dVertex
 10
68.02588299999999
 20
86.196471
 30
0.0
  0
VERTEX
  5
347
330
1DF
100
AcDbEntity
  8
CONNECT
100
AcDbVertex
100
AcDb2dVertex
 10
70.02588299999999
 20
82.73237
 30
0.0
  0
VERTEX
  5
348
330
1DF
100
AcDbEntity
  8
CONNECT
100
AcDbVertex
100
AcDb2dVertex
 10
74.02588299999999
 20
82.73237
 30
0.0
  0
VERTEX
  5
349
330
1DF
100
AcDbEntity
  8
CONNECT
100
AcDbVertex
100
AcDb2dVertex
 10
76.02588299999999
 20
86.196471
 30
0.0
  0
VERTEX
  5
34A
330
1DF
100
AcDbEntity
  8
CONNECT
100
AcDbVertex
100
AcDb2dVertex
 10
74.02588299999999
 20
89.660573
 30
0.0
  0
SEQEND
  5
344
330
1DF
100
AcDbEntity
  8
CONNECT
  0
POLYLINE
  5
1E7
330
1A
100
AcDbEntity
  8
CONNECT
100
AcDb2dPolyline
 66
     1
 10
0.0
 20
0.0
 30
0.0
 70
     1
  0
VERTEX
  5
34C
330
1E7
100
AcDbEntity
  8
CONNECT
100
AcDbVertex
100
AcDb2dVertex
 10
70.02588299999999
 20
39.660573
 30
0.0
  0
VERTEX
  5
34D
330
1E7
100
AcDbEntity
  8
CONNECT
100
AcDbVertex
100
AcDb2dVertex
 10
68.02588299999999
 20
36.196471
 30
0.0
  0
VERTEX
  5
34E
330
1E7
100
AcDbEntity
  8
CONNECT
100
AcDbVertex
100
AcDb2dVertex
 10
70.02588299999999
 20
32.73237
 30
0.0
  0
VERTEX
  5
34F
330
1E7
100
AcDbEntity
  8
CONNECT
100
AcDbVertex
100
AcDb2dVertex
 10
74.02588299999999
 20
32.73237
 30
0.0
  0
VERTEX
  5
350
330
1E7
100
AcDbEntity
  8
CONNECT
100
AcDbVertex
100
AcDb2dVertex
 10
76.02588299999999
 20
36.196471
 30
0.0
  0
VERTEX
  5
351
330
1E7
100
AcDbEntity
  8
CONNECT
100
AcDbVertex
100
AcDb2dVertex
 10
74.02588299999999
 20
39.660573
 30
0.0
  0
SEQEND
  5
34B
330
1E7
100
AcDbEntity
  8
CONNECT
  0
CIRCLE
  5
1EF
330
1A
100
AcDbEntity
  8
CONNECT
100
AcDbCircle
 10
72.02588299999999
 20
86.196471
 30
0.0
 40
3.0
  0
CIRCLE
  5
1F0
330
1A
100
AcDbEntity
  8
CONNECT
100
AcDbCircle
 10
72.02588299999999
 20
36.196471
 30
0.0
 40
3.0
  0
ENDSEC
  0
SECTION
  2
OBJECTS
  0
DICTIONARY
  5
C
330
0
100
AcDbDictionary
  3
ACAD_GROUP
350
D
  3
ACAD_LAYOUT
350
1F2
  3
ACAD_MLINESTYLE
350
E
1001
ACAD
1000
TREAT_AS_HARD
1070
     0
  0
DICTIONARY
  5
352
330
1F1
100
AcDbDictionary
  3
ACAD_XREC_ROUNDTRIP
360
353
  0
DICTIONARY
  5
D
102
{ACAD_REACTORS
330
C
102
}
330
C
100
AcDbDictionary
1001
ACAD
1000
TREAT_AS_HARD
1070
     0
  0
DICTIONARY
  5
1F2
102
{ACAD_REACTORS
330
C
102
}
330
C
100
AcDbDictionary
1001
ACAD
1000
TREAT_AS_HARD
1070
     0
  0
DICTIONARY
  5
E
102
{ACAD_REACTORS
330
C
102
}
330
C
100
AcDbDictionary
  3
STANDARD
350
13
1001
ACAD
1000
TREAT_AS_HARD
1070
     0
  0
XRECORD
  5
353
102
{ACAD_REACTORS
330
352
102
}
330
352
100
AcDbXrecord
102
UCS
 74
     0
 71
     1
 10
0.0
 20
0.0
 30
0.0
 10
1.0
 20
0.0
 30
0.0
 10
0.0
 20
1.0
 30
0.0
146
0.0
 79
     0
102
VIEW
281
     0
  0
MLINESTYLE
  5
13
102
{ACAD_REACTORS
330
E
102
}
330
E
100
AcDbMlineStyle
  2
STANDARD
 70
     0
  3

 62
     0
 51
90.0
 52
90.0
 71
     2
 49
0.5
 62
   256
  6
BYLAYER
 49
-0.5
 62
   256
  6
BYLAYER
  0
ENDSEC
  0
EOF
