  0
SECTION
  2
HEADER
  9
$ACADVER
  1
AC1012
  9
$DWGCODEPAGE
  3
ansi_1252
  9
$INSBASE
 10
0.0
 20
0.0
 30
0.0
  9
$EXTMIN
 10
0.0
 20
-101.36444
 30
0.0
  9
$EXTMAX
 10
179.600641
 20
52.5
 30
0.0
  9
$LIMMIN
 10
0.0
 20
0.0
  9
$LIMMAX
 10
12.0
 20
9.0
  9
$ORTHOMODE
 70
     1
  9
$REGENMODE
 70
     1
  9
$FILLMODE
 70
     1
  9
$QTEXTMODE
 70
     0
  9
$MIRRTEXT
 70
     1
  9
$DRAGMODE
 70
     2
  9
$LTSCALE
 40
1.0
  9
$OSMODE
 70
    37
  9
$ATTMODE
 70
     1
  9
$TEXTSIZE
 40
0.2
  9
$TRACEWID
 40
0.05
  9
$TEXTSTYLE
  7
STANDARD
  9
$CLAYER
  8
0
  9
$CELTYPE
  6
BYLAYER
  9
$CECOLOR
 62
   256
  9
$CELTSCALE
 40
1.0
  9
$DELOBJ
 70
     1
  9
$DISPSILH
 70
     0
  9
$DIMSCALE
 40
1.0
  9
$DIMASZ
 40
0.18
  9
$DIMEXO
 40
0.0625
  9
$DIMDLI
 40
0.38
  9
$DIMRND
 40
0.0
  9
$DIMDLE
 40
0.0
  9
$DIMEXE
 40
0.18
  9
$DIMTP
 40
0.0
  9
$DIMTM
 40
0.0
  9
$DIMTXT
 40
0.18
  9
$DIMCEN
 40
0.09
  9
$DIMTSZ
 40
0.0
  9
$DIMTOL
 70
     0
  9
$DIMLIM
 70
     0
  9
$DIMTIH
 70
     1
  9
$DIMTOH
 70
     1
  9
$DIMSE1
 70
     0
  9
$DIMSE2
 70
     0
  9
$DIMTAD
 70
     0
  9
$DIMZIN
 70
     0
  9
$DIMBLK
  1

  9
$DIMASO
 70
     1
  9
$DIMSHO
 70
     1
  9
$DIMPOST
  1

  9
$DIMAPOST
  1

  9
$DIMALT
 70
     0
  9
$DIMALTD
 70
     2
  9
$DIMALTF
 40
25.4
  9
$DIMLFAC
 40
1.0
  9
$DIMTOFL
 70
     0
  9
$DIMTVP
 40
0.0
  9
$DIMTIX
 70
     0
  9
$DIMSOXD
 70
     0
  9
$DIMSAH
 70
     0
  9
$DIMBLK1
  1

  9
$DIMBLK2
  1

  9
$DIMSTYLE
  2
STANDARD
  9
$DIMCLRD
 70
     0
  9
$DIMCLRE
 70
     0
  9
$DIMCLRT
 70
     0
  9
$DIMTFAC
 40
1.0
  9
$DIMGAP
 40
0.09
  9
$DIMJUST
 70
     0
  9
$DIMSD1
 70
     0
  9
$DIMSD2
 70
     0
  9
$DIMTOLJ
 70
     1
  9
$DIMTZIN
 70
     0
  9
$DIMALTZ
 70
     0
  9
$DIMALTTZ
 70
     0
  9
$DIMFIT
 70
     3
  9
$DIMUPT
 70
     0
  9
$DIMUNIT
 70
     2
  9
$DIMDEC
 70
     4
  9
$DIMTDEC
 70
     4
  9
$DIMALTU
 70
     2
  9
$DIMALTTD
 70
     2
  9
$DIMTXSTY
  7
STANDARD
  9
$DIMAUNIT
 70
     0
  9
$LUNITS
 70
     2
  9
$LUPREC
 70
     4
  9
$SKETCHINC
 40
0.1
  9
$FILLETRAD
 40
0.0
  9
$AUNITS
 70
     0
  9
$AUPREC
 70
     0
  9
$MENU
  1
acad
  9
$ELEVATION
 40
0.0
  9
$PELEVATION
 40
0.0
  9
$THICKNESS
 40
0.0
  9
$LIMCHECK
 70
     0
  9
$CHAMFERA
 40
0.0
  9
$CHAMFERB
 40
0.0
  9
$CHAMFERC
 40
0.0
  9
$CHAMFERD
 40
0.0
  9
$SKPOLY
 70
     0
  9
$TDCREATE
 40
2447893.083333334
  9
$TDUPDATE
 40
2447893.083333334
  9
$TDINDWG
 40
0.0029076389
  9
$TDUSRTIMER
 40
0.0029076389
  9
$USRTIMER
 70
     1
  9
$ANGBASE
 50
0.0
  9
$ANGDIR
 70
     0
  9
$PDMODE
 70
     0
  9
$PDSIZE
 40
0.0
  9
$PLINEWID
 40
0.0
  9
$COORDS
 70
     1
  9
$SPLFRAME
 70
     0
  9
$SPLINETYPE
 70
     6
  9
$SPLINESEGS
 70
     8
  9
$ATTDIA
 70
     0
  9
$ATTREQ
 70
     1
  9
$HANDLING
 70
     1
  9
$HANDSEED
  5
44D
  9
$SURFTAB1
 70
     6
  9
$SURFTAB2
 70
     6
  9
$SURFTYPE
 70
     6
  9
$SURFU
 70
     6
  9
$SURFV
 70
     6
  9
$UCSNAME
  2

  9
$UCSORG
 10
0.0
 20
0.0
 30
0.0
  9
$UCSXDIR
 10
1.0
 20
0.0
 30
0.0
  9
$UCSYDIR
 10
0.0
 20
1.0
 30
0.0
  9
$PUCSNAME
  2

  9
$PUCSORG
 10
0.0
 20
0.0
 30
0.0
  9
$PUCSXDIR
 10
1.0
 20
0.0
 30
0.0
  9
$PUCSYDIR
 10
0.0
 20
1.0
 30
0.0
  9
$USERI1
 70
     0
  9
$USERI2
 70
     0
  9
$USERI3
 70
     0
  9
$USERI4
 70
     0
  9
$USERI5
 70
     0
  9
$USERR1
 40
0.0
  9
$USERR2
 40
0.0
  9
$USERR3
 40
0.0
  9
$USERR4
 40
0.0
  9
$USERR5
 40
0.0
  9
$WORLDVIEW
 70
     1
  9
$SHADEDGE
 70
     3
  9
$SHADEDIF
 70
    70
  9
$TILEMODE
 70
     1
  9
$MAXACTVP
 70
    16
  9
$PINSBASE
 10
0.0
 20
0.0
 30
0.0
  9
$PLIMCHECK
 70
     0
  9
$PEXTMIN
 10
1.000000000000000E+20
 20
1.000000000000000E+20
 30
1.000000000000000E+20
  9
$PEXTMAX
 10
-1.000000000000000E+20
 20
-1.000000000000000E+20
 30
-1.000000000000000E+20
  9
$PLIMMIN
 10
0.0
 20
0.0
  9
$PLIMMAX
 10
12.0
 20
9.0
  9
$UNITMODE
 70
     0
  9
$VISRETAIN
 70
     0
  9
$PLINEGEN
 70
     0
  9
$PSLTSCALE
 70
     1
  9
$TREEDEPTH
 70
  3020
  9
$PICKSTYLE
 70
     1
  9
$CMLSTYLE
  2
STANDARD
  9
$CMLJUST
 70
     0
  9
$CMLSCALE
 40
1.0
  9
$SAVEIMAGES
 70
     1
  0
ENDSEC
  0
SECTION
  2
CLASSES
  0
CLASS
  1
XRECORD
  2
AcDbXrecord
  3
AutoCAD 2000
 90
    32768
280
     0
281
     0
  0
CLASS
  1
LWPOLYLINE
  2
AcDbPolyline
  3
AutoCAD 2000
 90
    32768
280
     0
281
     1
  0
CLASS
  1
HATCH
  2
AcDbHatch
  3
AutoCAD 2000
 90
    32768
280
     0
281
     1
  0
CLASS
  1
ACDBPLACEHOLDER
  2
AcDbPlaceHolder
  3
ObjectDBX Classes
 90
        0
280
     0
281
     0
  0
CLASS
  1
LAYOUT
  2
AcDbLayout
  3
ObjectDBX Classes
 90
        0
280
     0
281
     0
  0
ENDSEC
  0
SECTION
  2
TABLES
  0
TABLE
  2
VPORT
  5
8
330
0
100
AcDbSymbolTable
 70
     1
  0
VPORT
  5
2BC
102
{ACAD_XDICTIONARY
360
44B
102
}
330
8
100
AcDbSymbolTableRecord
100
AcDbViewportTableRecord
  2
*ACTIVE
 70
     0
 10
0.0
 20
0.0
 11
1.0
 21
1.0
 12
147.352461
 22
-24.43222
 13
0.0
 23
0.0
 14
1.0
 24
1.0
 15
0.0
 25
0.0
 16
0.0
 26
0.0
 36
1.0
 17
0.0
 27
0.0
 37
0.0
 40
153.86444
 41
1.915354
 42
50.0
 43
0.0
 44
0.0
 50
0.0
 51
0.0
 71
     0
 72
   100
 73
     1
 74
     1
 75
     0
 76
     0
 77
     0
 78
     0
  0
ENDTAB
  0
TABLE
  2
LTYPE
  5
5
330
0
100
AcDbSymbolTable
 70
     2
  0
LTYPE
  5
14
330
5
100
AcDbSymbolTableRecord
100
AcDbLinetypeTableRecord
  2
BYBLOCK
 70
     0
  3

 72
    65
 73
     0
 40
0.0
  0
LTYPE
  5
15
330
5
100
AcDbSymbolTableRecord
100
AcDbLinetypeTableRecord
  2
BYLAYER
 70
     0
  3

 72
    65
 73
     0
 40
0.0
  0
LTYPE
  5
16
330
5
100
AcDbSymbolTableRecord
100
AcDbLinetypeTableRecord
  2
CONTINUOUS
 70
     0
  3
Solid line
 72
    65
 73
     0
 40
0.0
  0
LTYPE
  5
164
330
5
100
AcDbSymbolTableRecord
100
AcDbLinetypeTableRecord
  2
DASHDOT
 70
     0
  3
__ . __ . __ . __ . __ . __ . __ . __ . __ . __
 72
    65
 73
     4
 40
1.0
 49
0.5
 74
     0
 49
-0.25
 74
     0
 49
0.0
 74
     0
 49
-0.25
 74
     0
  0
ENDTAB
  0
TABLE
  2
LAYER
  5
2
330
0
100
AcDbSymbolTable
 70
     3
  0
LAYER
  5
F
330
2
100
AcDbSymbolTableRecord
100
AcDbLayerTableRecord
  2
0
 70
     0
 62
     7
  6
CONTINUOUS
  0
LAYER
  5
5B
330
2
100
AcDbSymbolTableRecord
100
AcDbLayerTableRecord
  2
GUIDE
 70
     0
 62
     7
  6
CONTINUOUS
  0
LAYER
  5
165
330
2
100
AcDbSymbolTableRecord
100
AcDbLayerTableRecord
  2
AXIS
 70
     0
 62
     1
  6
DASHDOT
  0
ENDTAB
  0
TABLE
  2
STYLE
  5
3
330
0
100
AcDbSymbolTable
 70
     1
  0
STYLE
  5
10
330
3
100
AcDbSymbolTableRecord
100
AcDbTextStyleTableRecord
  2
STANDARD
 70
     0
 40
0.0
 41
1.0
 50
0.0
 71
     0
 42
0.2
  3
txt
  4

  0
ENDTAB
  0
TABLE
  2
VIEW
  5
6
330
0
100
AcDbSymbolTable
 70
     0
  0
ENDTAB
  0
TABLE
  2
UCS
  5
7
330
0
100
AcDbSymbolTable
 70
     0
  0
ENDTAB
  0
TABLE
  2
APPID
  5
9
330
0
100
AcDbSymbolTable
 70
     1
  0
APPID
  5
11
330
9
100
AcDbSymbolTableRecord
100
AcDbRegAppTableRecord
  2
ACAD
 70
     0
  0
ENDTAB
  0
TABLE
  2
DIMSTYLE
  5
A
330
0
100
AcDbSymbolTable
 70
     1
  0
DIMSTYLE
105
1D
330
A
100
AcDbSymbolTableRecord
100
AcDbDimStyleTableRecord
  2
STANDARD
 70
     0
  3

  4

  5

  6

  7

 40
1.0
 41
0.18
 42
0.0625
 43
0.38
 44
0.18
 45
0.0
 46
0.0
 47
0.0
 48
0.0
140
0.18
141
0.09
142
0.0
143
25.4
144
1.0
145
0.0
146
1.0
147
0.09
 71
     0
 72
     0
 73
     1
 74
     1
 75
     0
 76
     0
 77
     0
 78
     0
170
     0
171
     2
172
     0
173
     0
174
     0
175
     0
176
     0
177
     0
178
     0
270
     2
271
     4
272
     4
273
     2
274
     2
340
10
275
     0
280
     0
281
     0
282
     0
283
     1
284
     0
285
     0
286
     0
287
     3
288
     0
  0
ENDTAB
  0
TABLE
  2
BLOCK_RECORD
  5
1
330
0
100
AcDbSymbolTable
 70
     1
  0
BLOCK_RECORD
  5
1A
330
1
100
AcDbSymbolTableRecord
100
AcDbBlockTableRecord
  2
*MODEL_SPACE
  0
BLOCK_RECORD
  5
17
330
1
100
AcDbSymbolTableRecord
100
AcDbBlockTableRecord
  2
*PAPER_SPACE
  0
BLOCK_RECORD
  5
28
330
1
100
AcDbSymbolTableRecord
100
AcDbBlockTableRecord
  2
A$CE185
  0
ENDTAB
  0
ENDSEC
  0
SECTION
  2
BLOCKS
  0
BLOCK
  5
1B
330
1A
100
AcDbEntity
  8
0
100
AcDbBlockBegin
  2
*MODEL_SPACE
 70
     0
 71
     0
 10
0.0
 20
0.0
 30
0.0
  3
*MODEL_SPACE
  1

  0
ENDBLK
  5
1C
330
1A
100
AcDbEntity
  8
0
100
AcDbBlockEnd
  0
BLOCK
  5
18
330
17
100
AcDbEntity
 67
     1
  8
0
100
AcDbBlockBegin
  2
*PAPER_SPACE
 70
     0
 71
     0
 10
0.0
 20
0.0
 30
0.0
  3
*PAPER_SPACE
  1

  0
ENDBLK
  5
19
330
17
100
AcDbEntity
 67
     1
  8
0
100
AcDbBlockEnd
  0
BLOCK
  5
59
330
28
100
AcDbEntity
  8
0
100
AcDbBlockBegin
  2
A$CE185
 70
     0
 71
     0
 10
0.0
 20
0.0
 30
0.0
  3
A$CE185
  1

  0
POLYLINE
  5
29
330
28
100
AcDbEntity
  8
0
100
AcDb2dPolyline
 66
     1
 10
0.0
 20
0.0
 30
0.0
 70
     1
  0
VERTEX
  5
424
330
29
100
AcDbEntity
  8
0
100
AcDbVertex
100
AcDb2dVertex
 10
0.064019
 20
9.258595
 30
0.0
  0
VERTEX
  5
425
330
29
100
AcDbEntity
  8
0
100
AcDbVertex
100
AcDb2dVertex
 10
0.064019
 20
9.558595
 30
0.0
  0
VERTEX
  5
426
330
29
100
AcDbEntity
  8
0
100
AcDbVertex
100
AcDb2dVertex
 10
8.064019
 20
9.558595
 30
0.0
  0
VERTEX
  5
427
330
29
100
AcDbEntity
  8
0
100
AcDbVertex
100
AcDb2dVertex
 10
8.064019
 20
9.258595
 30
0.0
  0
SEQEND
  5
423
330
29
100
AcDbEntity
  8
0
  0
POLYLINE
  5
2F
330
28
100
AcDbEntity
  8
0
100
AcDb2dPolyline
 66
     1
 10
0.0
 20
0.0
 30
0.0
 70
     1
  0
VERTEX
  5
429
330
2F
100
AcDbEntity
  8
0
100
AcDbVertex
100
AcDb2dVertex
 10
-2.735981
 20
-6.541405
 30
0.0
  0
VERTEX
  5
42A
330
2F
100
AcDbEntity
  8
0
100
AcDbVertex
100
AcDb2dVertex
 10
-2.735981
 20
0.058595
 30
0.0
  0
VERTEX
  5
42B
330
2F
100
AcDbEntity
  8
0
100
AcDbVertex
100
AcDb2dVertex
 10
10.864019
 20
0.058595
 30
0.0
  0
VERTEX
  5
42C
330
2F
100
AcDbEntity
  8
0
100
AcDbVertex
100
AcDb2dVertex
 10
10.864019
 20
-6.541405
 30
0.0
  0
SEQEND
  5
428
330
2F
100
AcDbEntity
  8
0
  0
POLYLINE
  5
35
330
28
100
AcDbEntity
  8
0
100
AcDb2dPolyline
 66
     1
 10
0.0
 20
0.0
 30
0.0
 70
     1
  0
VERTEX
  5
42E
330
35
100
AcDbEntity
  8
0
100
AcDbVertex
100
AcDb2dVertex
 10
0.064019
 20
-6.841405
 30
0.0
  0
VERTEX
  5
42F
330
35
100
AcDbEntity
  8
0
100
AcDbVertex
100
AcDb2dVertex
 10
0.064019
 20
-6.541405
 30
0.0
  0
VERTEX
  5
430
330
35
100
AcDbEntity
  8
0
100
AcDbVertex
100
AcDb2dVertex
 10
8.064019
 20
-6.541405
 30
0.0
  0
VERTEX
  5
431
330
35
100
AcDbEntity
  8
0
100
AcDbVertex
100
AcDb2dVertex
 10
8.064019
 20
-6.841405
 30
0.0
  0
SEQEND
  5
42D
330
35
100
AcDbEntity
  8
0
  0
POLYLINE
  5
3B
330
28
100
AcDbEntity
  8
0
100
AcDb2dPolyline
 66
     1
 10
0.0
 20
0.0
 30
0.0
 70
     1
  0
VERTEX
  5
433
330
3B
100
AcDbEntity
  8
0
100
AcDbVertex
100
AcDb2dVertex
 10
1.564019
 20
-7.641405
 30
0.0
  0
VERTEX
  5
434
330
3B
100
AcDbEntity
  8
0
100
AcDbVertex
100
AcDb2dVertex
 10
1.564019
 20
-6.841405
 30
0.0
  0
VERTEX
  5
435
330
3B
100
AcDbEntity
  8
0
100
AcDbVertex
100
AcDb2dVertex
 10
6.564019
 20
-6.841405
 30
0.0
  0
VERTEX
  5
436
330
3B
100
AcDbEntity
  8
0
100
AcDbVertex
100
AcDb2dVertex
 10
6.564019
 20
-7.641405
 30
0.0
  0
SEQEND
  5
432
330
3B
100
AcDbEntity
  8
0
  0
POLYLINE
  5
41
330
28
100
AcDbEntity
  8
0
100
AcDb2dPolyline
 66
     1
 10
0.0
 20
0.0
 30
0.0
 70
     1
  0
VERTEX
  5
438
330
41
100
AcDbEntity
  8
0
100
AcDbVertex
100
AcDb2dVertex
 10
0.064019
 20
0.058595
 30
0.0
  0
VERTEX
  5
439
330
41
100
AcDbEntity
  8
0
100
AcDbVertex
100
AcDb2dVertex
 10
0.064019
 20
9.258595
 30
0.0
  0
VERTEX
  5
43A
330
41
100
AcDbEntity
  8
0
100
AcDbVertex
100
AcDb2dVertex
 10
8.064019
 20
9.258595
 30
0.0
  0
VERTEX
  5
43B
330
41
100
AcDbEntity
  8
0
100
AcDbVertex
100
AcDb2dVertex
 10
8.064019
 20
0.058595
 30
0.0
  0
SEQEND
  5
437
330
41
100
AcDbEntity
  8
0
  0
POLYLINE
  5
47
330
28
100
AcDbEntity
  8
0
100
AcDb2dPolyline
 66
     1
 10
0.0
 20
0.0
 30
0.0
 70
     1
  0
VERTEX
  5
43D
330
47
100
AcDbEntity
  8
0
100
AcDbVertex
100
AcDb2dVertex
 10
1.564019
 20
25.358595
 30
0.0
  0
VERTEX
  5
43E
330
47
100
AcDbEntity
  8
0
100
AcDbVertex
100
AcDb2dVertex
 10
1.564019
 20
26.158595
 30
0.0
  0
VERTEX
  5
43F
330
47
100
AcDbEntity
  8
0
100
AcDbVertex
100
AcDb2dVertex
 10
6.564019
 20
26.158595
 30
0.0
  0
VERTEX
  5
440
330
47
100
AcDbEntity
  8
0
100
AcDbVertex
100
AcDb2dVertex
 10
6.564019
 20
25.358595
 30
0.0
  0
SEQEND
  5
43C
330
47
100
AcDbEntity
  8
0
  0
POLYLINE
  5
4D
330
28
100
AcDbEntity
  8
0
100
AcDb2dPolyline
 66
     1
 10
0.0
 20
0.0
 30
0.0
 70
     1
  0
VERTEX
  5
442
330
4D
100
AcDbEntity
  8
0
100
AcDbVertex
100
AcDb2dVertex
 10
-2.735981
 20
9.558595
 30
0.0
  0
VERTEX
  5
443
330
4D
100
AcDbEntity
  8
0
100
AcDbVertex
100
AcDb2dVertex
 10
-2.735981
 20
16.158595
 30
0.0
  0
VERTEX
  5
444
330
4D
100
AcDbEntity
  8
0
100
AcDbVertex
100
AcDb2dVertex
 10
10.864019
 20
16.158595
 30
0.0
  0
VERTEX
  5
445
330
4D
100
AcDbEntity
  8
0
100
AcDbVertex
100
AcDb2dVertex
 10
10.864019
 20
9.558595
 30
0.0
  0
SEQEND
  5
441
330
4D
100
AcDbEntity
  8
0
  0
POLYLINE
  5
53
330
28
100
AcDbEntity
  8
0
100
AcDb2dPolyline
 66
     1
 10
0.0
 20
0.0
 30
0.0
 70
     1
  0
VERTEX
  5
447
330
53
100
AcDbEntity
  8
0
100
AcDbVertex
100
AcDb2dVertex
 10
0.064019
 20
16.158595
 30
0.0
  0
VERTEX
  5
448
330
53
100
AcDbEntity
  8
0
100
AcDbVertex
100
AcDb2dVertex
 10
0.064019
 20
25.358595
 30
0.0
  0
VERTEX
  5
449
330
53
100
AcDbEntity
  8
0
100
AcDbVertex
100
AcDb2dVertex
 10
8.064019
 20
25.358595
 30
0.0
  0
VERTEX
  5
44A
330
53
100
AcDbEntity
  8
0
100
AcDbVertex
100
AcDb2dVertex
 10
8.064019
 20
16.158595
 30
0.0
  0
SEQEND
  5
446
330
53
100
AcDbEntity
  8
0
  0
ENDBLK
  5
5A
330
28
100
AcDbEntity
  8
0
100
AcDbBlockEnd
  0
ENDSEC
  0
SECTION
  2
ENTITIES
  0
LINE
  5
196
330
1A
100
AcDbEntity
  8
GUIDE
100
AcDbLine
 10
0.0
 20
-83.26443999999999
 30
0.0
 11
0.0
 21
-86.26443999999999
 31
0.0
  0
LINE
  5
197
330
1A
100
AcDbEntity
  8
GUIDE
100
AcDbLine
 10
99.59999999999999
 20
-71.16444
 30
0.0
 11
99.59999999999999
 21
-98.36444
 31
0.0
  0
LINE
  5
198
330
1A
100
AcDbEntity
  8
GUIDE
100
AcDbLine
 10
102.6
 20
-83.26443999999999
 30
0.0
 11
102.6
 21
-86.26443999999999
 31
0.0
  0
LINE
  5
199
330
1A
100
AcDbEntity
  8
GUIDE
100
AcDbLine
 10
26.460053
 20
-78.76443999999999
 30
0.0
 11
26.460053
 21
-80.76443999999999
 31
0.0
  0
LINE
  5
19A
330
1A
100
AcDbEntity
  8
GUIDE
100
AcDbLine
 10
73.13994700000001
 20
-78.76443999999999
 30
0.0
 11
73.13994700000001
 21
-80.76443999999999
 31
0.0
  0
LINE
  5
19B
330
1A
100
AcDbEntity
  8
GUIDE
100
AcDbLine
 10
3.1
 20
-98.36444
 30
0.0
 11
99.59999999999999
 21
-98.36444
 31
0.0
  0
LINE
  5
19C
330
1A
100
AcDbEntity
  8
GUIDE
100
AcDbLine
 10
3.1
 20
-71.16444
 30
0.0
 11
99.59999999999999
 21
-71.16444
 31
0.0
  0
LINE
  5
19D
330
1A
100
AcDbEntity
  8
GUIDE
100
AcDbLine
 10
26.460053
 20
-78.76443999999999
 30
0.0
 11
73.13994700000001
 21
-78.76443999999999
 31
0.0
  0
LINE
  5
19E
330
1A
100
AcDbEntity
  8
GUIDE
100
AcDbLine
 10
26.460053
 20
-90.76443999999999
 30
0.0
 11
73.13994700000001
 21
-90.76443999999999
 31
0.0
  0
LINE
  5
19F
330
1A
100
AcDbEntity
  8
GUIDE
100
AcDbLine
 10
26.460053
 20
-80.76443999999999
 30
0.0
 11
73.13994700000001
 21
-80.76443999999999
 31
0.0
  0
LINE
  5
1A0
330
1A
100
AcDbEntity
  8
GUIDE
100
AcDbLine
 10
26.460053
 20
-88.76443999999999
 30
0.0
 11
73.13994700000001
 21
-88.76443999999999
 31
0.0
  0
LINE
  5
1A1
330
1A
100
AcDbEntity
  8
GUIDE
100
AcDbLine
 10
26.460053
 20
-88.76443999999999
 30
0.0
 11
26.460053
 21
-90.76443999999999
 31
0.0
  0
LINE
  5
1A2
330
1A
100
AcDbEntity
  8
GUIDE
100
AcDbLine
 10
73.13994700000001
 20
-88.76443999999999
 30
0.0
 11
73.13994700000001
 21
-90.76443999999999
 31
0.0
  0
LINE
  5
1A3
330
1A
100
AcDbEntity
  8
GUIDE
100
AcDbLine
 10
46.3
 20
-80.76443999999999
 30
0.0
 11
46.3
 21
-88.76443999999999
 31
0.0
  0
LINE
  5
1A4
330
1A
100
AcDbEntity
  8
GUIDE
100
AcDbLine
 10
53.3
 20
-80.76443999999999
 30
0.0
 11
53.3
 21
-88.76443999999999
 31
0.0
  0
LINE
  5
1A5
330
1A
100
AcDbEntity
  8
GUIDE
100
AcDbLine
 10
99.59999999999999
 20
-86.26443999999999
 30
0.0
 11
102.6
 21
-86.26443999999999
 31
0.0
  0
LINE
  5
1A6
330
1A
100
AcDbEntity
  8
GUIDE
100
AcDbLine
 10
99.59999999999999
 20
-83.26443999999999
 30
0.0
 11
102.6
 21
-83.26443999999999
 31
0.0
  0
ARC
  5
1A7
330
1A
100
AcDbEntity
  8
GUIDE
100
AcDbCircle
 10
92.59999999999999
 20
-74.96444
 30
0.0
 40
6.8
100
AcDbArc
 50
33.974476
 51
146.025524
  0
ARC
  5
1A8
330
1A
100
AcDbEntity
  8
GUIDE
100
AcDbCircle
 10
92.59999999999999
 20
-94.56444000000001
 30
0.0
 40
6.8
100
AcDbArc
 50
213.974476
 51
326.025524
  0
ARC
  5
1A9
330
1A
100
AcDbEntity
  8
GUIDE
100
AcDbCircle
 10
20.1
 20
-74.96444
 30
0.0
 40
6.8
100
AcDbArc
 50
33.974476
 51
146.025524
  0
ARC
  5
1AA
330
1A
100
AcDbEntity
  8
GUIDE
100
AcDbCircle
 10
32.1
 20
-74.96444
 30
0.0
 40
6.8
100
AcDbArc
 50
33.974476
 51
146.025524
  0
ARC
  5
1AB
330
1A
100
AcDbEntity
  8
GUIDE
100
AcDbCircle
 10
44.2
 20
-74.96444
 30
0.0
 40
6.8
100
AcDbArc
 50
33.974476
 51
146.025524
  0
ARC
  5
1AC
330
1A
100
AcDbEntity
  8
GUIDE
100
AcDbCircle
 10
56.3
 20
-74.96444
 30
0.0
 40
6.8
100
AcDbArc
 50
33.974476
 51
146.025524
  0
ARC
  5
1AD
330
1A
100
AcDbEntity
  8
GUIDE
100
AcDbCircle
 10
68.40000000000001
 20
-74.96444
 30
0.0
 40
6.8
100
AcDbArc
 50
33.974476
 51
146.025524
  0
ARC
  5
1AE
330
1A
100
AcDbEntity
  8
GUIDE
100
AcDbCircle
 10
80.5
 20
-74.96444
 30
0.0
 40
6.8
100
AcDbArc
 50
33.974476
 51
146.025524
  0
ARC
  5
1AF
330
1A
100
AcDbEntity
  8
GUIDE
100
AcDbCircle
 10
80.5
 20
-94.56444000000001
 30
0.0
 40
6.8
100
AcDbArc
 50
213.974476
 51
326.025524
  0
ARC
  5
1B0
330
1A
100
AcDbEntity
  8
GUIDE
100
AcDbCircle
 10
68.40000000000001
 20
-94.56444000000001
 30
0.0
 40
6.8
100
AcDbArc
 50
213.974476
 51
326.025524
  0
ARC
  5
1B1
330
1A
100
AcDbEntity
  8
GUIDE
100
AcDbCircle
 10
56.3
 20
-94.56444000000001
 30
0.0
 40
6.8
100
AcDbArc
 50
213.974476
 51
326.025524
  0
ARC
  5
1B2
330
1A
100
AcDbEntity
  8
GUIDE
100
AcDbCircle
 10
44.2
 20
-94.56444000000001
 30
0.0
 40
6.8
100
AcDbArc
 50
213.974476
 51
326.025524
  0
ARC
  5
1B3
330
1A
100
AcDbEntity
  8
GUIDE
100
AcDbCircle
 10
32.1
 20
-94.56444000000001
 30
0.0
 40
6.8
100
AcDbArc
 50
213.974476
 51
326.025524
  0
ARC
  5
1B4
330
1A
100
AcDbEntity
  8
GUIDE
100
AcDbCircle
 10
20.1
 20
-94.56444000000001
 30
0.0
 40
6.8
100
AcDbArc
 50
213.974476
 51
326.025524
  0
LINE
  5
1B5
330
1A
100
AcDbEntity
  8
GUIDE
100
AcDbLine
 10
3.1
 20
-71.16444
 30
0.0
 11
3.1
 21
-83.26443999999999
 31
0.0
  0
LINE
  5
1B6
330
1A
100
AcDbEntity
  8
GUIDE
100
AcDbLine
 10
0.0
 20
-83.26443999999999
 30
0.0
 11
3.1
 21
-83.26443999999999
 31
0.0
  0
LINE
  5
1B7
330
1A
100
AcDbEntity
  8
GUIDE
100
AcDbLine
 10
0.0
 20
-86.26443999999999
 30
0.0
 11
3.1
 21
-86.26443999999999
 31
0.0
  0
LINE
  5
1B8
330
1A
100
AcDbEntity
  8
GUIDE
100
AcDbLine
 10
3.1
 20
-86.26443999999999
 30
0.0
 11
3.1
 21
-98.36444
 31
0.0
  0
ARC
  5
1B9
330
1A
100
AcDbEntity
  8
GUIDE
100
AcDbCircle
 10
8.0
 20
-74.96444
 30
0.0
 40
6.8
100
AcDbArc
 50
33.974476
 51
223.896932
  0
ARC
  5
1BA
330
1A
100
AcDbEntity
  8
GUIDE
100
AcDbCircle
 10
8.0
 20
-94.56444000000001
 30
0.0
 40
6.8
100
AcDbArc
 50
136.103068
 51
326.025524
  0
LINE
  5
1BB
330
1A
100
AcDbEntity
  8
GUIDE
100
AcDbLine
 10
44.8
 20
-78.76443999999999
 30
0.0
 11
54.8
 21
-78.76443999999999
 31
0.0
  0
ARC
  5
1BC
330
1A
100
AcDbEntity
  8
GUIDE
100
AcDbCircle
 10
49.8
 20
-89.175878
 30
0.0
 40
3.5
100
AcDbArc
 50
206.992564
 51
333.007436
  0
ARC
  5
1BD
330
1A
100
AcDbEntity
  8
GUIDE
100
AcDbCircle
 10
49.8
 20
-86.620367
 30
0.0
 40
9.095051
100
AcDbArc
 50
59.741229
 51
120.258771
  0
LINE
  5
1BE
330
1A
100
AcDbEntity
  8
AXIS
 48
0.5
100
AcDbLine
 10
49.8
 20
-78.76443999999999
 30
0.0
 11
49.8
 21
-90.76443999999999
 31
0.0
  0
INSERT
  5
1BF
330
1A
100
AcDbEntity
  8
GUIDE
100
AcDbBlockReference
  2
A$CE185
 10
3.935981
 20
-30.408595
 30
0.0
  0
INSERT
  5
1C0
330
1A
100
AcDbEntity
  8
GUIDE
100
AcDbBlockReference
  2
A$CE185
 10
16.035981
 20
-11.891405
 30
0.0
 41
-1.0
 50
180.0
  0
INSERT
  5
1C1
330
1A
100
AcDbEntity
  8
GUIDE
100
AcDbBlockReference
  2
A$CE185
 10
28.035981
 20
-30.408595
 30
0.0
  0
INSERT
  5
1C2
330
1A
100
AcDbEntity
  8
GUIDE
100
AcDbBlockReference
  2
A$CE185
 10
40.135981
 20
-11.891405
 30
0.0
 41
-1.0
 50
180.0
  0
INSERT
  5
1C3
330
1A
100
AcDbEntity
  8
GUIDE
100
AcDbBlockReference
  2
A$CE185
 10
64.335981
 20
-11.891405
 30
0.0
 41
-1.0
 50
180.0
  0
INSERT
  5
1C4
330
1A
100
AcDbEntity
  8
GUIDE
100
AcDbBlockReference
  2
A$CE185
 10
52.235981
 20
-30.408595
 30
0.0
  0
LINE
  5
1C5
330
1A
100
AcDbEntity
  8
GUIDE
100
AcDbLine
 10
3.1
 20
-4.25
 30
0.0
 11
99.59999999999999
 21
-4.25
 31
0.0
  0
LINE
  5
1C6
330
1A
100
AcDbEntity
  8
GUIDE
100
AcDbLine
 10
3.1
 20
-38.05
 30
0.0
 11
99.59999999999999
 21
-38.05
 31
0.0
  0
LINE
  5
1C7
330
1A
100
AcDbEntity
  8
GUIDE
100
AcDbLine
 10
0.0
 20
0.0
 30
0.0
 11
99.59999999999999
 21
0.0
 31
0.0
  0
LINE
  5
1C8
330
1A
100
AcDbEntity
  8
GUIDE
100
AcDbLine
 10
0.0
 20
-42.3
 30
0.0
 11
99.59999999999999
 21
-42.3
 31
0.0
  0
LINE
  5
1C9
330
1A
100
AcDbEntity
  8
GUIDE
100
AcDbLine
 10
99.59999999999999
 20
0.0
 30
0.0
 11
99.59999999999999
 21
-4.25
 31
0.0
  0
LINE
  5
1CA
330
1A
100
AcDbEntity
  8
GUIDE
100
AcDbLine
 10
0.0
 20
-42.3
 30
0.0
 11
0.0
 21
0.0
 31
0.0
  0
LINE
  5
1CB
330
1A
100
AcDbEntity
  8
GUIDE
100
AcDbLine
 10
99.59999999999999
 20
-38.05
 30
0.0
 11
99.59999999999999
 21
-42.3
 31
0.0
  0
LINE
  5
1CC
330
1A
100
AcDbEntity
  8
GUIDE
100
AcDbLine
 10
9.0
 20
-4.25
 30
0.0
 11
9.0
 21
0.0
 31
0.0
  0
LINE
  5
1CD
330
1A
100
AcDbEntity
  8
GUIDE
100
AcDbLine
 10
7.0
 20
-4.25
 30
0.0
 11
7.0
 21
0.0
 31
0.0
  0
LINE
  5
1CE
330
1A
100
AcDbEntity
  8
GUIDE
100
AcDbLine
 10
19.1
 20
-4.25
 30
0.0
 11
19.1
 21
0.0
 31
0.0
  0
LINE
  5
1CF
330
1A
100
AcDbEntity
  8
GUIDE
100
AcDbLine
 10
21.1
 20
-4.25
 30
0.0
 11
21.1
 21
0.0
 31
0.0
  0
LINE
  5
1D0
330
1A
100
AcDbEntity
  8
GUIDE
100
AcDbLine
 10
31.1
 20
-4.25
 30
0.0
 11
31.1
 21
0.0
 31
0.0
  0
LINE
  5
1D1
330
1A
100
AcDbEntity
  8
GUIDE
100
AcDbLine
 10
33.1
 20
-4.25
 30
0.0
 11
33.1
 21
0.0
 31
0.0
  0
LINE
  5
1D2
330
1A
100
AcDbEntity
  8
GUIDE
100
AcDbLine
 10
43.2
 20
-4.25
 30
0.0
 11
43.2
 21
0.0
 31
0.0
  0
LINE
  5
1D3
330
1A
100
AcDbEntity
  8
GUIDE
100
AcDbLine
 10
45.2
 20
-4.25
 30
0.0
 11
45.2
 21
0.0
 31
0.0
  0
LINE
  5
1D4
330
1A
100
AcDbEntity
  8
GUIDE
100
AcDbLine
 10
55.3
 20
-4.25
 30
0.0
 11
55.3
 21
0.0
 31
0.0
  0
LINE
  5
1D5
330
1A
100
AcDbEntity
  8
GUIDE
100
AcDbLine
 10
57.3
 20
-4.25
 30
0.0
 11
57.3
 21
0.0
 31
0.0
  0
LINE
  5
1D6
330
1A
100
AcDbEntity
  8
GUIDE
100
AcDbLine
 10
67.40000000000001
 20
-4.25
 30
0.0
 11
67.40000000000001
 21
0.0
 31
0.0
  0
LINE
  5
1D7
330
1A
100
AcDbEntity
  8
GUIDE
100
AcDbLine
 10
69.40000000000001
 20
-4.25
 30
0.0
 11
69.40000000000001
 21
0.0
 31
0.0
  0
LINE
  5
1D8
330
1A
100
AcDbEntity
  8
GUIDE
100
AcDbLine
 10
67.40000000000001
 20
-42.3
 30
0.0
 11
67.40000000000001
 21
-38.05
 31
0.0
  0
LINE
  5
1D9
330
1A
100
AcDbEntity
  8
GUIDE
100
AcDbLine
 10
69.40000000000001
 20
-42.3
 30
0.0
 11
69.40000000000001
 21
-38.05
 31
0.0
  0
LINE
  5
1DA
330
1A
100
AcDbEntity
  8
GUIDE
100
AcDbLine
 10
55.3
 20
-38.05
 30
0.0
 11
55.3
 21
-42.3
 31
0.0
  0
LINE
  5
1DB
330
1A
100
AcDbEntity
  8
GUIDE
100
AcDbLine
 10
57.3
 20
-38.05
 30
0.0
 11
57.3
 21
-42.3
 31
0.0
  0
LINE
  5
1DC
330
1A
100
AcDbEntity
  8
GUIDE
100
AcDbLine
 10
45.2
 20
-38.05
 30
0.0
 11
45.2
 21
-42.3
 31
0.0
  0
LINE
  5
1DD
330
1A
100
AcDbEntity
  8
GUIDE
100
AcDbLine
 10
43.2
 20
-38.05
 30
0.0
 11
43.2
 21
-42.3
 31
0.0
  0
LINE
  5
1DE
330
1A
100
AcDbEntity
  8
GUIDE
100
AcDbLine
 10
31.1
 20
-42.3
 30
0.0
 11
31.1
 21
-38.05
 31
0.0
  0
LINE
  5
1DF
330
1A
100
AcDbEntity
  8
GUIDE
100
AcDbLine
 10
33.1
 20
-42.3
 30
0.0
 11
33.1
 21
-38.05
 31
0.0
  0
LINE
  5
1E0
330
1A
100
AcDbEntity
  8
GUIDE
100
AcDbLine
 10
21.1
 20
-38.05
 30
0.0
 11
21.1
 21
-42.3
 31
0.0
  0
LINE
  5
1E1
330
1A
100
AcDbEntity
  8
GUIDE
100
AcDbLine
 10
19.1
 20
-38.05
 30
0.0
 11
19.1
 21
-42.3
 31
0.0
  0
LINE
  5
1E2
330
1A
100
AcDbEntity
  8
GUIDE
100
AcDbLine
 10
9.0
 20
-38.05
 30
0.0
 11
9.0
 21
-42.3
 31
0.0
  0
LINE
  5
1E3
330
1A
100
AcDbEntity
  8
GUIDE
100
AcDbLine
 10
7.0
 20
-38.05
 30
0.0
 11
7.0
 21
-42.3
 31
0.0
  0
LINE
  5
1E4
330
1A
100
AcDbEntity
  8
GUIDE
100
AcDbLine
 10
3.1
 20
-4.25
 30
0.0
 11
3.1
 21
0.0
 31
0.0
  0
LINE
  5
1E5
330
1A
100
AcDbEntity
  8
GUIDE
100
AcDbLine
 10
3.1
 20
-38.05
 30
0.0
 11
3.1
 21
-42.3
 31
0.0
  0
LINE
  5
1E6
330
1A
100
AcDbEntity
  8
GUIDE
100
AcDbLine
 10
99.09999999999999
 20
-4.75
 30
0.0
 11
102.6
 21
-4.75
 31
0.0
  0
LINE
  5
1E7
330
1A
100
AcDbEntity
  8
GUIDE
100
AcDbLine
 10
102.6
 20
-4.75
 30
0.0
 11
102.6
 21
-37.55
 31
0.0
  0
ARC
  5
1E8
330
1A
100
AcDbEntity
  8
GUIDE
100
AcDbCircle
 10
98.997648
 20
-4.119948
 30
0.0
 40
0.638312
100
AcDbArc
 50
191.755997
 51
279.227079
  0
LINE
  5
1E9
330
1A
100
AcDbEntity
  8
GUIDE
100
AcDbLine
 10
99.09999999999999
 20
-37.55
 30
0.0
 11
102.6
 21
-37.55
 31
0.0
  0
ARC
  5
1EA
330
1A
100
AcDbEntity
  8
GUIDE
100
AcDbCircle
 10
98.997648
 20
-38.180052
 30
0.0
 40
0.638312
100
AcDbArc
 50
80.772921
 51
168.244003
  0
LINE
  5
1EB
330
1A
100
AcDbEntity
  8
GUIDE
100
AcDbLine
 10
81.5
 20
-4.25
 30
0.0
 11
81.5
 21
0.0
 31
0.0
  0
LINE
  5
1EC
330
1A
100
AcDbEntity
  8
GUIDE
100
AcDbLine
 10
79.5
 20
-4.25
 30
0.0
 11
79.5
 21
0.0
 31
0.0
  0
LINE
  5
1ED
330
1A
100
AcDbEntity
  8
GUIDE
100
AcDbLine
 10
93.59999999999999
 20
-4.25
 30
0.0
 11
93.59999999999999
 21
0.0
 31
0.0
  0
LINE
  5
1EE
330
1A
100
AcDbEntity
  8
GUIDE
100
AcDbLine
 10
91.59999999999999
 20
-4.25
 30
0.0
 11
91.59999999999999
 21
0.0
 31
0.0
  0
INSERT
  5
1EF
330
1A
100
AcDbEntity
  8
GUIDE
100
AcDbBlockReference
  2
A$CE185
 10
76.435981
 20
-30.408595
 30
0.0
  0
INSERT
  5
1F0
330
1A
100
AcDbEntity
  8
GUIDE
100
AcDbBlockReference
  2
A$CE185
 10
88.53598100000001
 20
-11.891405
 30
0.0
 41
-1.0
 50
180.0
  0
LINE
  5
1F1
330
1A
100
AcDbEntity
  8
GUIDE
100
AcDbLine
 10
81.5
 20
-38.05
 30
0.0
 11
81.5
 21
-42.3
 31
0.0
  0
LINE
  5
1F2
330
1A
100
AcDbEntity
  8
GUIDE
100
AcDbLine
 10
79.5
 20
-38.05
 30
0.0
 11
79.5
 21
-42.3
 31
0.0
  0
LINE
  5
1F3
330
1A
100
AcDbEntity
  8
GUIDE
100
AcDbLine
 10
93.59999999999999
 20
-42.3
 30
0.0
 11
93.59999999999999
 21
-38.05
 31
0.0
  0
LINE
  5
1F4
330
1A
100
AcDbEntity
  8
GUIDE
100
AcDbLine
 10
91.59999999999999
 20
-42.3
 30
0.0
 11
91.59999999999999
 21
-38.05
 31
0.0
  0
CIRCLE
  5
1F5
330
1A
100
AcDbEntity
  8
GUIDE
100
AcDbCircle
 10
49.8
 20
46.5
 30
0.0
 40
3.5
  0
LINE
  5
1F6
330
1A
100
AcDbEntity
  8
GUIDE
100
AcDbLine
 10
29.196549
 20
1.770532
 30
0.0
 11
44.020765
 21
48.11259
 31
0.0
  0
ARC
  5
1F7
330
1A
100
AcDbEntity
  8
GUIDE
100
AcDbCircle
 10
26.460053
 20
3.0
 30
0.0
 40
3.0
100
AcDbArc
 50
270.0
 51
335.806301
  0
ARC
  5
1F8
330
1A
100
AcDbEntity
  8
GUIDE
100
AcDbCircle
 10
73.13994700000001
 20
3.0
 30
0.0
 40
3.0
100
AcDbArc
 50
204.193699
 51
270.0
  0
ARC
  5
1F9
330
1A
100
AcDbEntity
  8
GUIDE
100
AcDbCircle
 10
49.8
 20
46.5
 30
0.0
 40
6.0
100
AcDbArc
 50
15.590788
 51
164.409212
  0
LINE
  5
1FA
330
1A
100
AcDbEntity
  8
GUIDE
100
AcDbLine
 10
70.403451
 20
1.770532
 30
0.0
 11
55.579235
 21
48.11259
 31
0.0
  0
LINE
  5
1FB
330
1A
100
AcDbEntity
  8
GUIDE
100
AcDbLine
 10
46.335898
 20
47.0
 30
0.0
 11
53.264102
 21
47.0
 31
0.0
  0
LINE
  5
1FC
330
1A
100
AcDbEntity
  8
GUIDE
100
AcDbLine
 10
46.335898
 20
46.0
 30
0.0
 11
53.3
 21
46.0
 31
0.0
  0
POLYLINE
  5
1FD
330
1A
100
AcDbEntity
  8
GUIDE
100
AcDb2dPolyline
 66
     1
 10
0.0
 20
0.0
 30
0.0
 70
     1
  0
VERTEX
  5
39A
330
1FD
100
AcDbEntity
  8
GUIDE
100
AcDbVertex
100
AcDb2dVertex
 10
166.000641
 20
-36.979354
 30
0.0
  0
VERTEX
  5
39B
330
1FD
100
AcDbEntity
  8
GUIDE
100
AcDbVertex
100
AcDb2dVertex
 10
166.000641
 20
-30.379354
 30
0.0
  0
VERTEX
  5
39C
330
1FD
100
AcDbEntity
  8
GUIDE
100
AcDbVertex
100
AcDb2dVertex
 10
179.600641
 20
-30.379354
 30
0.0
  0
VERTEX
  5
39D
330
1FD
100
AcDbEntity
  8
GUIDE
100
AcDbVertex
100
AcDb2dVertex
 10
179.600641
 20
-36.979354
 30
0.0
  0
SEQEND
  5
399
330
1FD
100
AcDbEntity
  8
GUIDE
  0
POLYLINE
  5
203
330
1A
100
AcDbEntity
  8
GUIDE
100
AcDb2dPolyline
 66
     1
 10
0.0
 20
0.0
 30
0.0
 70
     1
  0
VERTEX
  5
39F
330
203
100
AcDbEntity
  8
GUIDE
100
AcDbVertex
100
AcDb2dVertex
 10
170.300641
 20
-5.079354
 30
0.0
  0
VERTEX
  5
3A0
330
203
100
AcDbEntity
  8
GUIDE
100
AcDbVertex
100
AcDb2dVertex
 10
170.300641
 20
-4.279354
 30
0.0
  0
VERTEX
  5
3A1
330
203
100
AcDbEntity
  8
GUIDE
100
AcDbVertex
100
AcDb2dVertex
 10
175.300641
 20
-4.279354
 30
0.0
  0
VERTEX
  5
3A2
330
203
100
AcDbEntity
  8
GUIDE
100
AcDbVertex
100
AcDb2dVertex
 10
175.300641
 20
-5.079354
 30
0.0
  0
SEQEND
  5
39E
330
203
100
AcDbEntity
  8
GUIDE
  0
LINE
  5
209
330
1A
100
AcDbEntity
  8
GUIDE
100
AcDbLine
 10
164.500641
 20
-7.029354
 30
0.0
 11
164.500641
 21
-35.329354
 31
0.0
  0
POLYLINE
  5
20A
330
1A
100
AcDbEntity
  8
GUIDE
100
AcDb2dPolyline
 66
     1
 10
0.0
 20
0.0
 30
0.0
 70
     1
  0
VERTEX
  5
3A4
330
20A
100
AcDbEntity
  8
GUIDE
100
AcDbVertex
100
AcDb2dVertex
 10
170.300641
 20
-38.079354
 30
0.0
  0
VERTEX
  5
3A5
330
20A
100
AcDbEntity
  8
GUIDE
100
AcDbVertex
100
AcDb2dVertex
 10
170.300641
 20
-36.979354
 30
0.0
  0
VERTEX
  5
3A6
330
20A
100
AcDbEntity
  8
GUIDE
100
AcDbVertex
100
AcDb2dVertex
 10
175.300641
 20
-36.979354
 30
0.0
  0
VERTEX
  5
3A7
330
20A
100
AcDbEntity
  8
GUIDE
100
AcDbVertex
100
AcDb2dVertex
 10
175.300641
 20
-38.079354
 30
0.0
  0
SEQEND
  5
3A3
330
20A
100
AcDbEntity
  8
GUIDE
  0
ARC
  5
210
330
1A
100
AcDbEntity
  8
GUIDE
100
AcDbCircle
 10
166.831713
 20
-6.516757
 30
0.0
 40
2.386766
100
AcDbArc
 50
110.377265
 51
192.401815
  0
ARC
  5
211
330
1A
100
AcDbEntity
  8
GUIDE
100
AcDbCircle
 10
166.831713
 20
-35.841951
 30
0.0
 40
2.386766
100
AcDbArc
 50
167.598185
 51
249.622735
  0
POLYLINE
  5
212
330
1A
100
AcDbEntity
  8
GUIDE
100
AcDb2dPolyline
 66
     1
 10
0.0
 20
0.0
 30
0.0
  0
VERTEX
  5
3A9
330
212
100
AcDbEntity
  8
GUIDE
100
AcDbVertex
100
AcDb2dVertex
 10
176.600641
 20
-0.029354
 30
0.0
  0
VERTEX
  5
3AA
330
212
100
AcDbEntity
  8
GUIDE
100
AcDbVertex
100
AcDb2dVertex
 10
176.600641
 20
-3.279354
 30
0.0
 42
-0.414214
  0
VERTEX
  5
3AB
330
212
100
AcDbEntity
  8
GUIDE
100
AcDbVertex
100
AcDb2dVertex
 10
175.600641
 20
-4.279354
 30
0.0
  0
VERTEX
  5
3AC
330
212
100
AcDbEntity
  8
GUIDE
100
AcDbVertex
100
AcDb2dVertex
 10
166.000641
 20
-4.279354
 30
0.0
  0
SEQEND
  5
3A8
330
212
100
AcDbEntity
  8
GUIDE
  0
POLYLINE
  5
218
330
1A
100
AcDbEntity
  8
GUIDE
100
AcDb2dPolyline
 66
     1
 10
0.0
 20
0.0
 30
0.0
  0
VERTEX
  5
3AE
330
218
100
AcDbEntity
  8
GUIDE
100
AcDbVertex
100
AcDb2dVertex
 10
166.000641
 20
-38.079354
 30
0.0
  0
VERTEX
  5
3AF
330
218
100
AcDbEntity
  8
GUIDE
100
AcDbVertex
100
AcDb2dVertex
 10
175.600641
 20
-38.079354
 30
0.0
 42
-0.365938
  0
VERTEX
  5
3B0
330
218
100
AcDbEntity
  8
GUIDE
100
AcDbVertex
100
AcDb2dVertex
 10
176.600641
 20
-39.329354
 30
0.0
  0
VERTEX
  5
3B1
330
218
100
AcDbEntity
  8
GUIDE
100
AcDbVertex
100
AcDb2dVertex
 10
176.600641
 20
-42.329354
 30
0.0
  0
SEQEND
  5
3AD
330
218
100
AcDbEntity
  8
GUIDE
  0
POLYLINE
  5
21E
330
1A
100
AcDbEntity
  8
GUIDE
100
AcDb2dPolyline
 66
     1
 10
0.0
 20
0.0
 30
0.0
 70
     1
  0
VERTEX
  5
3B3
330
21E
100
AcDbEntity
  8
GUIDE
100
AcDbVertex
100
AcDb2dVertex
 10
166.000641
 20
-20.879354
 30
0.0
  0
VERTEX
  5
3B4
330
21E
100
AcDbEntity
  8
GUIDE
100
AcDbVertex
100
AcDb2dVertex
 10
166.000641
 20
-14.279354
 30
0.0
  0
VERTEX
  5
3B5
330
21E
100
AcDbEntity
  8
GUIDE
100
AcDbVertex
100
AcDb2dVertex
 10
179.600641
 20
-14.279354
 30
0.0
  0
VERTEX
  5
3B6
330
21E
100
AcDbEntity
  8
GUIDE
100
AcDbVertex
100
AcDb2dVertex
 10
179.600641
 20
-20.879354
 30
0.0
  0
SEQEND
  5
3B2
330
21E
100
AcDbEntity
  8
GUIDE
  0
POLYLINE
  5
224
330
1A
100
AcDbEntity
  8
GUIDE
100
AcDb2dPolyline
 66
     1
 10
0.0
 20
0.0
 30
0.0
 70
     1
  0
VERTEX
  5
3B8
330
224
100
AcDbEntity
  8
GUIDE
100
AcDbVertex
100
AcDb2dVertex
 10
168.800641
 20
-21.179354
 30
0.0
  0
VERTEX
  5
3B9
330
224
100
AcDbEntity
  8
GUIDE
100
AcDbVertex
100
AcDb2dVertex
 10
168.800641
 20
-20.879354
 30
0.0
  0
VERTEX
  5
3BA
330
224
100
AcDbEntity
  8
GUIDE
100
AcDbVertex
100
AcDb2dVertex
 10
176.800641
 20
-20.879354
 30
0.0
  0
VERTEX
  5
3BB
330
224
100
AcDbEntity
  8
GUIDE
100
AcDbVertex
100
AcDb2dVertex
 10
176.800641
 20
-21.179354
 30
0.0
  0
SEQEND
  5
3B7
330
224
100
AcDbEntity
  8
GUIDE
  0
POLYLINE
  5
22A
330
1A
100
AcDbEntity
  8
GUIDE
100
AcDb2dPolyline
 66
     1
 10
0.0
 20
0.0
 30
0.0
 70
     1
  0
VERTEX
  5
3BD
330
22A
100
AcDbEntity
  8
GUIDE
100
AcDbVertex
100
AcDb2dVertex
 10
168.800641
 20
-14.279354
 30
0.0
  0
VERTEX
  5
3BE
330
22A
100
AcDbEntity
  8
GUIDE
100
AcDbVertex
100
AcDb2dVertex
 10
168.800641
 20
-5.079354
 30
0.0
  0
VERTEX
  5
3BF
330
22A
100
AcDbEntity
  8
GUIDE
100
AcDbVertex
100
AcDb2dVertex
 10
176.800641
 20
-5.079354
 30
0.0
  0
VERTEX
  5
3C0
330
22A
100
AcDbEntity
  8
GUIDE
100
AcDbVertex
100
AcDb2dVertex
 10
176.800641
 20
-14.279354
 30
0.0
  0
SEQEND
  5
3BC
330
22A
100
AcDbEntity
  8
GUIDE
  0
POLYLINE
  5
230
330
1A
100
AcDbEntity
  8
GUIDE
100
AcDb2dPolyline
 66
     1
 10
0.0
 20
0.0
 30
0.0
 70
     1
  0
VERTEX
  5
3C2
330
230
100
AcDbEntity
  8
GUIDE
100
AcDbVertex
100
AcDb2dVertex
 10
168.800641
 20
-30.379354
 30
0.0
  0
VERTEX
  5
3C3
330
230
100
AcDbEntity
  8
GUIDE
100
AcDbVertex
100
AcDb2dVertex
 10
168.800641
 20
-21.179354
 30
0.0
  0
VERTEX
  5
3C4
330
230
100
AcDbEntity
  8
GUIDE
100
AcDbVertex
100
AcDb2dVertex
 10
176.800641
 20
-21.179354
 30
0.0
  0
VERTEX
  5
3C5
330
230
100
AcDbEntity
  8
GUIDE
100
AcDbVertex
100
AcDb2dVertex
 10
176.800641
 20
-30.379354
 30
0.0
  0
SEQEND
  5
3C1
330
230
100
AcDbEntity
  8
GUIDE
  0
POLYLINE
  5
236
330
1A
100
AcDbEntity
  8
GUIDE
100
AcDb2dPolyline
 66
     1
 10
0.0
 20
0.0
 30
0.0
  0
VERTEX
  5
3C7
330
236
100
AcDbEntity
  8
GUIDE
100
AcDbVertex
100
AcDb2dVertex
 10
166.000641
 20
-21.479354
 30
0.0
  0
VERTEX
  5
3C8
330
236
100
AcDbEntity
  8
GUIDE
100
AcDbVertex
100
AcDb2dVertex
 10
166.000641
 20
-28.079354
 30
0.0
  0
VERTEX
  5
3C9
330
236
100
AcDbEntity
  8
GUIDE
100
AcDbVertex
100
AcDb2dVertex
 10
168.800641
 20
-28.079354
 30
0.0
  0
SEQEND
  5
3C6
330
236
100
AcDbEntity
  8
GUIDE
  0
POLYLINE
  5
23B
330
1A
100
AcDbEntity
  8
GUIDE
100
AcDb2dPolyline
 66
     1
 10
0.0
 20
0.0
 30
0.0
  0
VERTEX
  5
3CB
330
23B
100
AcDbEntity
  8
GUIDE
100
AcDbVertex
100
AcDb2dVertex
 10
176.800641
 20
-28.079354
 30
0.0
  0
VERTEX
  5
3CC
330
23B
100
AcDbEntity
  8
GUIDE
100
AcDbVertex
100
AcDb2dVertex
 10
179.600641
 20
-28.079354
 30
0.0
  0
VERTEX
  5
3CD
330
23B
100
AcDbEntity
  8
GUIDE
100
AcDbVertex
100
AcDb2dVertex
 10
179.600641
 20
-21.479354
 30
0.0
  0
VERTEX
  5
3CE
330
23B
100
AcDbEntity
  8
GUIDE
100
AcDbVertex
100
AcDb2dVertex
 10
176.800641
 20
-21.479354
 30
0.0
  0
SEQEND
  5
3CA
330
23B
100
AcDbEntity
  8
GUIDE
  0
POLYLINE
  5
241
330
1A
100
AcDbEntity
  8
GUIDE
100
AcDb2dPolyline
 66
     1
 10
0.0
 20
0.0
 30
0.0
  0
VERTEX
  5
3D0
330
241
100
AcDbEntity
  8
GUIDE
100
AcDbVertex
100
AcDb2dVertex
 10
168.800641
 20
-21.479354
 30
0.0
  0
VERTEX
  5
3D1
330
241
100
AcDbEntity
  8
GUIDE
100
AcDbVertex
100
AcDb2dVertex
 10
166.000641
 20
-21.479354
 30
0.0
  0
SEQEND
  5
3CF
330
241
100
AcDbEntity
  8
GUIDE
  0
POLYLINE
  5
245
330
1A
100
AcDbEntity
  8
GUIDE
100
AcDb2dPolyline
 66
     1
 10
0.0
 20
0.0
 30
0.0
  0
VERTEX
  5
3D3
330
245
100
AcDbEntity
  8
GUIDE
100
AcDbVertex
100
AcDb2dVertex
 10
166.000641
 20
-5.379354
 30
0.0
  0
VERTEX
  5
3D4
330
245
100
AcDbEntity
  8
GUIDE
100
AcDbVertex
100
AcDb2dVertex
 10
166.000641
 20
-11.979354
 30
0.0
  0
VERTEX
  5
3D5
330
245
100
AcDbEntity
  8
GUIDE
100
AcDbVertex
100
AcDb2dVertex
 10
168.800641
 20
-11.979354
 30
0.0
  0
SEQEND
  5
3D2
330
245
100
AcDbEntity
  8
GUIDE
  0
POLYLINE
  5
24A
330
1A
100
AcDbEntity
  8
GUIDE
100
AcDb2dPolyline
 66
     1
 10
0.0
 20
0.0
 30
0.0
  0
VERTEX
  5
3D7
330
24A
100
AcDbEntity
  8
GUIDE
100
AcDbVertex
100
AcDb2dVertex
 10
176.800641
 20
-11.979354
 30
0.0
  0
VERTEX
  5
3D8
330
24A
100
AcDbEntity
  8
GUIDE
100
AcDbVertex
100
AcDb2dVertex
 10
179.600641
 20
-11.979354
 30
0.0
  0
VERTEX
  5
3D9
330
24A
100
AcDbEntity
  8
GUIDE
100
AcDbVertex
100
AcDb2dVertex
 10
179.600641
 20
-5.379354
 30
0.0
  0
VERTEX
  5
3DA
330
24A
100
AcDbEntity
  8
GUIDE
100
AcDbVertex
100
AcDb2dVertex
 10
176.800641
 20
-5.379354
 30
0.0
  0
SEQEND
  5
3D6
330
24A
100
AcDbEntity
  8
GUIDE
  0
POLYLINE
  5
250
330
1A
100
AcDbEntity
  8
GUIDE
100
AcDb2dPolyline
 66
     1
 10
0.0
 20
0.0
 30
0.0
  0
VERTEX
  5
3DC
330
250
100
AcDbEntity
  8
GUIDE
100
AcDbVertex
100
AcDb2dVertex
 10
168.800641
 20
-5.379354
 30
0.0
  0
VERTEX
  5
3DD
330
250
100
AcDbEntity
  8
GUIDE
100
AcDbVertex
100
AcDb2dVertex
 10
166.000641
 20
-5.379354
 30
0.0
  0
SEQEND
  5
3DB
330
250
100
AcDbEntity
  8
GUIDE
  0
LINE
  5
254
330
1A
100
AcDbEntity
  8
GUIDE
100
AcDbLine
 10
176.600641
 20
-0.029354
 30
0.0
 11
149.400641
 21
-0.029354
 31
0.0
  0
LINE
  5
255
330
1A
100
AcDbEntity
  8
GUIDE
100
AcDbLine
 10
149.400641
 20
-42.329354
 30
0.0
 11
176.600641
 21
-42.329354
 31
0.0
  0
LINE
  5
256
330
1A
100
AcDbEntity
  8
GUIDE
100
AcDbLine
 10
161.500641
 20
-7.029354
 30
0.0
 11
161.500641
 21
-35.329354
 31
0.0
  0
POLYLINE
  5
257
330
1A
100
AcDbEntity
  8
GUIDE
100
AcDb2dPolyline
 66
     1
 10
0.0
 20
0.0
 30
0.0
 70
     1
  0
VERTEX
  5
3DF
330
257
100
AcDbEntity
  8
GUIDE
100
AcDbVertex
100
AcDb2dVertex
 10
157.200641
 20
-21.179354
 30
0.0
  0
VERTEX
  5
3E0
330
257
100
AcDbEntity
  8
GUIDE
100
AcDbVertex
100
AcDb2dVertex
 10
157.200641
 20
-20.879354
 30
0.0
  0
VERTEX
  5
3E1
330
257
100
AcDbEntity
  8
GUIDE
100
AcDbVertex
100
AcDb2dVertex
 10
149.200641
 20
-20.879354
 30
0.0
  0
VERTEX
  5
3E2
330
257
100
AcDbEntity
  8
GUIDE
100
AcDbVertex
100
AcDb2dVertex
 10
149.200641
 20
-21.179354
 30
0.0
  0
SEQEND
  5
3DE
330
257
100
AcDbEntity
  8
GUIDE
  0
POLYLINE
  5
25D
330
1A
100
AcDbEntity
  8
GUIDE
100
AcDb2dPolyline
 66
     1
 10
0.0
 20
0.0
 30
0.0
 70
     1
  0
VERTEX
  5
3E4
330
25D
100
AcDbEntity
  8
GUIDE
100
AcDbVertex
100
AcDb2dVertex
 10
155.700641
 20
-38.079354
 30
0.0
  0
VERTEX
  5
3E5
330
25D
100
AcDbEntity
  8
GUIDE
100
AcDbVertex
100
AcDb2dVertex
 10
155.700641
 20
-36.979354
 30
0.0
  0
VERTEX
  5
3E6
330
25D
100
AcDbEntity
  8
GUIDE
100
AcDbVertex
100
AcDb2dVertex
 10
150.700641
 20
-36.979354
 30
0.0
  0
VERTEX
  5
3E7
330
25D
100
AcDbEntity
  8
GUIDE
100
AcDbVertex
100
AcDb2dVertex
 10
150.700641
 20
-38.079354
 30
0.0
  0
SEQEND
  5
3E3
330
25D
100
AcDbEntity
  8
GUIDE
  0
POLYLINE
  5
263
330
1A
100
AcDbEntity
  8
GUIDE
100
AcDb2dPolyline
 66
     1
 10
0.0
 20
0.0
 30
0.0
 70
     1
  0
VERTEX
  5
3E9
330
263
100
AcDbEntity
  8
GUIDE
100
AcDbVertex
100
AcDb2dVertex
 10
157.200641
 20
-30.379354
 30
0.0
  0
VERTEX
  5
3EA
330
263
100
AcDbEntity
  8
GUIDE
100
AcDbVertex
100
AcDb2dVertex
 10
157.200641
 20
-21.179354
 30
0.0
  0
VERTEX
  5
3EB
330
263
100
AcDbEntity
  8
GUIDE
100
AcDbVertex
100
AcDb2dVertex
 10
149.200641
 20
-21.179354
 30
0.0
  0
VERTEX
  5
3EC
330
263
100
AcDbEntity
  8
GUIDE
100
AcDbVertex
100
AcDb2dVertex
 10
149.200641
 20
-30.379354
 30
0.0
  0
SEQEND
  5
3E8
330
263
100
AcDbEntity
  8
GUIDE
  0
POLYLINE
  5
269
330
1A
100
AcDbEntity
  8
GUIDE
100
AcDb2dPolyline
 66
     1
 10
0.0
 20
0.0
 30
0.0
  0
VERTEX
  5
3EE
330
269
100
AcDbEntity
  8
GUIDE
100
AcDbVertex
100
AcDb2dVertex
 10
160.000641
 20
-38.079354
 30
0.0
  0
VERTEX
  5
3EF
330
269
100
AcDbEntity
  8
GUIDE
100
AcDbVertex
100
AcDb2dVertex
 10
150.400641
 20
-38.079354
 30
0.0
 42
0.365938
  0
VERTEX
  5
3F0
330
269
100
AcDbEntity
  8
GUIDE
100
AcDbVertex
100
AcDb2dVertex
 10
149.400641
 20
-39.329354
 30
0.0
  0
VERTEX
  5
3F1
330
269
100
AcDbEntity
  8
GUIDE
100
AcDbVertex
100
AcDb2dVertex
 10
149.400641
 20
-42.329354
 30
0.0
  0
SEQEND
  5
3ED
330
269
100
AcDbEntity
  8
GUIDE
  0
POLYLINE
  5
26F
330
1A
100
AcDbEntity
  8
GUIDE
100
AcDb2dPolyline
 66
     1
 10
0.0
 20
0.0
 30
0.0
 70
     1
  0
VERTEX
  5
3F3
330
26F
100
AcDbEntity
  8
GUIDE
100
AcDbVertex
100
AcDb2dVertex
 10
160.000641
 20
-36.979354
 30
0.0
  0
VERTEX
  5
3F4
330
26F
100
AcDbEntity
  8
GUIDE
100
AcDbVertex
100
AcDb2dVertex
 10
160.000641
 20
-30.379354
 30
0.0
  0
VERTEX
  5
3F5
330
26F
100
AcDbEntity
  8
GUIDE
100
AcDbVertex
100
AcDb2dVertex
 10
146.400641
 20
-30.379354
 30
0.0
  0
VERTEX
  5
3F6
330
26F
100
AcDbEntity
  8
GUIDE
100
AcDbVertex
100
AcDb2dVertex
 10
146.400641
 20
-36.979354
 30
0.0
  0
SEQEND
  5
3F2
330
26F
100
AcDbEntity
  8
GUIDE
  0
ARC
  5
275
330
1A
100
AcDbEntity
  8
GUIDE
100
AcDbCircle
 10
159.169569
 20
-35.841951
 30
0.0
 40
2.386766
100
AcDbArc
 50
290.377265
 51
12.401815
  0
POLYLINE
  5
276
330
1A
100
AcDbEntity
  8
GUIDE
100
AcDb2dPolyline
 66
     1
 10
0.0
 20
0.0
 30
0.0
  0
VERTEX
  5
3F8
330
276
100
AcDbEntity
  8
GUIDE
100
AcDbVertex
100
AcDb2dVertex
 10
157.200641
 20
-21.479354
 30
0.0
  0
VERTEX
  5
3F9
330
276
100
AcDbEntity
  8
GUIDE
100
AcDbVertex
100
AcDb2dVertex
 10
160.000641
 20
-21.479354
 30
0.0
  0
SEQEND
  5
3F7
330
276
100
AcDbEntity
  8
GUIDE
  0
POLYLINE
  5
27A
330
1A
100
AcDbEntity
  8
GUIDE
100
AcDb2dPolyline
 66
     1
 10
0.0
 20
0.0
 30
0.0
  0
VERTEX
  5
3FB
330
27A
100
AcDbEntity
  8
GUIDE
100
AcDbVertex
100
AcDb2dVertex
 10
160.000641
 20
-21.479354
 30
0.0
  0
VERTEX
  5
3FC
330
27A
100
AcDbEntity
  8
GUIDE
100
AcDbVertex
100
AcDb2dVertex
 10
160.000641
 20
-28.079354
 30
0.0
  0
VERTEX
  5
3FD
330
27A
100
AcDbEntity
  8
GUIDE
100
AcDbVertex
100
AcDb2dVertex
 10
157.200641
 20
-28.079354
 30
0.0
  0
SEQEND
  5
3FA
330
27A
100
AcDbEntity
  8
GUIDE
  0
POLYLINE
  5
27F
330
1A
100
AcDbEntity
  8
GUIDE
100
AcDb2dPolyline
 66
     1
 10
0.0
 20
0.0
 30
0.0
  0
VERTEX
  5
3FF
330
27F
100
AcDbEntity
  8
GUIDE
100
AcDbVertex
100
AcDb2dVertex
 10
149.200641
 20
-28.079354
 30
0.0
  0
VERTEX
  5
400
330
27F
100
AcDbEntity
  8
GUIDE
100
AcDbVertex
100
AcDb2dVertex
 10
146.400641
 20
-28.079354
 30
0.0
  0
VERTEX
  5
401
330
27F
100
AcDbEntity
  8
GUIDE
100
AcDbVertex
100
AcDb2dVertex
 10
146.400641
 20
-21.479354
 30
0.0
  0
VERTEX
  5
402
330
27F
100
AcDbEntity
  8
GUIDE
100
AcDbVertex
100
AcDb2dVertex
 10
149.200641
 20
-21.479354
 30
0.0
  0
SEQEND
  5
3FE
330
27F
100
AcDbEntity
  8
GUIDE
  0
POLYLINE
  5
285
330
1A
100
AcDbEntity
  8
GUIDE
100
AcDb2dPolyline
 66
     1
 10
0.0
 20
0.0
 30
0.0
 70
     1
  0
VERTEX
  5
404
330
285
100
AcDbEntity
  8
GUIDE
100
AcDbVertex
100
AcDb2dVertex
 10
157.200641
 20
-14.279354
 30
0.0
  0
VERTEX
  5
405
330
285
100
AcDbEntity
  8
GUIDE
100
AcDbVertex
100
AcDb2dVertex
 10
157.200641
 20
-5.079354
 30
0.0
  0
VERTEX
  5
406
330
285
100
AcDbEntity
  8
GUIDE
100
AcDbVertex
100
AcDb2dVertex
 10
149.200641
 20
-5.079354
 30
0.0
  0
VERTEX
  5
407
330
285
100
AcDbEntity
  8
GUIDE
100
AcDbVertex
100
AcDb2dVertex
 10
149.200641
 20
-14.279354
 30
0.0
  0
SEQEND
  5
403
330
285
100
AcDbEntity
  8
GUIDE
  0
POLYLINE
  5
28B
330
1A
100
AcDbEntity
  8
GUIDE
100
AcDb2dPolyline
 66
     1
 10
0.0
 20
0.0
 30
0.0
 70
     1
  0
VERTEX
  5
409
330
28B
100
AcDbEntity
  8
GUIDE
100
AcDbVertex
100
AcDb2dVertex
 10
160.000641
 20
-20.879354
 30
0.0
  0
VERTEX
  5
40A
330
28B
100
AcDbEntity
  8
GUIDE
100
AcDbVertex
100
AcDb2dVertex
 10
160.000641
 20
-14.279354
 30
0.0
  0
VERTEX
  5
40B
330
28B
100
AcDbEntity
  8
GUIDE
100
AcDbVertex
100
AcDb2dVertex
 10
146.400641
 20
-14.279354
 30
0.0
  0
VERTEX
  5
40C
330
28B
100
AcDbEntity
  8
GUIDE
100
AcDbVertex
100
AcDb2dVertex
 10
146.400641
 20
-20.879354
 30
0.0
  0
SEQEND
  5
408
330
28B
100
AcDbEntity
  8
GUIDE
  0
POLYLINE
  5
291
330
1A
100
AcDbEntity
  8
GUIDE
100
AcDb2dPolyline
 66
     1
 10
0.0
 20
0.0
 30
0.0
  0
VERTEX
  5
40E
330
291
100
AcDbEntity
  8
GUIDE
100
AcDbVertex
100
AcDb2dVertex
 10
149.400641
 20
-0.029354
 30
0.0
  0
VERTEX
  5
40F
330
291
100
AcDbEntity
  8
GUIDE
100
AcDbVertex
100
AcDb2dVertex
 10
149.400641
 20
-3.279354
 30
0.0
 42
0.414214
  0
VERTEX
  5
410
330
291
100
AcDbEntity
  8
GUIDE
100
AcDbVertex
100
AcDb2dVertex
 10
150.400641
 20
-4.279354
 30
0.0
  0
VERTEX
  5
411
330
291
100
AcDbEntity
  8
GUIDE
100
AcDbVertex
100
AcDb2dVertex
 10
160.000641
 20
-4.279354
 30
0.0
  0
SEQEND
  5
40D
330
291
100
AcDbEntity
  8
GUIDE
  0
POLYLINE
  5
297
330
1A
100
AcDbEntity
  8
GUIDE
100
AcDb2dPolyline
 66
     1
 10
0.0
 20
0.0
 30
0.0
 70
     1
  0
VERTEX
  5
413
330
297
100
AcDbEntity
  8
GUIDE
100
AcDbVertex
100
AcDb2dVertex
 10
155.700641
 20
-5.079354
 30
0.0
  0
VERTEX
  5
414
330
297
100
AcDbEntity
  8
GUIDE
100
AcDbVertex
100
AcDb2dVertex
 10
155.700641
 20
-4.279354
 30
0.0
  0
VERTEX
  5
415
330
297
100
AcDbEntity
  8
GUIDE
100
AcDbVertex
100
AcDb2dVertex
 10
150.700641
 20
-4.279354
 30
0.0
  0
VERTEX
  5
416
330
297
100
AcDbEntity
  8
GUIDE
100
AcDbVertex
100
AcDb2dVertex
 10
150.700641
 20
-5.079354
 30
0.0
  0
SEQEND
  5
412
330
297
100
AcDbEntity
  8
GUIDE
  0
POLYLINE
  5
29D
330
1A
100
AcDbEntity
  8
GUIDE
100
AcDb2dPolyline
 66
     1
 10
0.0
 20
0.0
 30
0.0
  0
VERTEX
  5
418
330
29D
100
AcDbEntity
  8
GUIDE
100
AcDbVertex
100
AcDb2dVertex
 10
160.000641
 20
-5.379354
 30
0.0
  0
VERTEX
  5
419
330
29D
100
AcDbEntity
  8
GUIDE
100
AcDbVertex
100
AcDb2dVertex
 10
160.000641
 20
-11.979354
 30
0.0
  0
VERTEX
  5
41A
330
29D
100
AcDbEntity
  8
GUIDE
100
AcDbVertex
100
AcDb2dVertex
 10
157.200641
 20
-11.979354
 30
0.0
  0
SEQEND
  5
417
330
29D
100
AcDbEntity
  8
GUIDE
  0
POLYLINE
  5
2A2
330
1A
100
AcDbEntity
  8
GUIDE
100
AcDb2dPolyline
 66
     1
 10
0.0
 20
0.0
 30
0.0
  0
VERTEX
  5
41C
330
2A2
100
AcDbEntity
  8
GUIDE
100
AcDbVertex
100
AcDb2dVertex
 10
157.200641
 20
-5.379354
 30
0.0
  0
VERTEX
  5
41D
330
2A2
100
AcDbEntity
  8
GUIDE
100
AcDbVertex
100
AcDb2dVertex
 10
160.000641
 20
-5.379354
 30
0.0
  0
SEQEND
  5
41B
330
2A2
100
AcDbEntity
  8
GUIDE
  0
ARC
  5
2A6
330
1A
100
AcDbEntity
  8
GUIDE
100
AcDbCircle
 10
159.169569
 20
-6.516757
 30
0.0
 40
2.386766
100
AcDbArc
 50
347.5981850000001
 51
69.62273500000001
  0
POLYLINE
  5
2A7
330
1A
100
AcDbEntity
  8
GUIDE
100
AcDb2dPolyline
 66
     1
 10
0.0
 20
0.0
 30
0.0
  0
VERTEX
  5
41F
330
2A7
100
AcDbEntity
  8
GUIDE
100
AcDbVertex
100
AcDb2dVertex
 10
149.200641
 20
-11.979354
 30
0.0
  0
VERTEX
  5
420
330
2A7
100
AcDbEntity
  8
GUIDE
100
AcDbVertex
100
AcDb2dVertex
 10
146.400641
 20
-11.979354
 30
0.0
  0
VERTEX
  5
421
330
2A7
100
AcDbEntity
  8
GUIDE
100
AcDbVertex
100
AcDb2dVertex
 10
146.400641
 20
-5.379354
 30
0.0
  0
VERTEX
  5
422
330
2A7
100
AcDbEntity
  8
GUIDE
100
AcDbVertex
100
AcDb2dVertex
 10
149.200641
 20
-5.379354
 30
0.0
  0
SEQEND
  5
41E
330
2A7
100
AcDbEntity
  8
GUIDE
  0
LINE
  5
2AD
330
1A
100
AcDbEntity
  8
GUIDE
100
AcDbLine
 10
169.000641
 20
51.470646
 30
0.0
 11
167.000641
 21
51.470646
 31
0.0
  0
LINE
  5
2AE
330
1A
100
AcDbEntity
  8
GUIDE
100
AcDbLine
 10
157.000641
 20
51.470646
 30
0.0
 11
157.000641
 21
41.470646
 31
0.0
  0
LINE
  5
2AF
330
1A
100
AcDbEntity
  8
GUIDE
100
AcDbLine
 10
169.000641
 20
51.470646
 30
0.0
 11
169.000641
 21
41.470646
 31
0.0
  0
LINE
  5
2B0
330
1A
100
AcDbEntity
  8
GUIDE
100
AcDbLine
 10
157.000641
 20
41.470646
 30
0.0
 11
150.400641
 21
-0.029354
 31
0.0
  0
LINE
  5
2B1
330
1A
100
AcDbEntity
  8
GUIDE
100
AcDbLine
 10
169.000641
 20
41.470646
 30
0.0
 11
175.600641
 21
-0.029354
 31
0.0
  0
LINE
  5
2B2
330
1A
100
AcDbEntity
  8
GUIDE
100
AcDbLine
 10
159.000641
 20
51.470646
 30
0.0
 11
159.000641
 21
41.470646
 31
0.0
  0
LINE
  5
2B3
330
1A
100
AcDbEntity
  8
GUIDE
100
AcDbLine
 10
167.000641
 20
51.470646
 30
0.0
 11
167.000641
 21
41.470646
 31
0.0
  0
ARC
  5
2B4
330
1A
100
AcDbEntity
  8
GUIDE
100
AcDbCircle
 10
158.589203
 20
46.470646
 30
0.0
 40
3.5
100
AcDbArc
 50
116.992564
 51
243.007436
  0
ARC
  5
2B5
330
1A
100
AcDbEntity
  8
GUIDE
100
AcDbCircle
 10
161.144714
 20
46.470646
 30
0.0
 40
9.095051
100
AcDbArc
 50
329.741229
 51
30.258771
  0
LINE
  5
2B6
330
1A
100
AcDbEntity
  8
GUIDE
100
AcDbLine
 10
157.000641
 20
41.470646
 30
0.0
 11
157.000641
 21
-0.029354
 31
0.0
  0
LINE
  5
2B7
330
1A
100
AcDbEntity
  8
GUIDE
100
AcDbLine
 10
169.000641
 20
41.470646
 30
0.0
 11
169.000641
 21
-0.029354
 31
0.0
  0
LINE
  5
2B8
330
1A
100
AcDbEntity
  8
GUIDE
100
AcDbLine
 10
167.000641
 20
49.470646
 30
0.0
 11
159.000641
 21
49.470646
 31
0.0
  0
LINE
  5
2B9
330
1A
100
AcDbEntity
  8
GUIDE
100
AcDbLine
 10
159.000641
 20
41.470646
 30
0.0
 11
159.000641
 21
-0.029354
 31
0.0
  0
LINE
  5
2BA
330
1A
100
AcDbEntity
  8
GUIDE
100
AcDbLine
 10
167.000641
 20
41.470646
 30
0.0
 11
167.000641
 21
-0.029354
 31
0.0
  0
LINE
  5
2BB
330
1A
100
AcDbEntity
  8
GUIDE
100
AcDbLine
 10
159.000641
 20
51.470646
 30
0.0
 11
157.000641
 21
51.470646
 31
0.0
  0
ENDSEC
  0
SECTION
  2
OBJECTS
  0
DICTIONARY
  5
C
330
0
100
AcDbDictionary
  3
ACAD_GROUP
350
D
  3
ACAD_LAYOUT
350
2BD
  3
ACAD_MLINESTYLE
350
E
1001
ACAD
1000
TREAT_AS_HARD
1070
     0
  0
DICTIONARY
  5
44B
330
2BC
100
AcDbDictionary
  3
ACAD_XREC_ROUNDTRIP
360
44C
  0
DICTIONARY
  5
D
102
{ACAD_REACTORS
330
C
102
}
330
C
100
AcDbDictionary
1001
ACAD
1000
TREAT_AS_HARD
1070
     0
  0
DICTIONARY
  5
2BD
102
{ACAD_REACTORS
330
C
102
}
330
C
100
AcDbDictionary
1001
ACAD
1000
TREAT_AS_HARD
1070
     0
  0
DICTIONARY
  5
E
102
{ACAD_REACTORS
330
C
102
}
330
C
100
AcDbDictionary
  3
STANDARD
350
13
1001
ACAD
1000
TREAT_AS_HARD
1070
     0
  0
XRECORD
  5
44C
102
{ACAD_REACTORS
330
44B
102
}
330
44B
100
AcDbXrecord
102
UCS
 74
     0
 71
     1
 10
0.0
 20
0.0
 30
0.0
 10
1.0
 20
0.0
 30
0.0
 10
0.0
 20
1.0
 30
0.0
146
0.0
 79
     0
102
VIEW
281
     0
  0
MLINESTYLE
  5
13
102
{ACAD_REACTORS
330
E
102
}
330
E
100
AcDbMlineStyle
  2
STANDARD
 70
     0
  3

 62
     0
 51
90.0
 52
90.0
 71
     2
 49
0.5
 62
   256
  6
BYLAYER
 49
-0.5
 62
   256
  6
BYLAYER
  0
ENDSEC
  0
EOF
