  0
SECTION
  2
HEADER
  9
$ACADVER
  1
AC1012
  9
$DWGCODEPAGE
  3
ansi_1252
  9
$INSBASE
 10
0.0
 20
0.0
 30
0.0
  9
$EXTMIN
 10
0.0
 20
-150.104867
 30
0.0
  9
$EXTMAX
 10
159.472353
 20
52.5
 30
0.0
  9
$LIMMIN
 10
0.0
 20
0.0
  9
$LIMMAX
 10
12.0
 20
9.0
  9
$ORTHOMODE
 70
     1
  9
$REGENMODE
 70
     1
  9
$FILLMODE
 70
     1
  9
$QTEXTMODE
 70
     0
  9
$MIRRTEXT
 70
     1
  9
$DRAGMODE
 70
     2
  9
$LTSCALE
 40
1.0
  9
$OSMODE
 70
    37
  9
$ATTMODE
 70
     1
  9
$TEXTSIZE
 40
0.2
  9
$TRACEWID
 40
0.05
  9
$TEXTSTYLE
  7
STANDARD
  9
$CLAYER
  8
0
  9
$CELTYPE
  6
BYLAYER
  9
$CECOLOR
 62
   256
  9
$CELTSCALE
 40
1.0
  9
$DELOBJ
 70
     1
  9
$DISPSILH
 70
     0
  9
$DIMSCALE
 40
1.0
  9
$DIMASZ
 40
0.18
  9
$DIMEXO
 40
0.0625
  9
$DIMDLI
 40
0.38
  9
$DIMRND
 40
0.0
  9
$DIMDLE
 40
0.0
  9
$DIMEXE
 40
0.18
  9
$DIMTP
 40
0.0
  9
$DIMTM
 40
0.0
  9
$DIMTXT
 40
0.18
  9
$DIMCEN
 40
0.09
  9
$DIMTSZ
 40
0.0
  9
$DIMTOL
 70
     0
  9
$DIMLIM
 70
     0
  9
$DIMTIH
 70
     1
  9
$DIMTOH
 70
     1
  9
$DIMSE1
 70
     0
  9
$DIMSE2
 70
     0
  9
$DIMTAD
 70
     0
  9
$DIMZIN
 70
     0
  9
$DIMBLK
  1

  9
$DIMASO
 70
     1
  9
$DIMSHO
 70
     1
  9
$DIMPOST
  1

  9
$DIMAPOST
  1

  9
$DIMALT
 70
     0
  9
$DIMALTD
 70
     2
  9
$DIMALTF
 40
25.4
  9
$DIMLFAC
 40
1.0
  9
$DIMTOFL
 70
     0
  9
$DIMTVP
 40
0.0
  9
$DIMTIX
 70
     0
  9
$DIMSOXD
 70
     0
  9
$DIMSAH
 70
     0
  9
$DIMBLK1
  1

  9
$DIMBLK2
  1

  9
$DIMSTYLE
  2
STANDARD
  9
$DIMCLRD
 70
     0
  9
$DIMCLRE
 70
     0
  9
$DIMCLRT
 70
     0
  9
$DIMTFAC
 40
1.0
  9
$DIMGAP
 40
0.09
  9
$DIMJUST
 70
     0
  9
$DIMSD1
 70
     0
  9
$DIMSD2
 70
     0
  9
$DIMTOLJ
 70
     1
  9
$DIMTZIN
 70
     0
  9
$DIMALTZ
 70
     0
  9
$DIMALTTZ
 70
     0
  9
$DIMFIT
 70
     3
  9
$DIMUPT
 70
     0
  9
$DIMUNIT
 70
     2
  9
$DIMDEC
 70
     4
  9
$DIMTDEC
 70
     4
  9
$DIMALTU
 70
     2
  9
$DIMALTTD
 70
     2
  9
$DIMTXSTY
  7
STANDARD
  9
$DIMAUNIT
 70
     0
  9
$LUNITS
 70
     2
  9
$LUPREC
 70
     4
  9
$SKETCHINC
 40
0.1
  9
$FILLETRAD
 40
0.0
  9
$AUNITS
 70
     0
  9
$AUPREC
 70
     0
  9
$MENU
  1
acad
  9
$ELEVATION
 40
0.0
  9
$PELEVATION
 40
0.0
  9
$THICKNESS
 40
0.0
  9
$LIMCHECK
 70
     0
  9
$CHAMFERA
 40
0.0
  9
$CHAMFERB
 40
0.0
  9
$CHAMFERC
 40
0.0
  9
$CHAMFERD
 40
0.0
  9
$SKPOLY
 70
     0
  9
$TDCREATE
 40
2447893.083333334
  9
$TDUPDATE
 40
2447893.083333334
  9
$TDINDWG
 40
0.0134929398
  9
$TDUSRTIMER
 40
0.0134929398
  9
$USRTIMER
 70
     1
  9
$ANGBASE
 50
0.0
  9
$ANGDIR
 70
     0
  9
$PDMODE
 70
     0
  9
$PDSIZE
 40
0.0
  9
$PLINEWID
 40
0.0
  9
$COORDS
 70
     1
  9
$SPLFRAME
 70
     0
  9
$SPLINETYPE
 70
     6
  9
$SPLINESEGS
 70
     8
  9
$ATTDIA
 70
     0
  9
$ATTREQ
 70
     1
  9
$HANDLING
 70
     1
  9
$HANDSEED
  5
C20
  9
$SURFTAB1
 70
     6
  9
$SURFTAB2
 70
     6
  9
$SURFTYPE
 70
     6
  9
$SURFU
 70
     6
  9
$SURFV
 70
     6
  9
$UCSNAME
  2

  9
$UCSORG
 10
0.0
 20
0.0
 30
0.0
  9
$UCSXDIR
 10
1.0
 20
0.0
 30
0.0
  9
$UCSYDIR
 10
0.0
 20
1.0
 30
0.0
  9
$PUCSNAME
  2

  9
$PUCSORG
 10
0.0
 20
0.0
 30
0.0
  9
$PUCSXDIR
 10
1.0
 20
0.0
 30
0.0
  9
$PUCSYDIR
 10
0.0
 20
1.0
 30
0.0
  9
$USERI1
 70
     0
  9
$USERI2
 70
     0
  9
$USERI3
 70
     0
  9
$USERI4
 70
     0
  9
$USERI5
 70
     0
  9
$USERR1
 40
0.0
  9
$USERR2
 40
0.0
  9
$USERR3
 40
0.0
  9
$USERR4
 40
0.0
  9
$USERR5
 40
0.0
  9
$WORLDVIEW
 70
     1
  9
$SHADEDGE
 70
     3
  9
$SHADEDIF
 70
    70
  9
$TILEMODE
 70
     1
  9
$MAXACTVP
 70
    16
  9
$PINSBASE
 10
0.0
 20
0.0
 30
0.0
  9
$PLIMCHECK
 70
     0
  9
$PEXTMIN
 10
1.000000000000000E+20
 20
1.000000000000000E+20
 30
1.000000000000000E+20
  9
$PEXTMAX
 10
-1.000000000000000E+20
 20
-1.000000000000000E+20
 30
-1.000000000000000E+20
  9
$PLIMMIN
 10
0.0
 20
0.0
  9
$PLIMMAX
 10
12.0
 20
9.0
  9
$UNITMODE
 70
     0
  9
$VISRETAIN
 70
     0
  9
$PLINEGEN
 70
     0
  9
$PSLTSCALE
 70
     1
  9
$TREEDEPTH
 70
  3020
  9
$PICKSTYLE
 70
     1
  9
$CMLSTYLE
  2
STANDARD
  9
$CMLJUST
 70
     0
  9
$CMLSCALE
 40
1.0
  9
$SAVEIMAGES
 70
     1
  0
ENDSEC
  0
SECTION
  2
CLASSES
  0
CLASS
  1
XRECORD
  2
AcDbXrecord
  3
AutoCAD 2000
 90
    32768
280
     0
281
     0
  0
CLASS
  1
LWPOLYLINE
  2
AcDbPolyline
  3
AutoCAD 2000
 90
    32768
280
     0
281
     1
  0
CLASS
  1
HATCH
  2
AcDbHatch
  3
AutoCAD 2000
 90
    32768
280
     0
281
     1
  0
CLASS
  1
ACDBPLACEHOLDER
  2
AcDbPlaceHolder
  3
ObjectDBX Classes
 90
        0
280
     0
281
     0
  0
CLASS
  1
LAYOUT
  2
AcDbLayout
  3
ObjectDBX Classes
 90
        0
280
     0
281
     0
  0
ENDSEC
  0
SECTION
  2
TABLES
  0
TABLE
  2
VPORT
  5
8
330
0
100
AcDbSymbolTable
 70
     1
  0
VPORT
  5
7EB
102
{ACAD_XDICTIONARY
360
C1E
102
}
330
8
100
AcDbSymbolTableRecord
100
AcDbViewportTableRecord
  2
*ACTIVE
 70
     0
 10
0.0
 20
0.0
 11
1.0
 21
1.0
 12
193.931448
 22
-48.853916
 13
0.0
 23
0.0
 14
1.0
 24
1.0
 15
0.0
 25
0.0
 16
0.0
 26
0.0
 36
1.0
 17
0.0
 27
0.0
 37
0.0
 40
202.501902
 41
1.915354
 42
50.0
 43
0.0
 44
0.0
 50
0.0
 51
0.0
 71
     0
 72
   100
 73
     1
 74
     1
 75
     0
 76
     0
 77
     0
 78
     0
  0
ENDTAB
  0
TABLE
  2
LTYPE
  5
5
330
0
100
AcDbSymbolTable
 70
     2
  0
LTYPE
  5
14
330
5
100
AcDbSymbolTableRecord
100
AcDbLinetypeTableRecord
  2
BYBLOCK
 70
     0
  3

 72
    65
 73
     0
 40
0.0
  0
LTYPE
  5
15
330
5
100
AcDbSymbolTableRecord
100
AcDbLinetypeTableRecord
  2
BYLAYER
 70
     0
  3

 72
    65
 73
     0
 40
0.0
  0
LTYPE
  5
16
330
5
100
AcDbSymbolTableRecord
100
AcDbLinetypeTableRecord
  2
CONTINUOUS
 70
     0
  3
Solid line
 72
    65
 73
     0
 40
0.0
  0
LTYPE
  5
3E2
330
5
100
AcDbSymbolTableRecord
100
AcDbLinetypeTableRecord
  2
DASHDOT
 70
     0
  3
__ . __ . __ . __ . __ . __ . __ . __ . __ . __
 72
    65
 73
     4
 40
1.0
 49
0.5
 74
     0
 49
-0.25
 74
     0
 49
0.0
 74
     0
 49
-0.25
 74
     0
  0
ENDTAB
  0
TABLE
  2
LAYER
  5
2
330
0
100
AcDbSymbolTable
 70
     3
  0
LAYER
  5
F
330
2
100
AcDbSymbolTableRecord
100
AcDbLayerTableRecord
  2
0
 70
     0
 62
     7
  6
CONTINUOUS
  0
LAYER
  5
28
330
2
100
AcDbSymbolTableRecord
100
AcDbLayerTableRecord
  2
GUIDE
 70
     0
 62
     7
  6
CONTINUOUS
  0
LAYER
  5
3E3
330
2
100
AcDbSymbolTableRecord
100
AcDbLayerTableRecord
  2
AXIS
 70
     0
 62
     1
  6
DASHDOT
  0
ENDTAB
  0
TABLE
  2
STYLE
  5
3
330
0
100
AcDbSymbolTable
 70
     1
  0
STYLE
  5
10
330
3
100
AcDbSymbolTableRecord
100
AcDbTextStyleTableRecord
  2
STANDARD
 70
     0
 40
0.0
 41
1.0
 50
0.0
 71
     0
 42
0.2
  3
txt
  4

  0
ENDTAB
  0
TABLE
  2
VIEW
  5
6
330
0
100
AcDbSymbolTable
 70
     0
  0
ENDTAB
  0
TABLE
  2
UCS
  5
7
330
0
100
AcDbSymbolTable
 70
     0
  0
ENDTAB
  0
TABLE
  2
APPID
  5
9
330
0
100
AcDbSymbolTable
 70
     1
  0
APPID
  5
11
330
9
100
AcDbSymbolTableRecord
100
AcDbRegAppTableRecord
  2
ACAD
 70
     0
  0
ENDTAB
  0
TABLE
  2
DIMSTYLE
  5
A
330
0
100
AcDbSymbolTable
 70
     1
  0
DIMSTYLE
105
1D
330
A
100
AcDbSymbolTableRecord
100
AcDbDimStyleTableRecord
  2
STANDARD
 70
     0
  3

  4

  5

  6

  7

 40
1.0
 41
0.18
 42
0.0625
 43
0.38
 44
0.18
 45
0.0
 46
0.0
 47
0.0
 48
0.0
140
0.18
141
0.09
142
0.0
143
25.4
144
1.0
145
0.0
146
1.0
147
0.09
 71
     0
 72
     0
 73
     1
 74
     1
 75
     0
 76
     0
 77
     0
 78
     0
170
     0
171
     2
172
     0
173
     0
174
     0
175
     0
176
     0
177
     0
178
     0
270
     2
271
     4
272
     4
273
     2
274
     2
340
10
275
     0
280
     0
281
     0
282
     0
283
     1
284
     0
285
     0
286
     0
287
     3
288
     0
  0
ENDTAB
  0
TABLE
  2
BLOCK_RECORD
  5
1
330
0
100
AcDbSymbolTable
 70
     0
  0
BLOCK_RECORD
  5
1A
330
1
100
AcDbSymbolTableRecord
100
AcDbBlockTableRecord
  2
*MODEL_SPACE
  0
BLOCK_RECORD
  5
17
330
1
100
AcDbSymbolTableRecord
100
AcDbBlockTableRecord
  2
*PAPER_SPACE
  0
ENDTAB
  0
ENDSEC
  0
SECTION
  2
BLOCKS
  0
BLOCK
  5
1B
330
1A
100
AcDbEntity
  8
0
100
AcDbBlockBegin
  2
*MODEL_SPACE
 70
     0
 71
     0
 10
0.0
 20
0.0
 30
0.0
  3
*MODEL_SPACE
  1

  0
ENDBLK
  5
1C
330
1A
100
AcDbEntity
  8
0
100
AcDbBlockEnd
  0
BLOCK
  5
18
330
17
100
AcDbEntity
 67
     1
  8
0
100
AcDbBlockBegin
  2
*PAPER_SPACE
 70
     0
 71
     0
 10
0.0
 20
0.0
 30
0.0
  3
*PAPER_SPACE
  1

  0
ENDBLK
  5
19
330
17
100
AcDbEntity
 67
     1
  8
0
100
AcDbBlockEnd
  0
ENDSEC
  0
SECTION
  2
ENTITIES
  0
LINE
  5
414
330
1A
100
AcDbEntity
  8
GUIDE
100
AcDbLine
 10
0.0
 20
-132.004867
 30
0.0
 11
0.0
 21
-135.004867
 31
0.0
  0
LINE
  5
415
330
1A
100
AcDbEntity
  8
GUIDE
100
AcDbLine
 10
99.59999999999999
 20
-119.904867
 30
0.0
 11
99.59999999999999
 21
-147.104867
 31
0.0
  0
LINE
  5
416
330
1A
100
AcDbEntity
  8
GUIDE
100
AcDbLine
 10
102.6
 20
-132.004867
 30
0.0
 11
102.6
 21
-135.004867
 31
0.0
  0
LINE
  5
417
330
1A
100
AcDbEntity
  8
GUIDE
100
AcDbLine
 10
26.460053
 20
-127.504867
 30
0.0
 11
26.460053
 21
-129.504867
 31
0.0
  0
LINE
  5
418
330
1A
100
AcDbEntity
  8
GUIDE
100
AcDbLine
 10
73.13994700000001
 20
-127.504867
 30
0.0
 11
73.13994700000001
 21
-129.504867
 31
0.0
  0
LINE
  5
419
330
1A
100
AcDbEntity
  8
GUIDE
100
AcDbLine
 10
3.1
 20
-147.104867
 30
0.0
 11
99.59999999999999
 21
-147.104867
 31
0.0
  0
LINE
  5
41A
330
1A
100
AcDbEntity
  8
GUIDE
100
AcDbLine
 10
3.1
 20
-119.904867
 30
0.0
 11
99.59999999999999
 21
-119.904867
 31
0.0
  0
LINE
  5
41B
330
1A
100
AcDbEntity
  8
GUIDE
100
AcDbLine
 10
26.460053
 20
-127.504867
 30
0.0
 11
73.13994700000001
 21
-127.504867
 31
0.0
  0
LINE
  5
41C
330
1A
100
AcDbEntity
  8
GUIDE
100
AcDbLine
 10
26.460053
 20
-139.504867
 30
0.0
 11
73.13994700000001
 21
-139.504867
 31
0.0
  0
LINE
  5
41D
330
1A
100
AcDbEntity
  8
GUIDE
100
AcDbLine
 10
26.460053
 20
-129.504867
 30
0.0
 11
73.13994700000001
 21
-129.504867
 31
0.0
  0
LINE
  5
41E
330
1A
100
AcDbEntity
  8
GUIDE
100
AcDbLine
 10
26.460053
 20
-137.504867
 30
0.0
 11
73.13994700000001
 21
-137.504867
 31
0.0
  0
LINE
  5
41F
330
1A
100
AcDbEntity
  8
GUIDE
100
AcDbLine
 10
26.460053
 20
-137.504867
 30
0.0
 11
26.460053
 21
-139.504867
 31
0.0
  0
LINE
  5
420
330
1A
100
AcDbEntity
  8
GUIDE
100
AcDbLine
 10
73.13994700000001
 20
-137.504867
 30
0.0
 11
73.13994700000001
 21
-139.504867
 31
0.0
  0
LINE
  5
421
330
1A
100
AcDbEntity
  8
GUIDE
100
AcDbLine
 10
46.3
 20
-129.504867
 30
0.0
 11
46.3
 21
-137.504867
 31
0.0
  0
LINE
  5
422
330
1A
100
AcDbEntity
  8
GUIDE
100
AcDbLine
 10
53.3
 20
-129.504867
 30
0.0
 11
53.3
 21
-137.504867
 31
0.0
  0
LINE
  5
423
330
1A
100
AcDbEntity
  8
GUIDE
100
AcDbLine
 10
99.59999999999999
 20
-135.004867
 30
0.0
 11
102.6
 21
-135.004867
 31
0.0
  0
LINE
  5
424
330
1A
100
AcDbEntity
  8
GUIDE
100
AcDbLine
 10
99.59999999999999
 20
-132.004867
 30
0.0
 11
102.6
 21
-132.004867
 31
0.0
  0
ARC
  5
425
330
1A
100
AcDbEntity
  8
GUIDE
100
AcDbCircle
 10
92.59999999999999
 20
-123.704867
 30
0.0
 40
6.8
100
AcDbArc
 50
33.974476
 51
146.025524
  0
ARC
  5
426
330
1A
100
AcDbEntity
  8
GUIDE
100
AcDbCircle
 10
92.59999999999999
 20
-143.304867
 30
0.0
 40
6.8
100
AcDbArc
 50
213.974476
 51
326.025524
  0
ARC
  5
427
330
1A
100
AcDbEntity
  8
GUIDE
100
AcDbCircle
 10
20.1
 20
-123.704867
 30
0.0
 40
6.8
100
AcDbArc
 50
33.974476
 51
146.025524
  0
ARC
  5
428
330
1A
100
AcDbEntity
  8
GUIDE
100
AcDbCircle
 10
32.1
 20
-123.704867
 30
0.0
 40
6.8
100
AcDbArc
 50
33.974476
 51
146.025524
  0
ARC
  5
429
330
1A
100
AcDbEntity
  8
GUIDE
100
AcDbCircle
 10
44.2
 20
-123.704867
 30
0.0
 40
6.8
100
AcDbArc
 50
33.974476
 51
146.025524
  0
ARC
  5
42A
330
1A
100
AcDbEntity
  8
GUIDE
100
AcDbCircle
 10
56.3
 20
-123.704867
 30
0.0
 40
6.8
100
AcDbArc
 50
33.974476
 51
146.025524
  0
ARC
  5
42B
330
1A
100
AcDbEntity
  8
GUIDE
100
AcDbCircle
 10
68.40000000000001
 20
-123.704867
 30
0.0
 40
6.8
100
AcDbArc
 50
33.974476
 51
146.025524
  0
ARC
  5
42C
330
1A
100
AcDbEntity
  8
GUIDE
100
AcDbCircle
 10
80.5
 20
-123.704867
 30
0.0
 40
6.8
100
AcDbArc
 50
33.974476
 51
146.025524
  0
ARC
  5
42D
330
1A
100
AcDbEntity
  8
GUIDE
100
AcDbCircle
 10
80.5
 20
-143.304867
 30
0.0
 40
6.8
100
AcDbArc
 50
213.974476
 51
326.025524
  0
ARC
  5
42E
330
1A
100
AcDbEntity
  8
GUIDE
100
AcDbCircle
 10
68.40000000000001
 20
-143.304867
 30
0.0
 40
6.8
100
AcDbArc
 50
213.974476
 51
326.025524
  0
ARC
  5
42F
330
1A
100
AcDbEntity
  8
GUIDE
100
AcDbCircle
 10
56.3
 20
-143.304867
 30
0.0
 40
6.8
100
AcDbArc
 50
213.974476
 51
326.025524
  0
ARC
  5
430
330
1A
100
AcDbEntity
  8
GUIDE
100
AcDbCircle
 10
44.2
 20
-143.304867
 30
0.0
 40
6.8
100
AcDbArc
 50
213.974476
 51
326.025524
  0
ARC
  5
431
330
1A
100
AcDbEntity
  8
GUIDE
100
AcDbCircle
 10
32.1
 20
-143.304867
 30
0.0
 40
6.8
100
AcDbArc
 50
213.974476
 51
326.025524
  0
ARC
  5
432
330
1A
100
AcDbEntity
  8
GUIDE
100
AcDbCircle
 10
20.1
 20
-143.304867
 30
0.0
 40
6.8
100
AcDbArc
 50
213.974476
 51
326.025524
  0
LINE
  5
433
330
1A
100
AcDbEntity
  8
GUIDE
100
AcDbLine
 10
3.1
 20
-119.904867
 30
0.0
 11
3.1
 21
-132.004867
 31
0.0
  0
LINE
  5
434
330
1A
100
AcDbEntity
  8
GUIDE
100
AcDbLine
 10
0.0
 20
-132.004867
 30
0.0
 11
3.1
 21
-132.004867
 31
0.0
  0
LINE
  5
435
330
1A
100
AcDbEntity
  8
GUIDE
100
AcDbLine
 10
0.0
 20
-135.004867
 30
0.0
 11
3.1
 21
-135.004867
 31
0.0
  0
LINE
  5
436
330
1A
100
AcDbEntity
  8
GUIDE
100
AcDbLine
 10
3.1
 20
-135.004867
 30
0.0
 11
3.1
 21
-147.104867
 31
0.0
  0
ARC
  5
437
330
1A
100
AcDbEntity
  8
GUIDE
100
AcDbCircle
 10
8.0
 20
-123.704867
 30
0.0
 40
6.8
100
AcDbArc
 50
33.974476
 51
223.896932
  0
ARC
  5
438
330
1A
100
AcDbEntity
  8
GUIDE
100
AcDbCircle
 10
8.0
 20
-143.304867
 30
0.0
 40
6.8
100
AcDbArc
 50
136.103068
 51
326.025524
  0
LINE
  5
439
330
1A
100
AcDbEntity
  8
GUIDE
100
AcDbLine
 10
44.8
 20
-127.504867
 30
0.0
 11
54.8
 21
-127.504867
 31
0.0
  0
ARC
  5
43A
330
1A
100
AcDbEntity
  8
GUIDE
100
AcDbCircle
 10
49.8
 20
-137.916305
 30
0.0
 40
3.5
100
AcDbArc
 50
206.992564
 51
333.007436
  0
ARC
  5
43B
330
1A
100
AcDbEntity
  8
GUIDE
100
AcDbCircle
 10
49.8
 20
-135.360793
 30
0.0
 40
9.095051
100
AcDbArc
 50
59.741229
 51
120.258771
  0
LINE
  5
43C
330
1A
100
AcDbEntity
  8
AXIS
 48
0.5
100
AcDbLine
 10
49.8
 20
-127.504867
 30
0.0
 11
49.8
 21
-139.504867
 31
0.0
  0
LINE
  5
43D
330
1A
100
AcDbEntity
  8
GUIDE
100
AcDbLine
 10
3.1
 20
-4.25
 30
0.0
 11
99.59999999999999
 21
-4.25
 31
0.0
  0
LINE
  5
43E
330
1A
100
AcDbEntity
  8
GUIDE
100
AcDbLine
 10
3.1
 20
-70.25
 30
0.0
 11
99.59999999999999
 21
-70.25
 31
0.0
  0
LINE
  5
43F
330
1A
100
AcDbEntity
  8
GUIDE
100
AcDbLine
 10
0.0
 20
0.0
 30
0.0
 11
99.59999999999999
 21
0.0
 31
0.0
  0
LINE
  5
440
330
1A
100
AcDbEntity
  8
GUIDE
100
AcDbLine
 10
0.0
 20
-74.5
 30
0.0
 11
99.59999999999999
 21
-74.5
 31
0.0
  0
LINE
  5
441
330
1A
100
AcDbEntity
  8
GUIDE
100
AcDbLine
 10
99.59999999999999
 20
0.0
 30
0.0
 11
99.59999999999999
 21
-4.25
 31
0.0
  0
LINE
  5
442
330
1A
100
AcDbEntity
  8
GUIDE
100
AcDbLine
 10
0.0
 20
-74.5
 30
0.0
 11
0.0
 21
0.0
 31
0.0
  0
LINE
  5
443
330
1A
100
AcDbEntity
  8
GUIDE
100
AcDbLine
 10
99.59999999999999
 20
-70.25
 30
0.0
 11
99.59999999999999
 21
-74.5
 31
0.0
  0
LINE
  5
444
330
1A
100
AcDbEntity
  8
GUIDE
100
AcDbLine
 10
9.0
 20
-4.25
 30
0.0
 11
9.0
 21
0.0
 31
0.0
  0
LINE
  5
445
330
1A
100
AcDbEntity
  8
GUIDE
100
AcDbLine
 10
7.0
 20
-4.25
 30
0.0
 11
7.0
 21
0.0
 31
0.0
  0
LINE
  5
446
330
1A
100
AcDbEntity
  8
GUIDE
100
AcDbLine
 10
19.1
 20
-4.25
 30
0.0
 11
19.1
 21
0.0
 31
0.0
  0
LINE
  5
447
330
1A
100
AcDbEntity
  8
GUIDE
100
AcDbLine
 10
21.1
 20
-4.25
 30
0.0
 11
21.1
 21
0.0
 31
0.0
  0
LINE
  5
448
330
1A
100
AcDbEntity
  8
GUIDE
100
AcDbLine
 10
31.1
 20
-4.25
 30
0.0
 11
31.1
 21
0.0
 31
0.0
  0
LINE
  5
449
330
1A
100
AcDbEntity
  8
GUIDE
100
AcDbLine
 10
33.1
 20
-4.25
 30
0.0
 11
33.1
 21
0.0
 31
0.0
  0
LINE
  5
44A
330
1A
100
AcDbEntity
  8
GUIDE
100
AcDbLine
 10
43.2
 20
-4.25
 30
0.0
 11
43.2
 21
0.0
 31
0.0
  0
LINE
  5
44B
330
1A
100
AcDbEntity
  8
GUIDE
100
AcDbLine
 10
45.2
 20
-4.25
 30
0.0
 11
45.2
 21
0.0
 31
0.0
  0
LINE
  5
44C
330
1A
100
AcDbEntity
  8
GUIDE
100
AcDbLine
 10
55.3
 20
-4.25
 30
0.0
 11
55.3
 21
0.0
 31
0.0
  0
LINE
  5
44D
330
1A
100
AcDbEntity
  8
GUIDE
100
AcDbLine
 10
57.3
 20
-4.25
 30
0.0
 11
57.3
 21
0.0
 31
0.0
  0
LINE
  5
44E
330
1A
100
AcDbEntity
  8
GUIDE
100
AcDbLine
 10
67.40000000000001
 20
-4.25
 30
0.0
 11
67.40000000000001
 21
0.0
 31
0.0
  0
LINE
  5
44F
330
1A
100
AcDbEntity
  8
GUIDE
100
AcDbLine
 10
69.40000000000001
 20
-4.25
 30
0.0
 11
69.40000000000001
 21
0.0
 31
0.0
  0
LINE
  5
450
330
1A
100
AcDbEntity
  8
GUIDE
100
AcDbLine
 10
67.40000000000001
 20
-74.5
 30
0.0
 11
67.40000000000001
 21
-70.25
 31
0.0
  0
LINE
  5
451
330
1A
100
AcDbEntity
  8
GUIDE
100
AcDbLine
 10
69.40000000000001
 20
-74.5
 30
0.0
 11
69.40000000000001
 21
-70.25
 31
0.0
  0
LINE
  5
452
330
1A
100
AcDbEntity
  8
GUIDE
100
AcDbLine
 10
55.3
 20
-70.25
 30
0.0
 11
55.3
 21
-74.5
 31
0.0
  0
LINE
  5
453
330
1A
100
AcDbEntity
  8
GUIDE
100
AcDbLine
 10
57.3
 20
-70.25
 30
0.0
 11
57.3
 21
-74.5
 31
0.0
  0
LINE
  5
454
330
1A
100
AcDbEntity
  8
GUIDE
100
AcDbLine
 10
45.2
 20
-70.25
 30
0.0
 11
45.2
 21
-74.5
 31
0.0
  0
LINE
  5
455
330
1A
100
AcDbEntity
  8
GUIDE
100
AcDbLine
 10
43.2
 20
-70.25
 30
0.0
 11
43.2
 21
-74.5
 31
0.0
  0
LINE
  5
456
330
1A
100
AcDbEntity
  8
GUIDE
100
AcDbLine
 10
31.1
 20
-74.5
 30
0.0
 11
31.1
 21
-70.25
 31
0.0
  0
LINE
  5
457
330
1A
100
AcDbEntity
  8
GUIDE
100
AcDbLine
 10
33.1
 20
-74.5
 30
0.0
 11
33.1
 21
-70.25
 31
0.0
  0
LINE
  5
458
330
1A
100
AcDbEntity
  8
GUIDE
100
AcDbLine
 10
21.1
 20
-70.25
 30
0.0
 11
21.1
 21
-74.5
 31
0.0
  0
LINE
  5
459
330
1A
100
AcDbEntity
  8
GUIDE
100
AcDbLine
 10
19.1
 20
-70.25
 30
0.0
 11
19.1
 21
-74.5
 31
0.0
  0
LINE
  5
45A
330
1A
100
AcDbEntity
  8
GUIDE
100
AcDbLine
 10
9.0
 20
-70.25
 30
0.0
 11
9.0
 21
-74.5
 31
0.0
  0
LINE
  5
45B
330
1A
100
AcDbEntity
  8
GUIDE
100
AcDbLine
 10
7.0
 20
-70.25
 30
0.0
 11
7.0
 21
-74.5
 31
0.0
  0
LINE
  5
45C
330
1A
100
AcDbEntity
  8
GUIDE
100
AcDbLine
 10
3.1
 20
-4.25
 30
0.0
 11
3.1
 21
0.0
 31
0.0
  0
LINE
  5
45D
330
1A
100
AcDbEntity
  8
GUIDE
100
AcDbLine
 10
3.1
 20
-70.25
 30
0.0
 11
3.1
 21
-74.5
 31
0.0
  0
LINE
  5
45E
330
1A
100
AcDbEntity
  8
GUIDE
100
AcDbLine
 10
99.09999999999999
 20
-4.75
 30
0.0
 11
102.6
 21
-4.75
 31
0.0
  0
LINE
  5
45F
330
1A
100
AcDbEntity
  8
GUIDE
100
AcDbLine
 10
102.6
 20
-4.75
 30
0.0
 11
102.6
 21
-69.75
 31
0.0
  0
ARC
  5
460
330
1A
100
AcDbEntity
  8
GUIDE
100
AcDbCircle
 10
98.997648
 20
-4.119948
 30
0.0
 40
0.638312
100
AcDbArc
 50
191.755997
 51
279.227079
  0
LINE
  5
461
330
1A
100
AcDbEntity
  8
GUIDE
100
AcDbLine
 10
99.09999999999999
 20
-69.75
 30
0.0
 11
102.6
 21
-69.75
 31
0.0
  0
ARC
  5
462
330
1A
100
AcDbEntity
  8
GUIDE
100
AcDbCircle
 10
98.997648
 20
-70.38005200000001
 30
0.0
 40
0.638312
100
AcDbArc
 50
80.772921
 51
168.244003
  0
LINE
  5
463
330
1A
100
AcDbEntity
  8
GUIDE
100
AcDbLine
 10
81.5
 20
-4.25
 30
0.0
 11
81.5
 21
0.0
 31
0.0
  0
LINE
  5
464
330
1A
100
AcDbEntity
  8
GUIDE
100
AcDbLine
 10
79.5
 20
-4.25
 30
0.0
 11
79.5
 21
0.0
 31
0.0
  0
LINE
  5
465
330
1A
100
AcDbEntity
  8
GUIDE
100
AcDbLine
 10
93.59999999999999
 20
-4.25
 30
0.0
 11
93.59999999999999
 21
0.0
 31
0.0
  0
LINE
  5
466
330
1A
100
AcDbEntity
  8
GUIDE
100
AcDbLine
 10
91.59999999999999
 20
-4.25
 30
0.0
 11
91.59999999999999
 21
0.0
 31
0.0
  0
LINE
  5
467
330
1A
100
AcDbEntity
  8
GUIDE
100
AcDbLine
 10
81.5
 20
-70.25
 30
0.0
 11
81.5
 21
-74.5
 31
0.0
  0
LINE
  5
468
330
1A
100
AcDbEntity
  8
GUIDE
100
AcDbLine
 10
79.5
 20
-70.25
 30
0.0
 11
79.5
 21
-74.5
 31
0.0
  0
LINE
  5
469
330
1A
100
AcDbEntity
  8
GUIDE
100
AcDbLine
 10
93.59999999999999
 20
-74.5
 30
0.0
 11
93.59999999999999
 21
-70.25
 31
0.0
  0
LINE
  5
46A
330
1A
100
AcDbEntity
  8
GUIDE
100
AcDbLine
 10
91.59999999999999
 20
-74.5
 30
0.0
 11
91.59999999999999
 21
-70.25
 31
0.0
  0
CIRCLE
  5
46B
330
1A
100
AcDbEntity
  8
GUIDE
100
AcDbCircle
 10
49.8
 20
46.5
 30
0.0
 40
3.5
  0
LINE
  5
46C
330
1A
100
AcDbEntity
  8
GUIDE
100
AcDbLine
 10
29.196549
 20
1.770532
 30
0.0
 11
44.020765
 21
48.11259
 31
0.0
  0
ARC
  5
46D
330
1A
100
AcDbEntity
  8
GUIDE
100
AcDbCircle
 10
26.460053
 20
3.0
 30
0.0
 40
3.0
100
AcDbArc
 50
270.0
 51
335.806301
  0
ARC
  5
46E
330
1A
100
AcDbEntity
  8
GUIDE
100
AcDbCircle
 10
73.13994700000001
 20
3.0
 30
0.0
 40
3.0
100
AcDbArc
 50
204.193699
 51
270.0
  0
ARC
  5
46F
330
1A
100
AcDbEntity
  8
GUIDE
100
AcDbCircle
 10
49.8
 20
46.5
 30
0.0
 40
6.0
100
AcDbArc
 50
15.590788
 51
164.409212
  0
LINE
  5
470
330
1A
100
AcDbEntity
  8
GUIDE
100
AcDbLine
 10
70.403451
 20
1.770532
 30
0.0
 11
55.579235
 21
48.11259
 31
0.0
  0
LINE
  5
471
330
1A
100
AcDbEntity
  8
GUIDE
100
AcDbLine
 10
46.335898
 20
47.0
 30
0.0
 11
53.264102
 21
47.0
 31
0.0
  0
LINE
  5
472
330
1A
100
AcDbEntity
  8
GUIDE
100
AcDbLine
 10
46.335898
 20
46.0
 30
0.0
 11
53.3
 21
46.0
 31
0.0
  0
POLYLINE
  5
473
330
1A
100
AcDbEntity
  8
GUIDE
100
AcDb2dPolyline
 66
     1
 10
0.0
 20
0.0
 30
0.0
 70
     1
  0
VERTEX
  5
A1B
330
473
100
AcDbEntity
  8
GUIDE
100
AcDbVertex
100
AcDb2dVertex
 10
52.3
 20
-21.15
 30
0.0
  0
VERTEX
  5
A1C
330
473
100
AcDbEntity
  8
GUIDE
100
AcDbVertex
100
AcDb2dVertex
 10
52.3
 20
-20.85
 30
0.0
  0
VERTEX
  5
A1D
330
473
100
AcDbEntity
  8
GUIDE
100
AcDbVertex
100
AcDb2dVertex
 10
60.3
 20
-20.85
 30
0.0
  0
VERTEX
  5
A1E
330
473
100
AcDbEntity
  8
GUIDE
100
AcDbVertex
100
AcDb2dVertex
 10
60.3
 20
-21.15
 30
0.0
  0
SEQEND
  5
A1A
330
473
100
AcDbEntity
  8
GUIDE
  0
POLYLINE
  5
479
330
1A
100
AcDbEntity
  8
GUIDE
100
AcDb2dPolyline
 66
     1
 10
0.0
 20
0.0
 30
0.0
 70
     1
  0
VERTEX
  5
A20
330
479
100
AcDbEntity
  8
GUIDE
100
AcDbVertex
100
AcDb2dVertex
 10
49.5
 20
-36.95
 30
0.0
  0
VERTEX
  5
A21
330
479
100
AcDbEntity
  8
GUIDE
100
AcDbVertex
100
AcDb2dVertex
 10
49.5
 20
-30.35
 30
0.0
  0
VERTEX
  5
A22
330
479
100
AcDbEntity
  8
GUIDE
100
AcDbVertex
100
AcDb2dVertex
 10
63.1
 20
-30.35
 30
0.0
  0
VERTEX
  5
A23
330
479
100
AcDbEntity
  8
GUIDE
100
AcDbVertex
100
AcDb2dVertex
 10
63.1
 20
-36.95
 30
0.0
  0
SEQEND
  5
A1F
330
479
100
AcDbEntity
  8
GUIDE
  0
POLYLINE
  5
47F
330
1A
100
AcDbEntity
  8
GUIDE
100
AcDb2dPolyline
 66
     1
 10
0.0
 20
0.0
 30
0.0
 70
     1
  0
VERTEX
  5
A25
330
47F
100
AcDbEntity
  8
GUIDE
100
AcDbVertex
100
AcDb2dVertex
 10
52.3
 20
-37.25
 30
0.0
  0
VERTEX
  5
A26
330
47F
100
AcDbEntity
  8
GUIDE
100
AcDbVertex
100
AcDb2dVertex
 10
52.3
 20
-36.95
 30
0.0
  0
VERTEX
  5
A27
330
47F
100
AcDbEntity
  8
GUIDE
100
AcDbVertex
100
AcDb2dVertex
 10
60.3
 20
-36.95
 30
0.0
  0
VERTEX
  5
A28
330
47F
100
AcDbEntity
  8
GUIDE
100
AcDbVertex
100
AcDb2dVertex
 10
60.3
 20
-37.25
 30
0.0
  0
SEQEND
  5
A24
330
47F
100
AcDbEntity
  8
GUIDE
  0
POLYLINE
  5
485
330
1A
100
AcDbEntity
  8
GUIDE
100
AcDb2dPolyline
 66
     1
 10
0.0
 20
0.0
 30
0.0
 70
     1
  0
VERTEX
  5
A2A
330
485
100
AcDbEntity
  8
GUIDE
100
AcDbVertex
100
AcDb2dVertex
 10
53.8
 20
-70.25
 30
0.0
  0
VERTEX
  5
A2B
330
485
100
AcDbEntity
  8
GUIDE
100
AcDbVertex
100
AcDb2dVertex
 10
53.8
 20
-69.45
 30
0.0
  0
VERTEX
  5
A2C
330
485
100
AcDbEntity
  8
GUIDE
100
AcDbVertex
100
AcDb2dVertex
 10
58.8
 20
-69.45
 30
0.0
  0
VERTEX
  5
A2D
330
485
100
AcDbEntity
  8
GUIDE
100
AcDbVertex
100
AcDb2dVertex
 10
58.8
 20
-70.25
 30
0.0
  0
SEQEND
  5
A29
330
485
100
AcDbEntity
  8
GUIDE
  0
POLYLINE
  5
48B
330
1A
100
AcDbEntity
  8
GUIDE
100
AcDb2dPolyline
 66
     1
 10
0.0
 20
0.0
 30
0.0
 70
     1
  0
VERTEX
  5
A2F
330
48B
100
AcDbEntity
  8
GUIDE
100
AcDbVertex
100
AcDb2dVertex
 10
52.3
 20
-30.35
 30
0.0
  0
VERTEX
  5
A30
330
48B
100
AcDbEntity
  8
GUIDE
100
AcDbVertex
100
AcDb2dVertex
 10
52.3
 20
-21.15
 30
0.0
  0
VERTEX
  5
A31
330
48B
100
AcDbEntity
  8
GUIDE
100
AcDbVertex
100
AcDb2dVertex
 10
60.3
 20
-21.15
 30
0.0
  0
VERTEX
  5
A32
330
48B
100
AcDbEntity
  8
GUIDE
100
AcDbVertex
100
AcDb2dVertex
 10
60.3
 20
-30.35
 30
0.0
  0
SEQEND
  5
A2E
330
48B
100
AcDbEntity
  8
GUIDE
  0
POLYLINE
  5
491
330
1A
100
AcDbEntity
  8
GUIDE
100
AcDb2dPolyline
 66
     1
 10
0.0
 20
0.0
 30
0.0
 70
     1
  0
VERTEX
  5
A34
330
491
100
AcDbEntity
  8
GUIDE
100
AcDbVertex
100
AcDb2dVertex
 10
53.8
 20
-5.05
 30
0.0
  0
VERTEX
  5
A35
330
491
100
AcDbEntity
  8
GUIDE
100
AcDbVertex
100
AcDb2dVertex
 10
53.8
 20
-4.25
 30
0.0
  0
VERTEX
  5
A36
330
491
100
AcDbEntity
  8
GUIDE
100
AcDbVertex
100
AcDb2dVertex
 10
58.8
 20
-4.25
 30
0.0
  0
VERTEX
  5
A37
330
491
100
AcDbEntity
  8
GUIDE
100
AcDbVertex
100
AcDb2dVertex
 10
58.8
 20
-5.05
 30
0.0
  0
SEQEND
  5
A33
330
491
100
AcDbEntity
  8
GUIDE
  0
POLYLINE
  5
497
330
1A
100
AcDbEntity
  8
GUIDE
100
AcDb2dPolyline
 66
     1
 10
0.0
 20
0.0
 30
0.0
 70
     1
  0
VERTEX
  5
A39
330
497
100
AcDbEntity
  8
GUIDE
100
AcDbVertex
100
AcDb2dVertex
 10
49.5
 20
-20.85
 30
0.0
  0
VERTEX
  5
A3A
330
497
100
AcDbEntity
  8
GUIDE
100
AcDbVertex
100
AcDb2dVertex
 10
49.5
 20
-14.25
 30
0.0
  0
VERTEX
  5
A3B
330
497
100
AcDbEntity
  8
GUIDE
100
AcDbVertex
100
AcDb2dVertex
 10
63.1
 20
-14.25
 30
0.0
  0
VERTEX
  5
A3C
330
497
100
AcDbEntity
  8
GUIDE
100
AcDbVertex
100
AcDb2dVertex
 10
63.1
 20
-20.85
 30
0.0
  0
SEQEND
  5
A38
330
497
100
AcDbEntity
  8
GUIDE
  0
POLYLINE
  5
49D
330
1A
100
AcDbEntity
  8
GUIDE
100
AcDb2dPolyline
 66
     1
 10
0.0
 20
0.0
 30
0.0
 70
     1
  0
VERTEX
  5
A3E
330
49D
100
AcDbEntity
  8
GUIDE
100
AcDbVertex
100
AcDb2dVertex
 10
52.3
 20
-14.25
 30
0.0
  0
VERTEX
  5
A3F
330
49D
100
AcDbEntity
  8
GUIDE
100
AcDbVertex
100
AcDb2dVertex
 10
52.3
 20
-5.05
 30
0.0
  0
VERTEX
  5
A40
330
49D
100
AcDbEntity
  8
GUIDE
100
AcDbVertex
100
AcDb2dVertex
 10
60.3
 20
-5.05
 30
0.0
  0
VERTEX
  5
A41
330
49D
100
AcDbEntity
  8
GUIDE
100
AcDbVertex
100
AcDb2dVertex
 10
60.3
 20
-14.25
 30
0.0
  0
SEQEND
  5
A3D
330
49D
100
AcDbEntity
  8
GUIDE
  0
LINE
  5
4A3
330
1A
100
AcDbEntity
  8
GUIDE
100
AcDbLine
 10
16.1
 20
-21.15
 30
0.0
 11
16.1
 21
-21.45
 31
0.0
  0
LINE
  5
4A4
330
1A
100
AcDbEntity
  8
GUIDE
100
AcDbLine
 10
16.1
 20
-21.45
 30
0.0
 11
24.1
 21
-21.45
 31
0.0
  0
LINE
  5
4A5
330
1A
100
AcDbEntity
  8
GUIDE
100
AcDbLine
 10
24.1
 20
-21.45
 30
0.0
 11
24.1
 21
-21.15
 31
0.0
  0
LINE
  5
4A6
330
1A
100
AcDbEntity
  8
GUIDE
100
AcDbLine
 10
24.1
 20
-21.15
 30
0.0
 11
16.1
 21
-21.15
 31
0.0
  0
LINE
  5
4A7
330
1A
100
AcDbEntity
  8
GUIDE
100
AcDbLine
 10
13.3
 20
-5.35
 30
0.0
 11
13.3
 21
-11.95
 31
0.0
  0
LINE
  5
4A8
330
1A
100
AcDbEntity
  8
GUIDE
100
AcDbLine
 10
13.3
 20
-11.95
 30
0.0
 11
26.9
 21
-11.95
 31
0.0
  0
LINE
  5
4A9
330
1A
100
AcDbEntity
  8
GUIDE
100
AcDbLine
 10
26.9
 20
-11.95
 30
0.0
 11
26.9
 21
-5.35
 31
0.0
  0
LINE
  5
4AA
330
1A
100
AcDbEntity
  8
GUIDE
100
AcDbLine
 10
26.9
 20
-5.35
 30
0.0
 11
13.3
 21
-5.35
 31
0.0
  0
LINE
  5
4AB
330
1A
100
AcDbEntity
  8
GUIDE
100
AcDbLine
 10
16.1
 20
-5.05
 30
0.0
 11
16.1
 21
-5.35
 31
0.0
  0
LINE
  5
4AC
330
1A
100
AcDbEntity
  8
GUIDE
100
AcDbLine
 10
16.1
 20
-5.35
 30
0.0
 11
24.1
 21
-5.35
 31
0.0
  0
LINE
  5
4AD
330
1A
100
AcDbEntity
  8
GUIDE
100
AcDbLine
 10
24.1
 20
-5.35
 30
0.0
 11
24.1
 21
-5.05
 31
0.0
  0
LINE
  5
4AE
330
1A
100
AcDbEntity
  8
GUIDE
100
AcDbLine
 10
24.1
 20
-5.05
 30
0.0
 11
16.1
 21
-5.05
 31
0.0
  0
LINE
  5
4AF
330
1A
100
AcDbEntity
  8
GUIDE
100
AcDbLine
 10
17.6
 20
-4.25
 30
0.0
 11
17.6
 21
-5.05
 31
0.0
  0
LINE
  5
4B0
330
1A
100
AcDbEntity
  8
GUIDE
100
AcDbLine
 10
17.6
 20
-5.05
 30
0.0
 11
22.6
 21
-5.05
 31
0.0
  0
LINE
  5
4B1
330
1A
100
AcDbEntity
  8
GUIDE
100
AcDbLine
 10
22.6
 20
-5.05
 30
0.0
 11
22.6
 21
-4.25
 31
0.0
  0
LINE
  5
4B2
330
1A
100
AcDbEntity
  8
GUIDE
100
AcDbLine
 10
22.6
 20
-4.25
 30
0.0
 11
17.6
 21
-4.25
 31
0.0
  0
LINE
  5
4B3
330
1A
100
AcDbEntity
  8
GUIDE
100
AcDbLine
 10
16.1
 20
-11.95
 30
0.0
 11
16.1
 21
-21.15
 31
0.0
  0
LINE
  5
4B4
330
1A
100
AcDbEntity
  8
GUIDE
100
AcDbLine
 10
16.1
 20
-21.15
 30
0.0
 11
24.1
 21
-21.15
 31
0.0
  0
LINE
  5
4B5
330
1A
100
AcDbEntity
  8
GUIDE
100
AcDbLine
 10
24.1
 20
-21.15
 30
0.0
 11
24.1
 21
-11.95
 31
0.0
  0
LINE
  5
4B6
330
1A
100
AcDbEntity
  8
GUIDE
100
AcDbLine
 10
24.1
 20
-11.95
 30
0.0
 11
16.1
 21
-11.95
 31
0.0
  0
LINE
  5
4B7
330
1A
100
AcDbEntity
  8
GUIDE
100
AcDbLine
 10
17.6
 20
-69.45
 30
0.0
 11
17.6
 21
-70.25
 31
0.0
  0
LINE
  5
4B8
330
1A
100
AcDbEntity
  8
GUIDE
100
AcDbLine
 10
17.6
 20
-70.25
 30
0.0
 11
22.6
 21
-70.25
 31
0.0
  0
LINE
  5
4B9
330
1A
100
AcDbEntity
  8
GUIDE
100
AcDbLine
 10
22.6
 20
-70.25
 30
0.0
 11
22.6
 21
-69.45
 31
0.0
  0
LINE
  5
4BA
330
1A
100
AcDbEntity
  8
GUIDE
100
AcDbLine
 10
22.6
 20
-69.45
 30
0.0
 11
17.6
 21
-69.45
 31
0.0
  0
LINE
  5
4BB
330
1A
100
AcDbEntity
  8
GUIDE
100
AcDbLine
 10
13.3
 20
-21.45
 30
0.0
 11
13.3
 21
-28.05
 31
0.0
  0
LINE
  5
4BC
330
1A
100
AcDbEntity
  8
GUIDE
100
AcDbLine
 10
13.3
 20
-28.05
 30
0.0
 11
26.9
 21
-28.05
 31
0.0
  0
LINE
  5
4BD
330
1A
100
AcDbEntity
  8
GUIDE
100
AcDbLine
 10
26.9
 20
-28.05
 30
0.0
 11
26.9
 21
-21.45
 31
0.0
  0
LINE
  5
4BE
330
1A
100
AcDbEntity
  8
GUIDE
100
AcDbLine
 10
26.9
 20
-21.45
 30
0.0
 11
13.3
 21
-21.45
 31
0.0
  0
LINE
  5
4BF
330
1A
100
AcDbEntity
  8
GUIDE
100
AcDbLine
 10
16.1
 20
-28.05
 30
0.0
 11
16.1
 21
-37.25
 31
0.0
  0
LINE
  5
4C0
330
1A
100
AcDbEntity
  8
GUIDE
100
AcDbLine
 10
16.1
 20
-37.25
 30
0.0
 11
24.1
 21
-37.25
 31
0.0
  0
LINE
  5
4C1
330
1A
100
AcDbEntity
  8
GUIDE
100
AcDbLine
 10
24.1
 20
-37.25
 30
0.0
 11
24.1
 21
-28.05
 31
0.0
  0
LINE
  5
4C2
330
1A
100
AcDbEntity
  8
GUIDE
100
AcDbLine
 10
24.1
 20
-28.05
 30
0.0
 11
16.1
 21
-28.05
 31
0.0
  0
POLYLINE
  5
4C3
330
1A
100
AcDbEntity
  8
GUIDE
100
AcDb2dPolyline
 66
     1
 10
0.0
 20
0.0
 30
0.0
 70
     1
  0
VERTEX
  5
A43
330
4C3
100
AcDbEntity
  8
GUIDE
100
AcDbVertex
100
AcDb2dVertex
 10
4.0
 20
-21.15
 30
0.0
  0
VERTEX
  5
A44
330
4C3
100
AcDbEntity
  8
GUIDE
100
AcDbVertex
100
AcDb2dVertex
 10
4.0
 20
-20.85
 30
0.0
  0
VERTEX
  5
A45
330
4C3
100
AcDbEntity
  8
GUIDE
100
AcDbVertex
100
AcDb2dVertex
 10
12.0
 20
-20.85
 30
0.0
  0
VERTEX
  5
A46
330
4C3
100
AcDbEntity
  8
GUIDE
100
AcDbVertex
100
AcDb2dVertex
 10
12.0
 20
-21.15
 30
0.0
  0
SEQEND
  5
A42
330
4C3
100
AcDbEntity
  8
GUIDE
  0
POLYLINE
  5
4C9
330
1A
100
AcDbEntity
  8
GUIDE
100
AcDb2dPolyline
 66
     1
 10
0.0
 20
0.0
 30
0.0
 70
     1
  0
VERTEX
  5
A48
330
4C9
100
AcDbEntity
  8
GUIDE
100
AcDbVertex
100
AcDb2dVertex
 10
1.2
 20
-36.95
 30
0.0
  0
VERTEX
  5
A49
330
4C9
100
AcDbEntity
  8
GUIDE
100
AcDbVertex
100
AcDb2dVertex
 10
1.2
 20
-30.35
 30
0.0
  0
VERTEX
  5
A4A
330
4C9
100
AcDbEntity
  8
GUIDE
100
AcDbVertex
100
AcDb2dVertex
 10
14.8
 20
-30.35
 30
0.0
  0
VERTEX
  5
A4B
330
4C9
100
AcDbEntity
  8
GUIDE
100
AcDbVertex
100
AcDb2dVertex
 10
14.8
 20
-36.95
 30
0.0
  0
SEQEND
  5
A47
330
4C9
100
AcDbEntity
  8
GUIDE
  0
POLYLINE
  5
4CF
330
1A
100
AcDbEntity
  8
GUIDE
100
AcDb2dPolyline
 66
     1
 10
0.0
 20
0.0
 30
0.0
 70
     1
  0
VERTEX
  5
A4D
330
4CF
100
AcDbEntity
  8
GUIDE
100
AcDbVertex
100
AcDb2dVertex
 10
4.0
 20
-37.25
 30
0.0
  0
VERTEX
  5
A4E
330
4CF
100
AcDbEntity
  8
GUIDE
100
AcDbVertex
100
AcDb2dVertex
 10
4.0
 20
-36.95
 30
0.0
  0
VERTEX
  5
A4F
330
4CF
100
AcDbEntity
  8
GUIDE
100
AcDbVertex
100
AcDb2dVertex
 10
12.0
 20
-36.95
 30
0.0
  0
VERTEX
  5
A50
330
4CF
100
AcDbEntity
  8
GUIDE
100
AcDbVertex
100
AcDb2dVertex
 10
12.0
 20
-37.25
 30
0.0
  0
SEQEND
  5
A4C
330
4CF
100
AcDbEntity
  8
GUIDE
  0
POLYLINE
  5
4D5
330
1A
100
AcDbEntity
  8
GUIDE
100
AcDb2dPolyline
 66
     1
 10
0.0
 20
0.0
 30
0.0
 70
     1
  0
VERTEX
  5
A52
330
4D5
100
AcDbEntity
  8
GUIDE
100
AcDbVertex
100
AcDb2dVertex
 10
5.5
 20
-70.25
 30
0.0
  0
VERTEX
  5
A53
330
4D5
100
AcDbEntity
  8
GUIDE
100
AcDbVertex
100
AcDb2dVertex
 10
5.5
 20
-69.45
 30
0.0
  0
VERTEX
  5
A54
330
4D5
100
AcDbEntity
  8
GUIDE
100
AcDbVertex
100
AcDb2dVertex
 10
10.5
 20
-69.45
 30
0.0
  0
VERTEX
  5
A55
330
4D5
100
AcDbEntity
  8
GUIDE
100
AcDbVertex
100
AcDb2dVertex
 10
10.5
 20
-70.25
 30
0.0
  0
SEQEND
  5
A51
330
4D5
100
AcDbEntity
  8
GUIDE
  0
POLYLINE
  5
4DB
330
1A
100
AcDbEntity
  8
GUIDE
100
AcDb2dPolyline
 66
     1
 10
0.0
 20
0.0
 30
0.0
 70
     1
  0
VERTEX
  5
A57
330
4DB
100
AcDbEntity
  8
GUIDE
100
AcDbVertex
100
AcDb2dVertex
 10
4.0
 20
-30.35
 30
0.0
  0
VERTEX
  5
A58
330
4DB
100
AcDbEntity
  8
GUIDE
100
AcDbVertex
100
AcDb2dVertex
 10
4.0
 20
-21.15
 30
0.0
  0
VERTEX
  5
A59
330
4DB
100
AcDbEntity
  8
GUIDE
100
AcDbVertex
100
AcDb2dVertex
 10
12.0
 20
-21.15
 30
0.0
  0
VERTEX
  5
A5A
330
4DB
100
AcDbEntity
  8
GUIDE
100
AcDbVertex
100
AcDb2dVertex
 10
12.0
 20
-30.35
 30
0.0
  0
SEQEND
  5
A56
330
4DB
100
AcDbEntity
  8
GUIDE
  0
POLYLINE
  5
4E1
330
1A
100
AcDbEntity
  8
GUIDE
100
AcDb2dPolyline
 66
     1
 10
0.0
 20
0.0
 30
0.0
 70
     1
  0
VERTEX
  5
A5C
330
4E1
100
AcDbEntity
  8
GUIDE
100
AcDbVertex
100
AcDb2dVertex
 10
5.5
 20
-5.05
 30
0.0
  0
VERTEX
  5
A5D
330
4E1
100
AcDbEntity
  8
GUIDE
100
AcDbVertex
100
AcDb2dVertex
 10
5.5
 20
-4.25
 30
0.0
  0
VERTEX
  5
A5E
330
4E1
100
AcDbEntity
  8
GUIDE
100
AcDbVertex
100
AcDb2dVertex
 10
10.5
 20
-4.25
 30
0.0
  0
VERTEX
  5
A5F
330
4E1
100
AcDbEntity
  8
GUIDE
100
AcDbVertex
100
AcDb2dVertex
 10
10.5
 20
-5.05
 30
0.0
  0
SEQEND
  5
A5B
330
4E1
100
AcDbEntity
  8
GUIDE
  0
POLYLINE
  5
4E7
330
1A
100
AcDbEntity
  8
GUIDE
100
AcDb2dPolyline
 66
     1
 10
0.0
 20
0.0
 30
0.0
 70
     1
  0
VERTEX
  5
A61
330
4E7
100
AcDbEntity
  8
GUIDE
100
AcDbVertex
100
AcDb2dVertex
 10
1.2
 20
-20.85
 30
0.0
  0
VERTEX
  5
A62
330
4E7
100
AcDbEntity
  8
GUIDE
100
AcDbVertex
100
AcDb2dVertex
 10
1.2
 20
-14.25
 30
0.0
  0
VERTEX
  5
A63
330
4E7
100
AcDbEntity
  8
GUIDE
100
AcDbVertex
100
AcDb2dVertex
 10
14.8
 20
-14.25
 30
0.0
  0
VERTEX
  5
A64
330
4E7
100
AcDbEntity
  8
GUIDE
100
AcDbVertex
100
AcDb2dVertex
 10
14.8
 20
-20.85
 30
0.0
  0
SEQEND
  5
A60
330
4E7
100
AcDbEntity
  8
GUIDE
  0
POLYLINE
  5
4ED
330
1A
100
AcDbEntity
  8
GUIDE
100
AcDb2dPolyline
 66
     1
 10
0.0
 20
0.0
 30
0.0
 70
     1
  0
VERTEX
  5
A66
330
4ED
100
AcDbEntity
  8
GUIDE
100
AcDbVertex
100
AcDb2dVertex
 10
4.0
 20
-14.25
 30
0.0
  0
VERTEX
  5
A67
330
4ED
100
AcDbEntity
  8
GUIDE
100
AcDbVertex
100
AcDb2dVertex
 10
4.0
 20
-5.05
 30
0.0
  0
VERTEX
  5
A68
330
4ED
100
AcDbEntity
  8
GUIDE
100
AcDbVertex
100
AcDb2dVertex
 10
12.0
 20
-5.05
 30
0.0
  0
VERTEX
  5
A69
330
4ED
100
AcDbEntity
  8
GUIDE
100
AcDbVertex
100
AcDb2dVertex
 10
12.0
 20
-14.25
 30
0.0
  0
SEQEND
  5
A65
330
4ED
100
AcDbEntity
  8
GUIDE
  0
LINE
  5
4F3
330
1A
100
AcDbEntity
  8
GUIDE
100
AcDbLine
 10
40.2
 20
-21.15
 30
0.0
 11
40.2
 21
-21.45
 31
0.0
  0
LINE
  5
4F4
330
1A
100
AcDbEntity
  8
GUIDE
100
AcDbLine
 10
40.2
 20
-21.45
 30
0.0
 11
48.2
 21
-21.45
 31
0.0
  0
LINE
  5
4F5
330
1A
100
AcDbEntity
  8
GUIDE
100
AcDbLine
 10
48.2
 20
-21.45
 30
0.0
 11
48.2
 21
-21.15
 31
0.0
  0
LINE
  5
4F6
330
1A
100
AcDbEntity
  8
GUIDE
100
AcDbLine
 10
48.2
 20
-21.15
 30
0.0
 11
40.2
 21
-21.15
 31
0.0
  0
LINE
  5
4F7
330
1A
100
AcDbEntity
  8
GUIDE
100
AcDbLine
 10
37.4
 20
-5.35
 30
0.0
 11
37.4
 21
-11.95
 31
0.0
  0
LINE
  5
4F8
330
1A
100
AcDbEntity
  8
GUIDE
100
AcDbLine
 10
37.4
 20
-11.95
 30
0.0
 11
51.0
 21
-11.95
 31
0.0
  0
LINE
  5
4F9
330
1A
100
AcDbEntity
  8
GUIDE
100
AcDbLine
 10
51.0
 20
-11.95
 30
0.0
 11
51.0
 21
-5.35
 31
0.0
  0
LINE
  5
4FA
330
1A
100
AcDbEntity
  8
GUIDE
100
AcDbLine
 10
51.0
 20
-5.35
 30
0.0
 11
37.4
 21
-5.35
 31
0.0
  0
LINE
  5
4FB
330
1A
100
AcDbEntity
  8
GUIDE
100
AcDbLine
 10
40.2
 20
-5.05
 30
0.0
 11
40.2
 21
-5.35
 31
0.0
  0
LINE
  5
4FC
330
1A
100
AcDbEntity
  8
GUIDE
100
AcDbLine
 10
40.2
 20
-5.35
 30
0.0
 11
48.2
 21
-5.35
 31
0.0
  0
LINE
  5
4FD
330
1A
100
AcDbEntity
  8
GUIDE
100
AcDbLine
 10
48.2
 20
-5.35
 30
0.0
 11
48.2
 21
-5.05
 31
0.0
  0
LINE
  5
4FE
330
1A
100
AcDbEntity
  8
GUIDE
100
AcDbLine
 10
48.2
 20
-5.05
 30
0.0
 11
40.2
 21
-5.05
 31
0.0
  0
LINE
  5
4FF
330
1A
100
AcDbEntity
  8
GUIDE
100
AcDbLine
 10
41.7
 20
-4.25
 30
0.0
 11
41.7
 21
-5.05
 31
0.0
  0
LINE
  5
500
330
1A
100
AcDbEntity
  8
GUIDE
100
AcDbLine
 10
41.7
 20
-5.05
 30
0.0
 11
46.7
 21
-5.05
 31
0.0
  0
LINE
  5
501
330
1A
100
AcDbEntity
  8
GUIDE
100
AcDbLine
 10
46.7
 20
-5.05
 30
0.0
 11
46.7
 21
-4.25
 31
0.0
  0
LINE
  5
502
330
1A
100
AcDbEntity
  8
GUIDE
100
AcDbLine
 10
46.7
 20
-4.25
 30
0.0
 11
41.7
 21
-4.25
 31
0.0
  0
LINE
  5
503
330
1A
100
AcDbEntity
  8
GUIDE
100
AcDbLine
 10
40.2
 20
-11.95
 30
0.0
 11
40.2
 21
-21.15
 31
0.0
  0
LINE
  5
504
330
1A
100
AcDbEntity
  8
GUIDE
100
AcDbLine
 10
40.2
 20
-21.15
 30
0.0
 11
48.2
 21
-21.15
 31
0.0
  0
LINE
  5
505
330
1A
100
AcDbEntity
  8
GUIDE
100
AcDbLine
 10
48.2
 20
-21.15
 30
0.0
 11
48.2
 21
-11.95
 31
0.0
  0
LINE
  5
506
330
1A
100
AcDbEntity
  8
GUIDE
100
AcDbLine
 10
48.2
 20
-11.95
 30
0.0
 11
40.2
 21
-11.95
 31
0.0
  0
LINE
  5
507
330
1A
100
AcDbEntity
  8
GUIDE
100
AcDbLine
 10
41.7
 20
-69.45
 30
0.0
 11
41.7
 21
-70.25
 31
0.0
  0
LINE
  5
508
330
1A
100
AcDbEntity
  8
GUIDE
100
AcDbLine
 10
41.7
 20
-70.25
 30
0.0
 11
46.7
 21
-70.25
 31
0.0
  0
LINE
  5
509
330
1A
100
AcDbEntity
  8
GUIDE
100
AcDbLine
 10
46.7
 20
-70.25
 30
0.0
 11
46.7
 21
-69.45
 31
0.0
  0
LINE
  5
50A
330
1A
100
AcDbEntity
  8
GUIDE
100
AcDbLine
 10
46.7
 20
-69.45
 30
0.0
 11
41.7
 21
-69.45
 31
0.0
  0
LINE
  5
50B
330
1A
100
AcDbEntity
  8
GUIDE
100
AcDbLine
 10
37.4
 20
-21.45
 30
0.0
 11
37.4
 21
-28.05
 31
0.0
  0
LINE
  5
50C
330
1A
100
AcDbEntity
  8
GUIDE
100
AcDbLine
 10
37.4
 20
-28.05
 30
0.0
 11
51.0
 21
-28.05
 31
0.0
  0
LINE
  5
50D
330
1A
100
AcDbEntity
  8
GUIDE
100
AcDbLine
 10
51.0
 20
-28.05
 30
0.0
 11
51.0
 21
-21.45
 31
0.0
  0
LINE
  5
50E
330
1A
100
AcDbEntity
  8
GUIDE
100
AcDbLine
 10
51.0
 20
-21.45
 30
0.0
 11
37.4
 21
-21.45
 31
0.0
  0
LINE
  5
50F
330
1A
100
AcDbEntity
  8
GUIDE
100
AcDbLine
 10
40.2
 20
-28.05
 30
0.0
 11
40.2
 21
-37.25
 31
0.0
  0
LINE
  5
510
330
1A
100
AcDbEntity
  8
GUIDE
100
AcDbLine
 10
40.2
 20
-37.25
 30
0.0
 11
48.2
 21
-37.25
 31
0.0
  0
LINE
  5
511
330
1A
100
AcDbEntity
  8
GUIDE
100
AcDbLine
 10
48.2
 20
-37.25
 30
0.0
 11
48.2
 21
-28.05
 31
0.0
  0
LINE
  5
512
330
1A
100
AcDbEntity
  8
GUIDE
100
AcDbLine
 10
48.2
 20
-28.05
 30
0.0
 11
40.2
 21
-28.05
 31
0.0
  0
POLYLINE
  5
513
330
1A
100
AcDbEntity
  8
GUIDE
100
AcDb2dPolyline
 66
     1
 10
0.0
 20
0.0
 30
0.0
 70
     1
  0
VERTEX
  5
A6B
330
513
100
AcDbEntity
  8
GUIDE
100
AcDbVertex
100
AcDb2dVertex
 10
28.1
 20
-21.15
 30
0.0
  0
VERTEX
  5
A6C
330
513
100
AcDbEntity
  8
GUIDE
100
AcDbVertex
100
AcDb2dVertex
 10
28.1
 20
-20.85
 30
0.0
  0
VERTEX
  5
A6D
330
513
100
AcDbEntity
  8
GUIDE
100
AcDbVertex
100
AcDb2dVertex
 10
36.1
 20
-20.85
 30
0.0
  0
VERTEX
  5
A6E
330
513
100
AcDbEntity
  8
GUIDE
100
AcDbVertex
100
AcDb2dVertex
 10
36.1
 20
-21.15
 30
0.0
  0
SEQEND
  5
A6A
330
513
100
AcDbEntity
  8
GUIDE
  0
POLYLINE
  5
519
330
1A
100
AcDbEntity
  8
GUIDE
100
AcDb2dPolyline
 66
     1
 10
0.0
 20
0.0
 30
0.0
 70
     1
  0
VERTEX
  5
A70
330
519
100
AcDbEntity
  8
GUIDE
100
AcDbVertex
100
AcDb2dVertex
 10
25.3
 20
-36.95
 30
0.0
  0
VERTEX
  5
A71
330
519
100
AcDbEntity
  8
GUIDE
100
AcDbVertex
100
AcDb2dVertex
 10
25.3
 20
-30.35
 30
0.0
  0
VERTEX
  5
A72
330
519
100
AcDbEntity
  8
GUIDE
100
AcDbVertex
100
AcDb2dVertex
 10
38.9
 20
-30.35
 30
0.0
  0
VERTEX
  5
A73
330
519
100
AcDbEntity
  8
GUIDE
100
AcDbVertex
100
AcDb2dVertex
 10
38.9
 20
-36.95
 30
0.0
  0
SEQEND
  5
A6F
330
519
100
AcDbEntity
  8
GUIDE
  0
POLYLINE
  5
51F
330
1A
100
AcDbEntity
  8
GUIDE
100
AcDb2dPolyline
 66
     1
 10
0.0
 20
0.0
 30
0.0
 70
     1
  0
VERTEX
  5
A75
330
51F
100
AcDbEntity
  8
GUIDE
100
AcDbVertex
100
AcDb2dVertex
 10
28.1
 20
-37.25
 30
0.0
  0
VERTEX
  5
A76
330
51F
100
AcDbEntity
  8
GUIDE
100
AcDbVertex
100
AcDb2dVertex
 10
28.1
 20
-36.95
 30
0.0
  0
VERTEX
  5
A77
330
51F
100
AcDbEntity
  8
GUIDE
100
AcDbVertex
100
AcDb2dVertex
 10
36.1
 20
-36.95
 30
0.0
  0
VERTEX
  5
A78
330
51F
100
AcDbEntity
  8
GUIDE
100
AcDbVertex
100
AcDb2dVertex
 10
36.1
 20
-37.25
 30
0.0
  0
SEQEND
  5
A74
330
51F
100
AcDbEntity
  8
GUIDE
  0
POLYLINE
  5
525
330
1A
100
AcDbEntity
  8
GUIDE
100
AcDb2dPolyline
 66
     1
 10
0.0
 20
0.0
 30
0.0
 70
     1
  0
VERTEX
  5
A7A
330
525
100
AcDbEntity
  8
GUIDE
100
AcDbVertex
100
AcDb2dVertex
 10
29.6
 20
-70.25
 30
0.0
  0
VERTEX
  5
A7B
330
525
100
AcDbEntity
  8
GUIDE
100
AcDbVertex
100
AcDb2dVertex
 10
29.6
 20
-69.45
 30
0.0
  0
VERTEX
  5
A7C
330
525
100
AcDbEntity
  8
GUIDE
100
AcDbVertex
100
AcDb2dVertex
 10
34.6
 20
-69.45
 30
0.0
  0
VERTEX
  5
A7D
330
525
100
AcDbEntity
  8
GUIDE
100
AcDbVertex
100
AcDb2dVertex
 10
34.6
 20
-70.25
 30
0.0
  0
SEQEND
  5
A79
330
525
100
AcDbEntity
  8
GUIDE
  0
POLYLINE
  5
52B
330
1A
100
AcDbEntity
  8
GUIDE
100
AcDb2dPolyline
 66
     1
 10
0.0
 20
0.0
 30
0.0
 70
     1
  0
VERTEX
  5
A7F
330
52B
100
AcDbEntity
  8
GUIDE
100
AcDbVertex
100
AcDb2dVertex
 10
28.1
 20
-30.35
 30
0.0
  0
VERTEX
  5
A80
330
52B
100
AcDbEntity
  8
GUIDE
100
AcDbVertex
100
AcDb2dVertex
 10
28.1
 20
-21.15
 30
0.0
  0
VERTEX
  5
A81
330
52B
100
AcDbEntity
  8
GUIDE
100
AcDbVertex
100
AcDb2dVertex
 10
36.1
 20
-21.15
 30
0.0
  0
VERTEX
  5
A82
330
52B
100
AcDbEntity
  8
GUIDE
100
AcDbVertex
100
AcDb2dVertex
 10
36.1
 20
-30.35
 30
0.0
  0
SEQEND
  5
A7E
330
52B
100
AcDbEntity
  8
GUIDE
  0
POLYLINE
  5
531
330
1A
100
AcDbEntity
  8
GUIDE
100
AcDb2dPolyline
 66
     1
 10
0.0
 20
0.0
 30
0.0
 70
     1
  0
VERTEX
  5
A84
330
531
100
AcDbEntity
  8
GUIDE
100
AcDbVertex
100
AcDb2dVertex
 10
29.6
 20
-5.05
 30
0.0
  0
VERTEX
  5
A85
330
531
100
AcDbEntity
  8
GUIDE
100
AcDbVertex
100
AcDb2dVertex
 10
29.6
 20
-4.25
 30
0.0
  0
VERTEX
  5
A86
330
531
100
AcDbEntity
  8
GUIDE
100
AcDbVertex
100
AcDb2dVertex
 10
34.6
 20
-4.25
 30
0.0
  0
VERTEX
  5
A87
330
531
100
AcDbEntity
  8
GUIDE
100
AcDbVertex
100
AcDb2dVertex
 10
34.6
 20
-5.05
 30
0.0
  0
SEQEND
  5
A83
330
531
100
AcDbEntity
  8
GUIDE
  0
POLYLINE
  5
537
330
1A
100
AcDbEntity
  8
GUIDE
100
AcDb2dPolyline
 66
     1
 10
0.0
 20
0.0
 30
0.0
 70
     1
  0
VERTEX
  5
A89
330
537
100
AcDbEntity
  8
GUIDE
100
AcDbVertex
100
AcDb2dVertex
 10
25.3
 20
-20.85
 30
0.0
  0
VERTEX
  5
A8A
330
537
100
AcDbEntity
  8
GUIDE
100
AcDbVertex
100
AcDb2dVertex
 10
25.3
 20
-14.25
 30
0.0
  0
VERTEX
  5
A8B
330
537
100
AcDbEntity
  8
GUIDE
100
AcDbVertex
100
AcDb2dVertex
 10
38.9
 20
-14.25
 30
0.0
  0
VERTEX
  5
A8C
330
537
100
AcDbEntity
  8
GUIDE
100
AcDbVertex
100
AcDb2dVertex
 10
38.9
 20
-20.85
 30
0.0
  0
SEQEND
  5
A88
330
537
100
AcDbEntity
  8
GUIDE
  0
POLYLINE
  5
53D
330
1A
100
AcDbEntity
  8
GUIDE
100
AcDb2dPolyline
 66
     1
 10
0.0
 20
0.0
 30
0.0
 70
     1
  0
VERTEX
  5
A8E
330
53D
100
AcDbEntity
  8
GUIDE
100
AcDbVertex
100
AcDb2dVertex
 10
28.1
 20
-14.25
 30
0.0
  0
VERTEX
  5
A8F
330
53D
100
AcDbEntity
  8
GUIDE
100
AcDbVertex
100
AcDb2dVertex
 10
28.1
 20
-5.05
 30
0.0
  0
VERTEX
  5
A90
330
53D
100
AcDbEntity
  8
GUIDE
100
AcDbVertex
100
AcDb2dVertex
 10
36.1
 20
-5.05
 30
0.0
  0
VERTEX
  5
A91
330
53D
100
AcDbEntity
  8
GUIDE
100
AcDbVertex
100
AcDb2dVertex
 10
36.1
 20
-14.25
 30
0.0
  0
SEQEND
  5
A8D
330
53D
100
AcDbEntity
  8
GUIDE
  0
POLYLINE
  5
543
330
1A
100
AcDbEntity
  8
GUIDE
100
AcDb2dPolyline
 66
     1
 10
0.0
 20
0.0
 30
0.0
 70
     1
  0
VERTEX
  5
A93
330
543
100
AcDbEntity
  8
GUIDE
100
AcDbVertex
100
AcDb2dVertex
 10
76.5
 20
-21.15
 30
0.0
  0
VERTEX
  5
A94
330
543
100
AcDbEntity
  8
GUIDE
100
AcDbVertex
100
AcDb2dVertex
 10
76.5
 20
-20.85
 30
0.0
  0
VERTEX
  5
A95
330
543
100
AcDbEntity
  8
GUIDE
100
AcDbVertex
100
AcDb2dVertex
 10
84.5
 20
-20.85
 30
0.0
  0
VERTEX
  5
A96
330
543
100
AcDbEntity
  8
GUIDE
100
AcDbVertex
100
AcDb2dVertex
 10
84.5
 20
-21.15
 30
0.0
  0
SEQEND
  5
A92
330
543
100
AcDbEntity
  8
GUIDE
  0
POLYLINE
  5
549
330
1A
100
AcDbEntity
  8
GUIDE
100
AcDb2dPolyline
 66
     1
 10
0.0
 20
0.0
 30
0.0
 70
     1
  0
VERTEX
  5
A98
330
549
100
AcDbEntity
  8
GUIDE
100
AcDbVertex
100
AcDb2dVertex
 10
73.7
 20
-36.95
 30
0.0
  0
VERTEX
  5
A99
330
549
100
AcDbEntity
  8
GUIDE
100
AcDbVertex
100
AcDb2dVertex
 10
73.7
 20
-30.35
 30
0.0
  0
VERTEX
  5
A9A
330
549
100
AcDbEntity
  8
GUIDE
100
AcDbVertex
100
AcDb2dVertex
 10
87.3
 20
-30.35
 30
0.0
  0
VERTEX
  5
A9B
330
549
100
AcDbEntity
  8
GUIDE
100
AcDbVertex
100
AcDb2dVertex
 10
87.3
 20
-36.95
 30
0.0
  0
SEQEND
  5
A97
330
549
100
AcDbEntity
  8
GUIDE
  0
POLYLINE
  5
54F
330
1A
100
AcDbEntity
  8
GUIDE
100
AcDb2dPolyline
 66
     1
 10
0.0
 20
0.0
 30
0.0
 70
     1
  0
VERTEX
  5
A9D
330
54F
100
AcDbEntity
  8
GUIDE
100
AcDbVertex
100
AcDb2dVertex
 10
76.5
 20
-37.25
 30
0.0
  0
VERTEX
  5
A9E
330
54F
100
AcDbEntity
  8
GUIDE
100
AcDbVertex
100
AcDb2dVertex
 10
76.5
 20
-36.95
 30
0.0
  0
VERTEX
  5
A9F
330
54F
100
AcDbEntity
  8
GUIDE
100
AcDbVertex
100
AcDb2dVertex
 10
84.5
 20
-36.95
 30
0.0
  0
VERTEX
  5
AA0
330
54F
100
AcDbEntity
  8
GUIDE
100
AcDbVertex
100
AcDb2dVertex
 10
84.5
 20
-37.25
 30
0.0
  0
SEQEND
  5
A9C
330
54F
100
AcDbEntity
  8
GUIDE
  0
POLYLINE
  5
555
330
1A
100
AcDbEntity
  8
GUIDE
100
AcDb2dPolyline
 66
     1
 10
0.0
 20
0.0
 30
0.0
 70
     1
  0
VERTEX
  5
AA2
330
555
100
AcDbEntity
  8
GUIDE
100
AcDbVertex
100
AcDb2dVertex
 10
78.0
 20
-70.25
 30
0.0
  0
VERTEX
  5
AA3
330
555
100
AcDbEntity
  8
GUIDE
100
AcDbVertex
100
AcDb2dVertex
 10
78.0
 20
-69.45
 30
0.0
  0
VERTEX
  5
AA4
330
555
100
AcDbEntity
  8
GUIDE
100
AcDbVertex
100
AcDb2dVertex
 10
83.0
 20
-69.45
 30
0.0
  0
VERTEX
  5
AA5
330
555
100
AcDbEntity
  8
GUIDE
100
AcDbVertex
100
AcDb2dVertex
 10
83.0
 20
-70.25
 30
0.0
  0
SEQEND
  5
AA1
330
555
100
AcDbEntity
  8
GUIDE
  0
POLYLINE
  5
55B
330
1A
100
AcDbEntity
  8
GUIDE
100
AcDb2dPolyline
 66
     1
 10
0.0
 20
0.0
 30
0.0
 70
     1
  0
VERTEX
  5
AA7
330
55B
100
AcDbEntity
  8
GUIDE
100
AcDbVertex
100
AcDb2dVertex
 10
76.5
 20
-30.35
 30
0.0
  0
VERTEX
  5
AA8
330
55B
100
AcDbEntity
  8
GUIDE
100
AcDbVertex
100
AcDb2dVertex
 10
76.5
 20
-21.15
 30
0.0
  0
VERTEX
  5
AA9
330
55B
100
AcDbEntity
  8
GUIDE
100
AcDbVertex
100
AcDb2dVertex
 10
84.5
 20
-21.15
 30
0.0
  0
VERTEX
  5
AAA
330
55B
100
AcDbEntity
  8
GUIDE
100
AcDbVertex
100
AcDb2dVertex
 10
84.5
 20
-30.35
 30
0.0
  0
SEQEND
  5
AA6
330
55B
100
AcDbEntity
  8
GUIDE
  0
POLYLINE
  5
561
330
1A
100
AcDbEntity
  8
GUIDE
100
AcDb2dPolyline
 66
     1
 10
0.0
 20
0.0
 30
0.0
 70
     1
  0
VERTEX
  5
AAC
330
561
100
AcDbEntity
  8
GUIDE
100
AcDbVertex
100
AcDb2dVertex
 10
78.0
 20
-5.05
 30
0.0
  0
VERTEX
  5
AAD
330
561
100
AcDbEntity
  8
GUIDE
100
AcDbVertex
100
AcDb2dVertex
 10
78.0
 20
-4.25
 30
0.0
  0
VERTEX
  5
AAE
330
561
100
AcDbEntity
  8
GUIDE
100
AcDbVertex
100
AcDb2dVertex
 10
83.0
 20
-4.25
 30
0.0
  0
VERTEX
  5
AAF
330
561
100
AcDbEntity
  8
GUIDE
100
AcDbVertex
100
AcDb2dVertex
 10
83.0
 20
-5.05
 30
0.0
  0
SEQEND
  5
AAB
330
561
100
AcDbEntity
  8
GUIDE
  0
POLYLINE
  5
567
330
1A
100
AcDbEntity
  8
GUIDE
100
AcDb2dPolyline
 66
     1
 10
0.0
 20
0.0
 30
0.0
 70
     1
  0
VERTEX
  5
AB1
330
567
100
AcDbEntity
  8
GUIDE
100
AcDbVertex
100
AcDb2dVertex
 10
73.7
 20
-20.85
 30
0.0
  0
VERTEX
  5
AB2
330
567
100
AcDbEntity
  8
GUIDE
100
AcDbVertex
100
AcDb2dVertex
 10
73.7
 20
-14.25
 30
0.0
  0
VERTEX
  5
AB3
330
567
100
AcDbEntity
  8
GUIDE
100
AcDbVertex
100
AcDb2dVertex
 10
87.3
 20
-14.25
 30
0.0
  0
VERTEX
  5
AB4
330
567
100
AcDbEntity
  8
GUIDE
100
AcDbVertex
100
AcDb2dVertex
 10
87.3
 20
-20.85
 30
0.0
  0
SEQEND
  5
AB0
330
567
100
AcDbEntity
  8
GUIDE
  0
POLYLINE
  5
56D
330
1A
100
AcDbEntity
  8
GUIDE
100
AcDb2dPolyline
 66
     1
 10
0.0
 20
0.0
 30
0.0
 70
     1
  0
VERTEX
  5
AB6
330
56D
100
AcDbEntity
  8
GUIDE
100
AcDbVertex
100
AcDb2dVertex
 10
76.5
 20
-14.25
 30
0.0
  0
VERTEX
  5
AB7
330
56D
100
AcDbEntity
  8
GUIDE
100
AcDbVertex
100
AcDb2dVertex
 10
76.5
 20
-5.05
 30
0.0
  0
VERTEX
  5
AB8
330
56D
100
AcDbEntity
  8
GUIDE
100
AcDbVertex
100
AcDb2dVertex
 10
84.5
 20
-5.05
 30
0.0
  0
VERTEX
  5
AB9
330
56D
100
AcDbEntity
  8
GUIDE
100
AcDbVertex
100
AcDb2dVertex
 10
84.5
 20
-14.25
 30
0.0
  0
SEQEND
  5
AB5
330
56D
100
AcDbEntity
  8
GUIDE
  0
LINE
  5
573
330
1A
100
AcDbEntity
  8
GUIDE
100
AcDbLine
 10
64.40000000000001
 20
-21.15
 30
0.0
 11
64.40000000000001
 21
-21.45
 31
0.0
  0
LINE
  5
574
330
1A
100
AcDbEntity
  8
GUIDE
100
AcDbLine
 10
64.40000000000001
 20
-21.45
 30
0.0
 11
72.40000000000001
 21
-21.45
 31
0.0
  0
LINE
  5
575
330
1A
100
AcDbEntity
  8
GUIDE
100
AcDbLine
 10
72.40000000000001
 20
-21.45
 30
0.0
 11
72.40000000000001
 21
-21.15
 31
0.0
  0
LINE
  5
576
330
1A
100
AcDbEntity
  8
GUIDE
100
AcDbLine
 10
72.40000000000001
 20
-21.15
 30
0.0
 11
64.40000000000001
 21
-21.15
 31
0.0
  0
LINE
  5
577
330
1A
100
AcDbEntity
  8
GUIDE
100
AcDbLine
 10
61.6
 20
-5.35
 30
0.0
 11
61.6
 21
-11.95
 31
0.0
  0
LINE
  5
578
330
1A
100
AcDbEntity
  8
GUIDE
100
AcDbLine
 10
61.6
 20
-11.95
 30
0.0
 11
75.2
 21
-11.95
 31
0.0
  0
LINE
  5
579
330
1A
100
AcDbEntity
  8
GUIDE
100
AcDbLine
 10
75.2
 20
-11.95
 30
0.0
 11
75.2
 21
-5.35
 31
0.0
  0
LINE
  5
57A
330
1A
100
AcDbEntity
  8
GUIDE
100
AcDbLine
 10
75.2
 20
-5.35
 30
0.0
 11
61.6
 21
-5.35
 31
0.0
  0
LINE
  5
57B
330
1A
100
AcDbEntity
  8
GUIDE
100
AcDbLine
 10
64.40000000000001
 20
-5.05
 30
0.0
 11
64.40000000000001
 21
-5.35
 31
0.0
  0
LINE
  5
57C
330
1A
100
AcDbEntity
  8
GUIDE
100
AcDbLine
 10
64.40000000000001
 20
-5.35
 30
0.0
 11
72.40000000000001
 21
-5.35
 31
0.0
  0
LINE
  5
57D
330
1A
100
AcDbEntity
  8
GUIDE
100
AcDbLine
 10
72.40000000000001
 20
-5.35
 30
0.0
 11
72.40000000000001
 21
-5.05
 31
0.0
  0
LINE
  5
57E
330
1A
100
AcDbEntity
  8
GUIDE
100
AcDbLine
 10
72.40000000000001
 20
-5.05
 30
0.0
 11
64.40000000000001
 21
-5.05
 31
0.0
  0
LINE
  5
57F
330
1A
100
AcDbEntity
  8
GUIDE
100
AcDbLine
 10
65.90000000000001
 20
-4.25
 30
0.0
 11
65.90000000000001
 21
-5.05
 31
0.0
  0
LINE
  5
580
330
1A
100
AcDbEntity
  8
GUIDE
100
AcDbLine
 10
65.90000000000001
 20
-5.05
 30
0.0
 11
70.90000000000001
 21
-5.05
 31
0.0
  0
LINE
  5
581
330
1A
100
AcDbEntity
  8
GUIDE
100
AcDbLine
 10
70.90000000000001
 20
-5.05
 30
0.0
 11
70.90000000000001
 21
-4.25
 31
0.0
  0
LINE
  5
582
330
1A
100
AcDbEntity
  8
GUIDE
100
AcDbLine
 10
70.90000000000001
 20
-4.25
 30
0.0
 11
65.90000000000001
 21
-4.25
 31
0.0
  0
LINE
  5
583
330
1A
100
AcDbEntity
  8
GUIDE
100
AcDbLine
 10
64.40000000000001
 20
-11.95
 30
0.0
 11
64.40000000000001
 21
-21.15
 31
0.0
  0
LINE
  5
584
330
1A
100
AcDbEntity
  8
GUIDE
100
AcDbLine
 10
64.40000000000001
 20
-21.15
 30
0.0
 11
72.40000000000001
 21
-21.15
 31
0.0
  0
LINE
  5
585
330
1A
100
AcDbEntity
  8
GUIDE
100
AcDbLine
 10
72.40000000000001
 20
-21.15
 30
0.0
 11
72.40000000000001
 21
-11.95
 31
0.0
  0
LINE
  5
586
330
1A
100
AcDbEntity
  8
GUIDE
100
AcDbLine
 10
72.40000000000001
 20
-11.95
 30
0.0
 11
64.40000000000001
 21
-11.95
 31
0.0
  0
LINE
  5
587
330
1A
100
AcDbEntity
  8
GUIDE
100
AcDbLine
 10
65.90000000000001
 20
-69.45
 30
0.0
 11
65.90000000000001
 21
-70.25
 31
0.0
  0
LINE
  5
588
330
1A
100
AcDbEntity
  8
GUIDE
100
AcDbLine
 10
65.90000000000001
 20
-70.25
 30
0.0
 11
70.90000000000001
 21
-70.25
 31
0.0
  0
LINE
  5
589
330
1A
100
AcDbEntity
  8
GUIDE
100
AcDbLine
 10
70.90000000000001
 20
-70.25
 30
0.0
 11
70.90000000000001
 21
-69.45
 31
0.0
  0
LINE
  5
58A
330
1A
100
AcDbEntity
  8
GUIDE
100
AcDbLine
 10
70.90000000000001
 20
-69.45
 30
0.0
 11
65.90000000000001
 21
-69.45
 31
0.0
  0
LINE
  5
58B
330
1A
100
AcDbEntity
  8
GUIDE
100
AcDbLine
 10
61.6
 20
-21.45
 30
0.0
 11
61.6
 21
-28.05
 31
0.0
  0
LINE
  5
58C
330
1A
100
AcDbEntity
  8
GUIDE
100
AcDbLine
 10
61.6
 20
-28.05
 30
0.0
 11
75.2
 21
-28.05
 31
0.0
  0
LINE
  5
58D
330
1A
100
AcDbEntity
  8
GUIDE
100
AcDbLine
 10
75.2
 20
-28.05
 30
0.0
 11
75.2
 21
-21.45
 31
0.0
  0
LINE
  5
58E
330
1A
100
AcDbEntity
  8
GUIDE
100
AcDbLine
 10
75.2
 20
-21.45
 30
0.0
 11
61.6
 21
-21.45
 31
0.0
  0
LINE
  5
58F
330
1A
100
AcDbEntity
  8
GUIDE
100
AcDbLine
 10
64.40000000000001
 20
-28.05
 30
0.0
 11
64.40000000000001
 21
-37.25
 31
0.0
  0
LINE
  5
590
330
1A
100
AcDbEntity
  8
GUIDE
100
AcDbLine
 10
64.40000000000001
 20
-37.25
 30
0.0
 11
72.40000000000001
 21
-37.25
 31
0.0
  0
LINE
  5
591
330
1A
100
AcDbEntity
  8
GUIDE
100
AcDbLine
 10
72.40000000000001
 20
-37.25
 30
0.0
 11
72.40000000000001
 21
-28.05
 31
0.0
  0
LINE
  5
592
330
1A
100
AcDbEntity
  8
GUIDE
100
AcDbLine
 10
72.40000000000001
 20
-28.05
 30
0.0
 11
64.40000000000001
 21
-28.05
 31
0.0
  0
LINE
  5
593
330
1A
100
AcDbEntity
  8
GUIDE
100
AcDbLine
 10
88.59999999999999
 20
-21.15
 30
0.0
 11
88.59999999999999
 21
-21.45
 31
0.0
  0
LINE
  5
594
330
1A
100
AcDbEntity
  8
GUIDE
100
AcDbLine
 10
88.59999999999999
 20
-21.45
 30
0.0
 11
96.59999999999999
 21
-21.45
 31
0.0
  0
LINE
  5
595
330
1A
100
AcDbEntity
  8
GUIDE
100
AcDbLine
 10
96.59999999999999
 20
-21.45
 30
0.0
 11
96.59999999999999
 21
-21.15
 31
0.0
  0
LINE
  5
596
330
1A
100
AcDbEntity
  8
GUIDE
100
AcDbLine
 10
96.59999999999999
 20
-21.15
 30
0.0
 11
88.59999999999999
 21
-21.15
 31
0.0
  0
LINE
  5
597
330
1A
100
AcDbEntity
  8
GUIDE
100
AcDbLine
 10
85.8
 20
-5.35
 30
0.0
 11
85.8
 21
-11.95
 31
0.0
  0
LINE
  5
598
330
1A
100
AcDbEntity
  8
GUIDE
100
AcDbLine
 10
85.8
 20
-11.95
 30
0.0
 11
99.40000000000001
 21
-11.95
 31
0.0
  0
LINE
  5
599
330
1A
100
AcDbEntity
  8
GUIDE
100
AcDbLine
 10
99.40000000000001
 20
-11.95
 30
0.0
 11
99.40000000000001
 21
-5.35
 31
0.0
  0
LINE
  5
59A
330
1A
100
AcDbEntity
  8
GUIDE
100
AcDbLine
 10
99.40000000000001
 20
-5.35
 30
0.0
 11
85.8
 21
-5.35
 31
0.0
  0
LINE
  5
59B
330
1A
100
AcDbEntity
  8
GUIDE
100
AcDbLine
 10
88.59999999999999
 20
-5.05
 30
0.0
 11
88.59999999999999
 21
-5.35
 31
0.0
  0
LINE
  5
59C
330
1A
100
AcDbEntity
  8
GUIDE
100
AcDbLine
 10
88.59999999999999
 20
-5.35
 30
0.0
 11
96.59999999999999
 21
-5.35
 31
0.0
  0
LINE
  5
59D
330
1A
100
AcDbEntity
  8
GUIDE
100
AcDbLine
 10
96.59999999999999
 20
-5.35
 30
0.0
 11
96.59999999999999
 21
-5.05
 31
0.0
  0
LINE
  5
59E
330
1A
100
AcDbEntity
  8
GUIDE
100
AcDbLine
 10
96.59999999999999
 20
-5.05
 30
0.0
 11
88.59999999999999
 21
-5.05
 31
0.0
  0
LINE
  5
59F
330
1A
100
AcDbEntity
  8
GUIDE
100
AcDbLine
 10
90.09999999999999
 20
-4.25
 30
0.0
 11
90.09999999999999
 21
-5.05
 31
0.0
  0
LINE
  5
5A0
330
1A
100
AcDbEntity
  8
GUIDE
100
AcDbLine
 10
90.09999999999999
 20
-5.05
 30
0.0
 11
95.09999999999999
 21
-5.05
 31
0.0
  0
LINE
  5
5A1
330
1A
100
AcDbEntity
  8
GUIDE
100
AcDbLine
 10
95.09999999999999
 20
-5.05
 30
0.0
 11
95.09999999999999
 21
-4.25
 31
0.0
  0
LINE
  5
5A2
330
1A
100
AcDbEntity
  8
GUIDE
100
AcDbLine
 10
95.09999999999999
 20
-4.25
 30
0.0
 11
90.09999999999999
 21
-4.25
 31
0.0
  0
LINE
  5
5A3
330
1A
100
AcDbEntity
  8
GUIDE
100
AcDbLine
 10
88.59999999999999
 20
-11.95
 30
0.0
 11
88.59999999999999
 21
-21.15
 31
0.0
  0
LINE
  5
5A4
330
1A
100
AcDbEntity
  8
GUIDE
100
AcDbLine
 10
88.59999999999999
 20
-21.15
 30
0.0
 11
96.59999999999999
 21
-21.15
 31
0.0
  0
LINE
  5
5A5
330
1A
100
AcDbEntity
  8
GUIDE
100
AcDbLine
 10
96.59999999999999
 20
-21.15
 30
0.0
 11
96.59999999999999
 21
-11.95
 31
0.0
  0
LINE
  5
5A6
330
1A
100
AcDbEntity
  8
GUIDE
100
AcDbLine
 10
96.59999999999999
 20
-11.95
 30
0.0
 11
88.59999999999999
 21
-11.95
 31
0.0
  0
LINE
  5
5A7
330
1A
100
AcDbEntity
  8
GUIDE
100
AcDbLine
 10
90.09999999999999
 20
-69.45
 30
0.0
 11
90.09999999999999
 21
-70.25
 31
0.0
  0
LINE
  5
5A8
330
1A
100
AcDbEntity
  8
GUIDE
100
AcDbLine
 10
90.09999999999999
 20
-70.25
 30
0.0
 11
95.09999999999999
 21
-70.25
 31
0.0
  0
LINE
  5
5A9
330
1A
100
AcDbEntity
  8
GUIDE
100
AcDbLine
 10
95.09999999999999
 20
-70.25
 30
0.0
 11
95.09999999999999
 21
-69.45
 31
0.0
  0
LINE
  5
5AA
330
1A
100
AcDbEntity
  8
GUIDE
100
AcDbLine
 10
95.09999999999999
 20
-69.45
 30
0.0
 11
90.09999999999999
 21
-69.45
 31
0.0
  0
LINE
  5
5AB
330
1A
100
AcDbEntity
  8
GUIDE
100
AcDbLine
 10
85.8
 20
-21.45
 30
0.0
 11
85.8
 21
-28.05
 31
0.0
  0
LINE
  5
5AC
330
1A
100
AcDbEntity
  8
GUIDE
100
AcDbLine
 10
85.8
 20
-28.05
 30
0.0
 11
99.40000000000001
 21
-28.05
 31
0.0
  0
LINE
  5
5AD
330
1A
100
AcDbEntity
  8
GUIDE
100
AcDbLine
 10
99.40000000000001
 20
-28.05
 30
0.0
 11
99.40000000000001
 21
-21.45
 31
0.0
  0
LINE
  5
5AE
330
1A
100
AcDbEntity
  8
GUIDE
100
AcDbLine
 10
99.40000000000001
 20
-21.45
 30
0.0
 11
85.8
 21
-21.45
 31
0.0
  0
LINE
  5
5AF
330
1A
100
AcDbEntity
  8
GUIDE
100
AcDbLine
 10
88.59999999999999
 20
-28.05
 30
0.0
 11
88.59999999999999
 21
-37.25
 31
0.0
  0
LINE
  5
5B0
330
1A
100
AcDbEntity
  8
GUIDE
100
AcDbLine
 10
88.59999999999999
 20
-37.25
 30
0.0
 11
96.59999999999999
 21
-37.25
 31
0.0
  0
LINE
  5
5B1
330
1A
100
AcDbEntity
  8
GUIDE
100
AcDbLine
 10
96.59999999999999
 20
-37.25
 30
0.0
 11
96.59999999999999
 21
-28.05
 31
0.0
  0
LINE
  5
5B2
330
1A
100
AcDbEntity
  8
GUIDE
100
AcDbLine
 10
96.59999999999999
 20
-28.05
 30
0.0
 11
88.59999999999999
 21
-28.05
 31
0.0
  0
POLYLINE
  5
5B3
330
1A
100
AcDbEntity
  8
GUIDE
100
AcDb2dPolyline
 66
     1
 10
0.0
 20
0.0
 30
0.0
 70
     1
  0
VERTEX
  5
ABB
330
5B3
100
AcDbEntity
  8
GUIDE
100
AcDbVertex
100
AcDb2dVertex
 10
49.5
 20
-53.05
 30
0.0
  0
VERTEX
  5
ABC
330
5B3
100
AcDbEntity
  8
GUIDE
100
AcDbVertex
100
AcDb2dVertex
 10
49.5
 20
-46.45
 30
0.0
  0
VERTEX
  5
ABD
330
5B3
100
AcDbEntity
  8
GUIDE
100
AcDbVertex
100
AcDb2dVertex
 10
63.1
 20
-46.45
 30
0.0
  0
VERTEX
  5
ABE
330
5B3
100
AcDbEntity
  8
GUIDE
100
AcDbVertex
100
AcDb2dVertex
 10
63.1
 20
-53.05
 30
0.0
  0
SEQEND
  5
ABA
330
5B3
100
AcDbEntity
  8
GUIDE
  0
POLYLINE
  5
5B9
330
1A
100
AcDbEntity
  8
GUIDE
100
AcDb2dPolyline
 66
     1
 10
0.0
 20
0.0
 30
0.0
 70
     1
  0
VERTEX
  5
AC0
330
5B9
100
AcDbEntity
  8
GUIDE
100
AcDbVertex
100
AcDb2dVertex
 10
49.5
 20
-69.15000000000001
 30
0.0
  0
VERTEX
  5
AC1
330
5B9
100
AcDbEntity
  8
GUIDE
100
AcDbVertex
100
AcDb2dVertex
 10
49.5
 20
-62.55
 30
0.0
  0
VERTEX
  5
AC2
330
5B9
100
AcDbEntity
  8
GUIDE
100
AcDbVertex
100
AcDb2dVertex
 10
63.1
 20
-62.55
 30
0.0
  0
VERTEX
  5
AC3
330
5B9
100
AcDbEntity
  8
GUIDE
100
AcDbVertex
100
AcDb2dVertex
 10
63.1
 20
-69.15000000000001
 30
0.0
  0
SEQEND
  5
ABF
330
5B9
100
AcDbEntity
  8
GUIDE
  0
LINE
  5
5BF
330
1A
100
AcDbEntity
  8
GUIDE
100
AcDbLine
 10
24.1
 20
-60.25
 30
0.0
 11
16.1
 21
-60.25
 31
0.0
  0
LINE
  5
5C0
330
1A
100
AcDbEntity
  8
GUIDE
100
AcDbLine
 10
26.9
 20
-53.65
 30
0.0
 11
13.3
 21
-53.65
 31
0.0
  0
LINE
  5
5C1
330
1A
100
AcDbEntity
  8
GUIDE
100
AcDbLine
 10
13.3
 20
-60.25
 30
0.0
 11
26.9
 21
-60.25
 31
0.0
  0
LINE
  5
5C2
330
1A
100
AcDbEntity
  8
GUIDE
100
AcDbLine
 10
24.1
 20
-44.15
 30
0.0
 11
16.1
 21
-44.15
 31
0.0
  0
LINE
  5
5C3
330
1A
100
AcDbEntity
  8
GUIDE
100
AcDbLine
 10
16.1
 20
-53.35
 30
0.0
 11
24.1
 21
-53.35
 31
0.0
  0
LINE
  5
5C4
330
1A
100
AcDbEntity
  8
GUIDE
100
AcDbLine
 10
13.3
 20
-44.15
 30
0.0
 11
26.9
 21
-44.15
 31
0.0
  0
LINE
  5
5C5
330
1A
100
AcDbEntity
  8
GUIDE
100
AcDbLine
 10
24.1
 20
-53.35
 30
0.0
 11
16.1
 21
-53.35
 31
0.0
  0
LINE
  5
5C6
330
1A
100
AcDbEntity
  8
GUIDE
100
AcDbLine
 10
16.1
 20
-53.65
 30
0.0
 11
24.1
 21
-53.65
 31
0.0
  0
POLYLINE
  5
5C7
330
1A
100
AcDbEntity
  8
GUIDE
100
AcDb2dPolyline
 66
     1
 10
0.0
 20
0.0
 30
0.0
 70
     1
  0
VERTEX
  5
AC5
330
5C7
100
AcDbEntity
  8
GUIDE
100
AcDbVertex
100
AcDb2dVertex
 10
4.0
 20
-62.55
 30
0.0
  0
VERTEX
  5
AC6
330
5C7
100
AcDbEntity
  8
GUIDE
100
AcDbVertex
100
AcDb2dVertex
 10
4.0
 20
-53.35
 30
0.0
  0
VERTEX
  5
AC7
330
5C7
100
AcDbEntity
  8
GUIDE
100
AcDbVertex
100
AcDb2dVertex
 10
12.0
 20
-53.35
 30
0.0
  0
VERTEX
  5
AC8
330
5C7
100
AcDbEntity
  8
GUIDE
100
AcDbVertex
100
AcDb2dVertex
 10
12.0
 20
-62.55
 30
0.0
  0
SEQEND
  5
AC4
330
5C7
100
AcDbEntity
  8
GUIDE
  0
LINE
  5
5CD
330
1A
100
AcDbEntity
  8
GUIDE
100
AcDbLine
 10
13.3
 20
-53.65
 30
0.0
 11
13.3
 21
-60.25
 31
0.0
  0
POLYLINE
  5
5CE
330
1A
100
AcDbEntity
  8
GUIDE
100
AcDb2dPolyline
 66
     1
 10
0.0
 20
0.0
 30
0.0
 70
     1
  0
VERTEX
  5
ACA
330
5CE
100
AcDbEntity
  8
GUIDE
100
AcDbVertex
100
AcDb2dVertex
 10
1.2
 20
-69.15000000000001
 30
0.0
  0
VERTEX
  5
ACB
330
5CE
100
AcDbEntity
  8
GUIDE
100
AcDbVertex
100
AcDb2dVertex
 10
1.2
 20
-62.55
 30
0.0
  0
VERTEX
  5
ACC
330
5CE
100
AcDbEntity
  8
GUIDE
100
AcDbVertex
100
AcDb2dVertex
 10
14.8
 20
-62.55
 30
0.0
  0
VERTEX
  5
ACD
330
5CE
100
AcDbEntity
  8
GUIDE
100
AcDbVertex
100
AcDb2dVertex
 10
14.8
 20
-69.15000000000001
 30
0.0
  0
SEQEND
  5
AC9
330
5CE
100
AcDbEntity
  8
GUIDE
  0
LINE
  5
5D4
330
1A
100
AcDbEntity
  8
GUIDE
100
AcDbLine
 10
16.1
 20
-60.25
 30
0.0
 11
16.1
 21
-69.45
 31
0.0
  0
POLYLINE
  5
5D5
330
1A
100
AcDbEntity
  8
GUIDE
100
AcDb2dPolyline
 66
     1
 10
0.0
 20
0.0
 30
0.0
 70
     1
  0
VERTEX
  5
ACF
330
5D5
100
AcDbEntity
  8
GUIDE
100
AcDbVertex
100
AcDb2dVertex
 10
1.2
 20
-53.05
 30
0.0
  0
VERTEX
  5
AD0
330
5D5
100
AcDbEntity
  8
GUIDE
100
AcDbVertex
100
AcDb2dVertex
 10
1.2
 20
-46.45
 30
0.0
  0
VERTEX
  5
AD1
330
5D5
100
AcDbEntity
  8
GUIDE
100
AcDbVertex
100
AcDb2dVertex
 10
14.8
 20
-46.45
 30
0.0
  0
VERTEX
  5
AD2
330
5D5
100
AcDbEntity
  8
GUIDE
100
AcDbVertex
100
AcDb2dVertex
 10
14.8
 20
-53.05
 30
0.0
  0
SEQEND
  5
ACE
330
5D5
100
AcDbEntity
  8
GUIDE
  0
POLYLINE
  5
5DB
330
1A
100
AcDbEntity
  8
GUIDE
100
AcDb2dPolyline
 66
     1
 10
0.0
 20
0.0
 30
0.0
 70
     1
  0
VERTEX
  5
AD4
330
5DB
100
AcDbEntity
  8
GUIDE
100
AcDbVertex
100
AcDb2dVertex
 10
4.0
 20
-46.45
 30
0.0
  0
VERTEX
  5
AD5
330
5DB
100
AcDbEntity
  8
GUIDE
100
AcDbVertex
100
AcDb2dVertex
 10
4.0
 20
-37.25
 30
0.0
  0
VERTEX
  5
AD6
330
5DB
100
AcDbEntity
  8
GUIDE
100
AcDbVertex
100
AcDb2dVertex
 10
12.0
 20
-37.25
 30
0.0
  0
VERTEX
  5
AD7
330
5DB
100
AcDbEntity
  8
GUIDE
100
AcDbVertex
100
AcDb2dVertex
 10
12.0
 20
-46.45
 30
0.0
  0
SEQEND
  5
AD3
330
5DB
100
AcDbEntity
  8
GUIDE
  0
LINE
  5
5E1
330
1A
100
AcDbEntity
  8
GUIDE
100
AcDbLine
 10
16.1
 20
-44.15
 30
0.0
 11
16.1
 21
-53.35
 31
0.0
  0
POLYLINE
  5
5E2
330
1A
100
AcDbEntity
  8
GUIDE
100
AcDb2dPolyline
 66
     1
 10
0.0
 20
0.0
 30
0.0
 70
     1
  0
VERTEX
  5
AD9
330
5E2
100
AcDbEntity
  8
GUIDE
100
AcDbVertex
100
AcDb2dVertex
 10
4.0
 20
-53.35
 30
0.0
  0
VERTEX
  5
ADA
330
5E2
100
AcDbEntity
  8
GUIDE
100
AcDbVertex
100
AcDb2dVertex
 10
4.0
 20
-53.05
 30
0.0
  0
VERTEX
  5
ADB
330
5E2
100
AcDbEntity
  8
GUIDE
100
AcDbVertex
100
AcDb2dVertex
 10
12.0
 20
-53.05
 30
0.0
  0
VERTEX
  5
ADC
330
5E2
100
AcDbEntity
  8
GUIDE
100
AcDbVertex
100
AcDb2dVertex
 10
12.0
 20
-53.35
 30
0.0
  0
SEQEND
  5
AD8
330
5E2
100
AcDbEntity
  8
GUIDE
  0
LINE
  5
5E8
330
1A
100
AcDbEntity
  8
GUIDE
100
AcDbLine
 10
16.1
 20
-53.35
 30
0.0
 11
16.1
 21
-53.65
 31
0.0
  0
LINE
  5
5E9
330
1A
100
AcDbEntity
  8
GUIDE
100
AcDbLine
 10
13.3
 20
-37.55
 30
0.0
 11
13.3
 21
-44.15
 31
0.0
  0
POLYLINE
  5
5EA
330
1A
100
AcDbEntity
  8
GUIDE
100
AcDb2dPolyline
 66
     1
 10
0.0
 20
0.0
 30
0.0
 70
     1
  0
VERTEX
  5
ADE
330
5EA
100
AcDbEntity
  8
GUIDE
100
AcDbVertex
100
AcDb2dVertex
 10
28.1
 20
-62.55
 30
0.0
  0
VERTEX
  5
ADF
330
5EA
100
AcDbEntity
  8
GUIDE
100
AcDbVertex
100
AcDb2dVertex
 10
28.1
 20
-53.35
 30
0.0
  0
VERTEX
  5
AE0
330
5EA
100
AcDbEntity
  8
GUIDE
100
AcDbVertex
100
AcDb2dVertex
 10
36.1
 20
-53.35
 30
0.0
  0
VERTEX
  5
AE1
330
5EA
100
AcDbEntity
  8
GUIDE
100
AcDbVertex
100
AcDb2dVertex
 10
36.1
 20
-62.55
 30
0.0
  0
SEQEND
  5
ADD
330
5EA
100
AcDbEntity
  8
GUIDE
  0
LINE
  5
5F0
330
1A
100
AcDbEntity
  8
GUIDE
100
AcDbLine
 10
51.0
 20
-60.25
 30
0.0
 11
51.0
 21
-53.65
 31
0.0
  0
LINE
  5
5F1
330
1A
100
AcDbEntity
  8
GUIDE
100
AcDbLine
 10
37.4
 20
-53.65
 30
0.0
 11
37.4
 21
-60.25
 31
0.0
  0
LINE
  5
5F2
330
1A
100
AcDbEntity
  8
GUIDE
100
AcDbLine
 10
26.9
 20
-60.25
 30
0.0
 11
26.9
 21
-53.65
 31
0.0
  0
POLYLINE
  5
5F3
330
1A
100
AcDbEntity
  8
GUIDE
100
AcDb2dPolyline
 66
     1
 10
0.0
 20
0.0
 30
0.0
 70
     1
  0
VERTEX
  5
AE3
330
5F3
100
AcDbEntity
  8
GUIDE
100
AcDbVertex
100
AcDb2dVertex
 10
25.3
 20
-69.15000000000001
 30
0.0
  0
VERTEX
  5
AE4
330
5F3
100
AcDbEntity
  8
GUIDE
100
AcDbVertex
100
AcDb2dVertex
 10
25.3
 20
-62.55
 30
0.0
  0
VERTEX
  5
AE5
330
5F3
100
AcDbEntity
  8
GUIDE
100
AcDbVertex
100
AcDb2dVertex
 10
38.9
 20
-62.55
 30
0.0
  0
VERTEX
  5
AE6
330
5F3
100
AcDbEntity
  8
GUIDE
100
AcDbVertex
100
AcDb2dVertex
 10
38.9
 20
-69.15000000000001
 30
0.0
  0
SEQEND
  5
AE2
330
5F3
100
AcDbEntity
  8
GUIDE
  0
LINE
  5
5F9
330
1A
100
AcDbEntity
  8
GUIDE
100
AcDbLine
 10
24.1
 20
-69.45
 30
0.0
 11
24.1
 21
-60.25
 31
0.0
  0
LINE
  5
5FA
330
1A
100
AcDbEntity
  8
GUIDE
100
AcDbLine
 10
48.2
 20
-60.25
 30
0.0
 11
40.2
 21
-60.25
 31
0.0
  0
LINE
  5
5FB
330
1A
100
AcDbEntity
  8
GUIDE
100
AcDbLine
 10
37.4
 20
-60.25
 30
0.0
 11
51.0
 21
-60.25
 31
0.0
  0
LINE
  5
5FC
330
1A
100
AcDbEntity
  8
GUIDE
100
AcDbLine
 10
40.2
 20
-60.25
 30
0.0
 11
40.2
 21
-69.45
 31
0.0
  0
LINE
  5
5FD
330
1A
100
AcDbEntity
  8
GUIDE
100
AcDbLine
 10
48.2
 20
-69.45
 30
0.0
 11
48.2
 21
-60.25
 31
0.0
  0
POLYLINE
  5
5FE
330
1A
100
AcDbEntity
  8
GUIDE
100
AcDb2dPolyline
 66
     1
 10
0.0
 20
0.0
 30
0.0
 70
     1
  0
VERTEX
  5
AE8
330
5FE
100
AcDbEntity
  8
GUIDE
100
AcDbVertex
100
AcDb2dVertex
 10
28.1
 20
-46.45
 30
0.0
  0
VERTEX
  5
AE9
330
5FE
100
AcDbEntity
  8
GUIDE
100
AcDbVertex
100
AcDb2dVertex
 10
28.1
 20
-37.25
 30
0.0
  0
VERTEX
  5
AEA
330
5FE
100
AcDbEntity
  8
GUIDE
100
AcDbVertex
100
AcDb2dVertex
 10
36.1
 20
-37.25
 30
0.0
  0
VERTEX
  5
AEB
330
5FE
100
AcDbEntity
  8
GUIDE
100
AcDbVertex
100
AcDb2dVertex
 10
36.1
 20
-46.45
 30
0.0
  0
SEQEND
  5
AE7
330
5FE
100
AcDbEntity
  8
GUIDE
  0
POLYLINE
  5
604
330
1A
100
AcDbEntity
  8
GUIDE
100
AcDb2dPolyline
 66
     1
 10
0.0
 20
0.0
 30
0.0
 70
     1
  0
VERTEX
  5
AED
330
604
100
AcDbEntity
  8
GUIDE
100
AcDbVertex
100
AcDb2dVertex
 10
25.3
 20
-53.05
 30
0.0
  0
VERTEX
  5
AEE
330
604
100
AcDbEntity
  8
GUIDE
100
AcDbVertex
100
AcDb2dVertex
 10
25.3
 20
-46.45
 30
0.0
  0
VERTEX
  5
AEF
330
604
100
AcDbEntity
  8
GUIDE
100
AcDbVertex
100
AcDb2dVertex
 10
38.9
 20
-46.45
 30
0.0
  0
VERTEX
  5
AF0
330
604
100
AcDbEntity
  8
GUIDE
100
AcDbVertex
100
AcDb2dVertex
 10
38.9
 20
-53.05
 30
0.0
  0
SEQEND
  5
AEC
330
604
100
AcDbEntity
  8
GUIDE
  0
POLYLINE
  5
60A
330
1A
100
AcDbEntity
  8
GUIDE
100
AcDb2dPolyline
 66
     1
 10
0.0
 20
0.0
 30
0.0
 70
     1
  0
VERTEX
  5
AF2
330
60A
100
AcDbEntity
  8
GUIDE
100
AcDbVertex
100
AcDb2dVertex
 10
28.1
 20
-53.35
 30
0.0
  0
VERTEX
  5
AF3
330
60A
100
AcDbEntity
  8
GUIDE
100
AcDbVertex
100
AcDb2dVertex
 10
28.1
 20
-53.05
 30
0.0
  0
VERTEX
  5
AF4
330
60A
100
AcDbEntity
  8
GUIDE
100
AcDbVertex
100
AcDb2dVertex
 10
36.1
 20
-53.05
 30
0.0
  0
VERTEX
  5
AF5
330
60A
100
AcDbEntity
  8
GUIDE
100
AcDbVertex
100
AcDb2dVertex
 10
36.1
 20
-53.35
 30
0.0
  0
SEQEND
  5
AF1
330
60A
100
AcDbEntity
  8
GUIDE
  0
LINE
  5
610
330
1A
100
AcDbEntity
  8
GUIDE
100
AcDbLine
 10
24.1
 20
-53.35
 30
0.0
 11
24.1
 21
-44.15
 31
0.0
  0
LINE
  5
611
330
1A
100
AcDbEntity
  8
GUIDE
100
AcDbLine
 10
24.1
 20
-53.65
 30
0.0
 11
24.1
 21
-53.35
 31
0.0
  0
LINE
  5
612
330
1A
100
AcDbEntity
  8
GUIDE
100
AcDbLine
 10
26.9
 20
-44.15
 30
0.0
 11
26.9
 21
-37.55
 31
0.0
  0
LINE
  5
613
330
1A
100
AcDbEntity
  8
GUIDE
100
AcDbLine
 10
48.2
 20
-53.35
 30
0.0
 11
48.2
 21
-44.15
 31
0.0
  0
LINE
  5
614
330
1A
100
AcDbEntity
  8
GUIDE
100
AcDbLine
 10
40.2
 20
-44.15
 30
0.0
 11
40.2
 21
-53.35
 31
0.0
  0
LINE
  5
615
330
1A
100
AcDbEntity
  8
GUIDE
100
AcDbLine
 10
51.0
 20
-53.65
 30
0.0
 11
37.4
 21
-53.65
 31
0.0
  0
LINE
  5
616
330
1A
100
AcDbEntity
  8
GUIDE
100
AcDbLine
 10
40.2
 20
-53.35
 30
0.0
 11
48.2
 21
-53.35
 31
0.0
  0
LINE
  5
617
330
1A
100
AcDbEntity
  8
GUIDE
100
AcDbLine
 10
48.2
 20
-53.35
 30
0.0
 11
40.2
 21
-53.35
 31
0.0
  0
LINE
  5
618
330
1A
100
AcDbEntity
  8
GUIDE
100
AcDbLine
 10
40.2
 20
-53.65
 30
0.0
 11
48.2
 21
-53.65
 31
0.0
  0
LINE
  5
619
330
1A
100
AcDbEntity
  8
GUIDE
100
AcDbLine
 10
40.2
 20
-53.35
 30
0.0
 11
40.2
 21
-53.65
 31
0.0
  0
LINE
  5
61A
330
1A
100
AcDbEntity
  8
GUIDE
100
AcDbLine
 10
48.2
 20
-53.65
 30
0.0
 11
48.2
 21
-53.35
 31
0.0
  0
LINE
  5
61B
330
1A
100
AcDbEntity
  8
GUIDE
100
AcDbLine
 10
48.2
 20
-44.15
 30
0.0
 11
40.2
 21
-44.15
 31
0.0
  0
LINE
  5
61C
330
1A
100
AcDbEntity
  8
GUIDE
100
AcDbLine
 10
37.4
 20
-44.15
 30
0.0
 11
51.0
 21
-44.15
 31
0.0
  0
LINE
  5
61D
330
1A
100
AcDbEntity
  8
GUIDE
100
AcDbLine
 10
37.4
 20
-37.55
 30
0.0
 11
37.4
 21
-44.15
 31
0.0
  0
LINE
  5
61E
330
1A
100
AcDbEntity
  8
GUIDE
100
AcDbLine
 10
51.0
 20
-44.15
 30
0.0
 11
51.0
 21
-37.55
 31
0.0
  0
POLYLINE
  5
61F
330
1A
100
AcDbEntity
  8
GUIDE
100
AcDb2dPolyline
 66
     1
 10
0.0
 20
0.0
 30
0.0
 70
     1
  0
VERTEX
  5
AF7
330
61F
100
AcDbEntity
  8
GUIDE
100
AcDbVertex
100
AcDb2dVertex
 10
76.5
 20
-46.45
 30
0.0
  0
VERTEX
  5
AF8
330
61F
100
AcDbEntity
  8
GUIDE
100
AcDbVertex
100
AcDb2dVertex
 10
76.5
 20
-37.25
 30
0.0
  0
VERTEX
  5
AF9
330
61F
100
AcDbEntity
  8
GUIDE
100
AcDbVertex
100
AcDb2dVertex
 10
84.5
 20
-37.25
 30
0.0
  0
VERTEX
  5
AFA
330
61F
100
AcDbEntity
  8
GUIDE
100
AcDbVertex
100
AcDb2dVertex
 10
84.5
 20
-46.45
 30
0.0
  0
SEQEND
  5
AF6
330
61F
100
AcDbEntity
  8
GUIDE
  0
POLYLINE
  5
625
330
1A
100
AcDbEntity
  8
GUIDE
100
AcDb2dPolyline
 66
     1
 10
0.0
 20
0.0
 30
0.0
 70
     1
  0
VERTEX
  5
AFC
330
625
100
AcDbEntity
  8
GUIDE
100
AcDbVertex
100
AcDb2dVertex
 10
73.7
 20
-53.05
 30
0.0
  0
VERTEX
  5
AFD
330
625
100
AcDbEntity
  8
GUIDE
100
AcDbVertex
100
AcDb2dVertex
 10
73.7
 20
-46.45
 30
0.0
  0
VERTEX
  5
AFE
330
625
100
AcDbEntity
  8
GUIDE
100
AcDbVertex
100
AcDb2dVertex
 10
87.3
 20
-46.45
 30
0.0
  0
VERTEX
  5
AFF
330
625
100
AcDbEntity
  8
GUIDE
100
AcDbVertex
100
AcDb2dVertex
 10
87.3
 20
-53.05
 30
0.0
  0
SEQEND
  5
AFB
330
625
100
AcDbEntity
  8
GUIDE
  0
POLYLINE
  5
62B
330
1A
100
AcDbEntity
  8
GUIDE
100
AcDb2dPolyline
 66
     1
 10
0.0
 20
0.0
 30
0.0
 70
     1
  0
VERTEX
  5
B01
330
62B
100
AcDbEntity
  8
GUIDE
100
AcDbVertex
100
AcDb2dVertex
 10
76.5
 20
-62.55
 30
0.0
  0
VERTEX
  5
B02
330
62B
100
AcDbEntity
  8
GUIDE
100
AcDbVertex
100
AcDb2dVertex
 10
76.5
 20
-53.35
 30
0.0
  0
VERTEX
  5
B03
330
62B
100
AcDbEntity
  8
GUIDE
100
AcDbVertex
100
AcDb2dVertex
 10
84.5
 20
-53.35
 30
0.0
  0
VERTEX
  5
B04
330
62B
100
AcDbEntity
  8
GUIDE
100
AcDbVertex
100
AcDb2dVertex
 10
84.5
 20
-62.55
 30
0.0
  0
SEQEND
  5
B00
330
62B
100
AcDbEntity
  8
GUIDE
  0
POLYLINE
  5
631
330
1A
100
AcDbEntity
  8
GUIDE
100
AcDb2dPolyline
 66
     1
 10
0.0
 20
0.0
 30
0.0
 70
     1
  0
VERTEX
  5
B06
330
631
100
AcDbEntity
  8
GUIDE
100
AcDbVertex
100
AcDb2dVertex
 10
73.7
 20
-69.15000000000001
 30
0.0
  0
VERTEX
  5
B07
330
631
100
AcDbEntity
  8
GUIDE
100
AcDbVertex
100
AcDb2dVertex
 10
73.7
 20
-62.55
 30
0.0
  0
VERTEX
  5
B08
330
631
100
AcDbEntity
  8
GUIDE
100
AcDbVertex
100
AcDb2dVertex
 10
87.3
 20
-62.55
 30
0.0
  0
VERTEX
  5
B09
330
631
100
AcDbEntity
  8
GUIDE
100
AcDbVertex
100
AcDb2dVertex
 10
87.3
 20
-69.15000000000001
 30
0.0
  0
SEQEND
  5
B05
330
631
100
AcDbEntity
  8
GUIDE
  0
POLYLINE
  5
637
330
1A
100
AcDbEntity
  8
GUIDE
100
AcDb2dPolyline
 66
     1
 10
0.0
 20
0.0
 30
0.0
 70
     1
  0
VERTEX
  5
B0B
330
637
100
AcDbEntity
  8
GUIDE
100
AcDbVertex
100
AcDb2dVertex
 10
76.5
 20
-53.35
 30
0.0
  0
VERTEX
  5
B0C
330
637
100
AcDbEntity
  8
GUIDE
100
AcDbVertex
100
AcDb2dVertex
 10
76.5
 20
-53.05
 30
0.0
  0
VERTEX
  5
B0D
330
637
100
AcDbEntity
  8
GUIDE
100
AcDbVertex
100
AcDb2dVertex
 10
84.5
 20
-53.05
 30
0.0
  0
VERTEX
  5
B0E
330
637
100
AcDbEntity
  8
GUIDE
100
AcDbVertex
100
AcDb2dVertex
 10
84.5
 20
-53.35
 30
0.0
  0
SEQEND
  5
B0A
330
637
100
AcDbEntity
  8
GUIDE
  0
POLYLINE
  5
63D
330
1A
100
AcDbEntity
  8
GUIDE
100
AcDb2dPolyline
 66
     1
 10
0.0
 20
0.0
 30
0.0
 70
     1
  0
VERTEX
  5
B10
330
63D
100
AcDbEntity
  8
GUIDE
100
AcDbVertex
100
AcDb2dVertex
 10
52.3
 20
-62.55
 30
0.0
  0
VERTEX
  5
B11
330
63D
100
AcDbEntity
  8
GUIDE
100
AcDbVertex
100
AcDb2dVertex
 10
52.3
 20
-53.35
 30
0.0
  0
VERTEX
  5
B12
330
63D
100
AcDbEntity
  8
GUIDE
100
AcDbVertex
100
AcDb2dVertex
 10
60.3
 20
-53.35
 30
0.0
  0
VERTEX
  5
B13
330
63D
100
AcDbEntity
  8
GUIDE
100
AcDbVertex
100
AcDb2dVertex
 10
60.3
 20
-62.55
 30
0.0
  0
SEQEND
  5
B0F
330
63D
100
AcDbEntity
  8
GUIDE
  0
LINE
  5
643
330
1A
100
AcDbEntity
  8
GUIDE
100
AcDbLine
 10
75.2
 20
-60.25
 30
0.0
 11
75.2
 21
-53.65
 31
0.0
  0
LINE
  5
644
330
1A
100
AcDbEntity
  8
GUIDE
100
AcDbLine
 10
61.6
 20
-53.65
 30
0.0
 11
61.6
 21
-60.25
 31
0.0
  0
LINE
  5
645
330
1A
100
AcDbEntity
  8
GUIDE
100
AcDbLine
 10
72.40000000000001
 20
-60.25
 30
0.0
 11
64.40000000000001
 21
-60.25
 31
0.0
  0
LINE
  5
646
330
1A
100
AcDbEntity
  8
GUIDE
100
AcDbLine
 10
61.6
 20
-60.25
 30
0.0
 11
75.2
 21
-60.25
 31
0.0
  0
LINE
  5
647
330
1A
100
AcDbEntity
  8
GUIDE
100
AcDbLine
 10
64.40000000000001
 20
-60.25
 30
0.0
 11
64.40000000000001
 21
-69.45
 31
0.0
  0
LINE
  5
648
330
1A
100
AcDbEntity
  8
GUIDE
100
AcDbLine
 10
72.40000000000001
 20
-69.45
 30
0.0
 11
72.40000000000001
 21
-60.25
 31
0.0
  0
LINE
  5
649
330
1A
100
AcDbEntity
  8
GUIDE
100
AcDbLine
 10
75.2
 20
-53.65
 30
0.0
 11
61.6
 21
-53.65
 31
0.0
  0
LINE
  5
64A
330
1A
100
AcDbEntity
  8
GUIDE
100
AcDbLine
 10
72.40000000000001
 20
-44.15
 30
0.0
 11
64.40000000000001
 21
-44.15
 31
0.0
  0
LINE
  5
64B
330
1A
100
AcDbEntity
  8
GUIDE
100
AcDbLine
 10
64.40000000000001
 20
-53.35
 30
0.0
 11
72.40000000000001
 21
-53.35
 31
0.0
  0
LINE
  5
64C
330
1A
100
AcDbEntity
  8
GUIDE
100
AcDbLine
 10
61.6
 20
-44.15
 30
0.0
 11
75.2
 21
-44.15
 31
0.0
  0
LINE
  5
64D
330
1A
100
AcDbEntity
  8
GUIDE
100
AcDbLine
 10
72.40000000000001
 20
-53.35
 30
0.0
 11
64.40000000000001
 21
-53.35
 31
0.0
  0
LINE
  5
64E
330
1A
100
AcDbEntity
  8
GUIDE
100
AcDbLine
 10
64.40000000000001
 20
-53.65
 30
0.0
 11
72.40000000000001
 21
-53.65
 31
0.0
  0
POLYLINE
  5
64F
330
1A
100
AcDbEntity
  8
GUIDE
100
AcDb2dPolyline
 66
     1
 10
0.0
 20
0.0
 30
0.0
 70
     1
  0
VERTEX
  5
B15
330
64F
100
AcDbEntity
  8
GUIDE
100
AcDbVertex
100
AcDb2dVertex
 10
52.3
 20
-46.45
 30
0.0
  0
VERTEX
  5
B16
330
64F
100
AcDbEntity
  8
GUIDE
100
AcDbVertex
100
AcDb2dVertex
 10
52.3
 20
-37.25
 30
0.0
  0
VERTEX
  5
B17
330
64F
100
AcDbEntity
  8
GUIDE
100
AcDbVertex
100
AcDb2dVertex
 10
60.3
 20
-37.25
 30
0.0
  0
VERTEX
  5
B18
330
64F
100
AcDbEntity
  8
GUIDE
100
AcDbVertex
100
AcDb2dVertex
 10
60.3
 20
-46.45
 30
0.0
  0
SEQEND
  5
B14
330
64F
100
AcDbEntity
  8
GUIDE
  0
LINE
  5
655
330
1A
100
AcDbEntity
  8
GUIDE
100
AcDbLine
 10
64.40000000000001
 20
-44.15
 30
0.0
 11
64.40000000000001
 21
-53.35
 31
0.0
  0
POLYLINE
  5
656
330
1A
100
AcDbEntity
  8
GUIDE
100
AcDb2dPolyline
 66
     1
 10
0.0
 20
0.0
 30
0.0
 70
     1
  0
VERTEX
  5
B1A
330
656
100
AcDbEntity
  8
GUIDE
100
AcDbVertex
100
AcDb2dVertex
 10
52.3
 20
-53.35
 30
0.0
  0
VERTEX
  5
B1B
330
656
100
AcDbEntity
  8
GUIDE
100
AcDbVertex
100
AcDb2dVertex
 10
52.3
 20
-53.05
 30
0.0
  0
VERTEX
  5
B1C
330
656
100
AcDbEntity
  8
GUIDE
100
AcDbVertex
100
AcDb2dVertex
 10
60.3
 20
-53.05
 30
0.0
  0
VERTEX
  5
B1D
330
656
100
AcDbEntity
  8
GUIDE
100
AcDbVertex
100
AcDb2dVertex
 10
60.3
 20
-53.35
 30
0.0
  0
SEQEND
  5
B19
330
656
100
AcDbEntity
  8
GUIDE
  0
LINE
  5
65C
330
1A
100
AcDbEntity
  8
GUIDE
100
AcDbLine
 10
64.40000000000001
 20
-53.35
 30
0.0
 11
64.40000000000001
 21
-53.65
 31
0.0
  0
LINE
  5
65D
330
1A
100
AcDbEntity
  8
GUIDE
100
AcDbLine
 10
61.6
 20
-37.55
 30
0.0
 11
61.6
 21
-44.15
 31
0.0
  0
LINE
  5
65E
330
1A
100
AcDbEntity
  8
GUIDE
100
AcDbLine
 10
72.40000000000001
 20
-53.35
 30
0.0
 11
72.40000000000001
 21
-44.15
 31
0.0
  0
LINE
  5
65F
330
1A
100
AcDbEntity
  8
GUIDE
100
AcDbLine
 10
72.40000000000001
 20
-53.65
 30
0.0
 11
72.40000000000001
 21
-53.35
 31
0.0
  0
LINE
  5
660
330
1A
100
AcDbEntity
  8
GUIDE
100
AcDbLine
 10
75.2
 20
-44.15
 30
0.0
 11
75.2
 21
-37.55
 31
0.0
  0
LINE
  5
661
330
1A
100
AcDbEntity
  8
GUIDE
100
AcDbLine
 10
85.8
 20
-53.65
 30
0.0
 11
85.8
 21
-60.25
 31
0.0
  0
LINE
  5
662
330
1A
100
AcDbEntity
  8
GUIDE
100
AcDbLine
 10
85.8
 20
-60.25
 30
0.0
 11
99.40000000000001
 21
-60.25
 31
0.0
  0
LINE
  5
663
330
1A
100
AcDbEntity
  8
GUIDE
100
AcDbLine
 10
96.59999999999999
 20
-60.25
 30
0.0
 11
88.59999999999999
 21
-60.25
 31
0.0
  0
LINE
  5
664
330
1A
100
AcDbEntity
  8
GUIDE
100
AcDbLine
 10
88.59999999999999
 20
-60.25
 30
0.0
 11
88.59999999999999
 21
-69.45
 31
0.0
  0
LINE
  5
665
330
1A
100
AcDbEntity
  8
GUIDE
100
AcDbLine
 10
96.59999999999999
 20
-69.45
 30
0.0
 11
96.59999999999999
 21
-60.25
 31
0.0
  0
LINE
  5
666
330
1A
100
AcDbEntity
  8
GUIDE
100
AcDbLine
 10
99.40000000000001
 20
-53.65
 30
0.0
 11
85.8
 21
-53.65
 31
0.0
  0
LINE
  5
667
330
1A
100
AcDbEntity
  8
GUIDE
100
AcDbLine
 10
85.8
 20
-44.15
 30
0.0
 11
99.40000000000001
 21
-44.15
 31
0.0
  0
LINE
  5
668
330
1A
100
AcDbEntity
  8
GUIDE
100
AcDbLine
 10
96.59999999999999
 20
-53.35
 30
0.0
 11
96.59999999999999
 21
-44.15
 31
0.0
  0
LINE
  5
669
330
1A
100
AcDbEntity
  8
GUIDE
100
AcDbLine
 10
88.59999999999999
 20
-44.15
 30
0.0
 11
88.59999999999999
 21
-53.35
 31
0.0
  0
LINE
  5
66A
330
1A
100
AcDbEntity
  8
GUIDE
100
AcDbLine
 10
88.59999999999999
 20
-53.35
 30
0.0
 11
96.59999999999999
 21
-53.35
 31
0.0
  0
LINE
  5
66B
330
1A
100
AcDbEntity
  8
GUIDE
100
AcDbLine
 10
96.59999999999999
 20
-53.35
 30
0.0
 11
88.59999999999999
 21
-53.35
 31
0.0
  0
LINE
  5
66C
330
1A
100
AcDbEntity
  8
GUIDE
100
AcDbLine
 10
88.59999999999999
 20
-53.65
 30
0.0
 11
96.59999999999999
 21
-53.65
 31
0.0
  0
LINE
  5
66D
330
1A
100
AcDbEntity
  8
GUIDE
100
AcDbLine
 10
88.59999999999999
 20
-53.35
 30
0.0
 11
88.59999999999999
 21
-53.65
 31
0.0
  0
LINE
  5
66E
330
1A
100
AcDbEntity
  8
GUIDE
100
AcDbLine
 10
96.59999999999999
 20
-53.65
 30
0.0
 11
96.59999999999999
 21
-53.35
 31
0.0
  0
LINE
  5
66F
330
1A
100
AcDbEntity
  8
GUIDE
100
AcDbLine
 10
96.59999999999999
 20
-44.15
 30
0.0
 11
88.59999999999999
 21
-44.15
 31
0.0
  0
LINE
  5
670
330
1A
100
AcDbEntity
  8
GUIDE
100
AcDbLine
 10
85.8
 20
-37.55
 30
0.0
 11
85.8
 21
-44.15
 31
0.0
  0
LINE
  5
671
330
1A
100
AcDbEntity
  8
GUIDE
100
AcDbLine
 10
16.1
 20
-69.45
 30
0.0
 11
24.1
 21
-69.45
 31
0.0
  0
POLYLINE
  5
672
330
1A
100
AcDbEntity
  8
GUIDE
100
AcDb2dPolyline
 66
     1
 10
0.0
 20
0.0
 30
0.0
 70
     1
  0
VERTEX
  5
B1F
330
672
100
AcDbEntity
  8
GUIDE
100
AcDbVertex
100
AcDb2dVertex
 10
4.0
 20
-69.45
 30
0.0
  0
VERTEX
  5
B20
330
672
100
AcDbEntity
  8
GUIDE
100
AcDbVertex
100
AcDb2dVertex
 10
4.0
 20
-69.15000000000001
 30
0.0
  0
VERTEX
  5
B21
330
672
100
AcDbEntity
  8
GUIDE
100
AcDbVertex
100
AcDb2dVertex
 10
12.0
 20
-69.15000000000001
 30
0.0
  0
VERTEX
  5
B22
330
672
100
AcDbEntity
  8
GUIDE
100
AcDbVertex
100
AcDb2dVertex
 10
12.0
 20
-69.45
 30
0.0
  0
SEQEND
  5
B1E
330
672
100
AcDbEntity
  8
GUIDE
  0
POLYLINE
  5
678
330
1A
100
AcDbEntity
  8
GUIDE
100
AcDb2dPolyline
 66
     1
 10
0.0
 20
0.0
 30
0.0
 70
     1
  0
VERTEX
  5
B24
330
678
100
AcDbEntity
  8
GUIDE
100
AcDbVertex
100
AcDb2dVertex
 10
28.1
 20
-69.45
 30
0.0
  0
VERTEX
  5
B25
330
678
100
AcDbEntity
  8
GUIDE
100
AcDbVertex
100
AcDb2dVertex
 10
28.1
 20
-69.15000000000001
 30
0.0
  0
VERTEX
  5
B26
330
678
100
AcDbEntity
  8
GUIDE
100
AcDbVertex
100
AcDb2dVertex
 10
36.1
 20
-69.15000000000001
 30
0.0
  0
VERTEX
  5
B27
330
678
100
AcDbEntity
  8
GUIDE
100
AcDbVertex
100
AcDb2dVertex
 10
36.1
 20
-69.45
 30
0.0
  0
SEQEND
  5
B23
330
678
100
AcDbEntity
  8
GUIDE
  0
LINE
  5
67E
330
1A
100
AcDbEntity
  8
GUIDE
100
AcDbLine
 10
40.2
 20
-69.45
 30
0.0
 11
48.2
 21
-69.45
 31
0.0
  0
POLYLINE
  5
67F
330
1A
100
AcDbEntity
  8
GUIDE
100
AcDb2dPolyline
 66
     1
 10
0.0
 20
0.0
 30
0.0
 70
     1
  0
VERTEX
  5
B29
330
67F
100
AcDbEntity
  8
GUIDE
100
AcDbVertex
100
AcDb2dVertex
 10
76.5
 20
-69.45
 30
0.0
  0
VERTEX
  5
B2A
330
67F
100
AcDbEntity
  8
GUIDE
100
AcDbVertex
100
AcDb2dVertex
 10
76.5
 20
-69.15000000000001
 30
0.0
  0
VERTEX
  5
B2B
330
67F
100
AcDbEntity
  8
GUIDE
100
AcDbVertex
100
AcDb2dVertex
 10
84.5
 20
-69.15000000000001
 30
0.0
  0
VERTEX
  5
B2C
330
67F
100
AcDbEntity
  8
GUIDE
100
AcDbVertex
100
AcDb2dVertex
 10
84.5
 20
-69.45
 30
0.0
  0
SEQEND
  5
B28
330
67F
100
AcDbEntity
  8
GUIDE
  0
LINE
  5
685
330
1A
100
AcDbEntity
  8
GUIDE
100
AcDbLine
 10
64.40000000000001
 20
-69.45
 30
0.0
 11
72.40000000000001
 21
-69.45
 31
0.0
  0
POLYLINE
  5
686
330
1A
100
AcDbEntity
  8
GUIDE
100
AcDb2dPolyline
 66
     1
 10
0.0
 20
0.0
 30
0.0
 70
     1
  0
VERTEX
  5
B2E
330
686
100
AcDbEntity
  8
GUIDE
100
AcDbVertex
100
AcDb2dVertex
 10
52.3
 20
-69.45
 30
0.0
  0
VERTEX
  5
B2F
330
686
100
AcDbEntity
  8
GUIDE
100
AcDbVertex
100
AcDb2dVertex
 10
52.3
 20
-69.15000000000001
 30
0.0
  0
VERTEX
  5
B30
330
686
100
AcDbEntity
  8
GUIDE
100
AcDbVertex
100
AcDb2dVertex
 10
60.3
 20
-69.15000000000001
 30
0.0
  0
VERTEX
  5
B31
330
686
100
AcDbEntity
  8
GUIDE
100
AcDbVertex
100
AcDb2dVertex
 10
60.3
 20
-69.45
 30
0.0
  0
SEQEND
  5
B2D
330
686
100
AcDbEntity
  8
GUIDE
  0
LINE
  5
68C
330
1A
100
AcDbEntity
  8
GUIDE
100
AcDbLine
 10
88.59999999999999
 20
-69.45
 30
0.0
 11
96.59999999999999
 21
-69.45
 31
0.0
  0
LINE
  5
68D
330
1A
100
AcDbEntity
  8
GUIDE
100
AcDbLine
 10
17.6
 20
-37.25
 30
0.0
 11
22.6
 21
-37.25
 31
0.0
  0
LINE
  5
68E
330
1A
100
AcDbEntity
  8
GUIDE
100
AcDbLine
 10
24.1
 20
-37.25
 30
0.0
 11
16.1
 21
-37.25
 31
0.0
  0
LINE
  5
68F
330
1A
100
AcDbEntity
  8
GUIDE
100
AcDbLine
 10
16.1
 20
-37.55
 30
0.0
 11
24.1
 21
-37.55
 31
0.0
  0
LINE
  5
690
330
1A
100
AcDbEntity
  8
GUIDE
100
AcDbLine
 10
26.9
 20
-37.55
 30
0.0
 11
13.3
 21
-37.55
 31
0.0
  0
LINE
  5
691
330
1A
100
AcDbEntity
  8
GUIDE
100
AcDbLine
 10
16.1
 20
-37.25
 30
0.0
 11
16.1
 21
-37.55
 31
0.0
  0
LINE
  5
692
330
1A
100
AcDbEntity
  8
GUIDE
100
AcDbLine
 10
24.1
 20
-37.55
 30
0.0
 11
24.1
 21
-37.25
 31
0.0
  0
LINE
  5
693
330
1A
100
AcDbEntity
  8
GUIDE
100
AcDbLine
 10
41.7
 20
-37.25
 30
0.0
 11
46.7
 21
-37.25
 31
0.0
  0
LINE
  5
694
330
1A
100
AcDbEntity
  8
GUIDE
100
AcDbLine
 10
48.2
 20
-37.25
 30
0.0
 11
40.2
 21
-37.25
 31
0.0
  0
LINE
  5
695
330
1A
100
AcDbEntity
  8
GUIDE
100
AcDbLine
 10
40.2
 20
-37.55
 30
0.0
 11
48.2
 21
-37.55
 31
0.0
  0
LINE
  5
696
330
1A
100
AcDbEntity
  8
GUIDE
100
AcDbLine
 10
51.0
 20
-37.55
 30
0.0
 11
37.4
 21
-37.55
 31
0.0
  0
LINE
  5
697
330
1A
100
AcDbEntity
  8
GUIDE
100
AcDbLine
 10
40.2
 20
-37.25
 30
0.0
 11
40.2
 21
-37.55
 31
0.0
  0
LINE
  5
698
330
1A
100
AcDbEntity
  8
GUIDE
100
AcDbLine
 10
48.2
 20
-37.55
 30
0.0
 11
48.2
 21
-37.25
 31
0.0
  0
LINE
  5
699
330
1A
100
AcDbEntity
  8
GUIDE
100
AcDbLine
 10
65.90000000000001
 20
-37.25
 30
0.0
 11
70.90000000000001
 21
-37.25
 31
0.0
  0
LINE
  5
69A
330
1A
100
AcDbEntity
  8
GUIDE
100
AcDbLine
 10
72.40000000000001
 20
-37.25
 30
0.0
 11
64.40000000000001
 21
-37.25
 31
0.0
  0
LINE
  5
69B
330
1A
100
AcDbEntity
  8
GUIDE
100
AcDbLine
 10
64.40000000000001
 20
-37.55
 30
0.0
 11
72.40000000000001
 21
-37.55
 31
0.0
  0
LINE
  5
69C
330
1A
100
AcDbEntity
  8
GUIDE
100
AcDbLine
 10
75.2
 20
-37.55
 30
0.0
 11
61.6
 21
-37.55
 31
0.0
  0
LINE
  5
69D
330
1A
100
AcDbEntity
  8
GUIDE
100
AcDbLine
 10
64.40000000000001
 20
-37.25
 30
0.0
 11
64.40000000000001
 21
-37.55
 31
0.0
  0
LINE
  5
69E
330
1A
100
AcDbEntity
  8
GUIDE
100
AcDbLine
 10
72.40000000000001
 20
-37.55
 30
0.0
 11
72.40000000000001
 21
-37.25
 31
0.0
  0
LINE
  5
69F
330
1A
100
AcDbEntity
  8
GUIDE
100
AcDbLine
 10
90.09999999999999
 20
-37.25
 30
0.0
 11
95.09999999999999
 21
-37.25
 31
0.0
  0
LINE
  5
6A0
330
1A
100
AcDbEntity
  8
GUIDE
100
AcDbLine
 10
96.59999999999999
 20
-37.25
 30
0.0
 11
88.59999999999999
 21
-37.25
 31
0.0
  0
LINE
  5
6A1
330
1A
100
AcDbEntity
  8
GUIDE
100
AcDbLine
 10
88.59999999999999
 20
-37.55
 30
0.0
 11
96.59999999999999
 21
-37.55
 31
0.0
  0
LINE
  5
6A2
330
1A
100
AcDbEntity
  8
GUIDE
100
AcDbLine
 10
88.59999999999999
 20
-37.25
 30
0.0
 11
88.59999999999999
 21
-37.55
 31
0.0
  0
LINE
  5
6A3
330
1A
100
AcDbEntity
  8
GUIDE
100
AcDbLine
 10
96.59999999999999
 20
-37.55
 30
0.0
 11
96.59999999999999
 21
-37.25
 31
0.0
  0
LINE
  5
6A4
330
1A
100
AcDbEntity
  8
GUIDE
100
AcDbLine
 10
99.40000000000001
 20
-37.55
 30
0.0
 11
85.8
 21
-37.55
 31
0.0
  0
LINE
  5
6A5
330
1A
100
AcDbEntity
  8
GUIDE
100
AcDbLine
 10
99.40000000000001
 20
-44.15
 30
0.0
 11
99.40000000000001
 21
-37.55
 31
0.0
  0
LINE
  5
6A6
330
1A
100
AcDbEntity
  8
GUIDE
100
AcDbLine
 10
99.40000000000001
 20
-60.25
 30
0.0
 11
99.40000000000001
 21
-53.65
 31
0.0
  0
POLYLINE
  5
6A7
330
1A
100
AcDbEntity
  8
GUIDE
100
AcDb2dPolyline
 66
     1
 10
0.0
 20
0.0
 30
0.0
 70
     1
  0
VERTEX
  5
B33
330
6A7
100
AcDbEntity
  8
GUIDE
100
AcDbVertex
100
AcDb2dVertex
 10
145.872353
 20
-5.85
 30
0.0
  0
VERTEX
  5
B34
330
6A7
100
AcDbEntity
  8
GUIDE
100
AcDbVertex
100
AcDb2dVertex
 10
145.872353
 20
-12.45
 30
0.0
  0
VERTEX
  5
B35
330
6A7
100
AcDbEntity
  8
GUIDE
100
AcDbVertex
100
AcDb2dVertex
 10
159.472353
 20
-12.45
 30
0.0
  0
VERTEX
  5
B36
330
6A7
100
AcDbEntity
  8
GUIDE
100
AcDbVertex
100
AcDb2dVertex
 10
159.472353
 20
-5.85
 30
0.0
  0
SEQEND
  5
B32
330
6A7
100
AcDbEntity
  8
GUIDE
  0
POLYLINE
  5
6AD
330
1A
100
AcDbEntity
  8
GUIDE
100
AcDb2dPolyline
 66
     1
 10
0.0
 20
0.0
 30
0.0
 70
     1
  0
VERTEX
  5
B38
330
6AD
100
AcDbEntity
  8
GUIDE
100
AcDbVertex
100
AcDb2dVertex
 10
150.172353
 20
-5.55
 30
0.0
  0
VERTEX
  5
B39
330
6AD
100
AcDbEntity
  8
GUIDE
100
AcDbVertex
100
AcDb2dVertex
 10
150.172353
 20
-4.75
 30
0.0
  0
VERTEX
  5
B3A
330
6AD
100
AcDbEntity
  8
GUIDE
100
AcDbVertex
100
AcDb2dVertex
 10
155.172353
 20
-4.75
 30
0.0
  0
VERTEX
  5
B3B
330
6AD
100
AcDbEntity
  8
GUIDE
100
AcDbVertex
100
AcDb2dVertex
 10
155.172353
 20
-5.55
 30
0.0
  0
SEQEND
  5
B37
330
6AD
100
AcDbEntity
  8
GUIDE
  0
POLYLINE
  5
6B3
330
1A
100
AcDbEntity
  8
GUIDE
100
AcDb2dPolyline
 66
     1
 10
0.0
 20
0.0
 30
0.0
 70
     1
  0
VERTEX
  5
B3D
330
6B3
100
AcDbEntity
  8
GUIDE
100
AcDbVertex
100
AcDb2dVertex
 10
148.672353
 20
-5.55
 30
0.0
  0
VERTEX
  5
B3E
330
6B3
100
AcDbEntity
  8
GUIDE
100
AcDbVertex
100
AcDb2dVertex
 10
148.672353
 20
-5.85
 30
0.0
  0
VERTEX
  5
B3F
330
6B3
100
AcDbEntity
  8
GUIDE
100
AcDbVertex
100
AcDb2dVertex
 10
156.672353
 20
-5.85
 30
0.0
  0
VERTEX
  5
B40
330
6B3
100
AcDbEntity
  8
GUIDE
100
AcDbVertex
100
AcDb2dVertex
 10
156.672353
 20
-5.55
 30
0.0
  0
SEQEND
  5
B3C
330
6B3
100
AcDbEntity
  8
GUIDE
  0
POLYLINE
  5
6B9
330
1A
100
AcDbEntity
  8
GUIDE
100
AcDb2dPolyline
 66
     1
 10
0.0
 20
0.0
 30
0.0
 70
     1
  0
VERTEX
  5
B42
330
6B9
100
AcDbEntity
  8
GUIDE
100
AcDbVertex
100
AcDb2dVertex
 10
150.172353
 20
-70.25
 30
0.0
  0
VERTEX
  5
B43
330
6B9
100
AcDbEntity
  8
GUIDE
100
AcDbVertex
100
AcDb2dVertex
 10
150.172353
 20
-69.95
 30
0.0
  0
VERTEX
  5
B44
330
6B9
100
AcDbEntity
  8
GUIDE
100
AcDbVertex
100
AcDb2dVertex
 10
155.172353
 20
-69.95
 30
0.0
  0
VERTEX
  5
B45
330
6B9
100
AcDbEntity
  8
GUIDE
100
AcDbVertex
100
AcDb2dVertex
 10
155.172353
 20
-70.25
 30
0.0
  0
SEQEND
  5
B41
330
6B9
100
AcDbEntity
  8
GUIDE
  0
POLYLINE
  5
6BF
330
1A
100
AcDbEntity
  8
GUIDE
100
AcDb2dPolyline
 66
     1
 10
0.0
 20
0.0
 30
0.0
 70
     1
  0
VERTEX
  5
B47
330
6BF
100
AcDbEntity
  8
GUIDE
100
AcDbVertex
100
AcDb2dVertex
 10
145.872353
 20
-21.95
 30
0.0
  0
VERTEX
  5
B48
330
6BF
100
AcDbEntity
  8
GUIDE
100
AcDbVertex
100
AcDb2dVertex
 10
145.872353
 20
-28.55
 30
0.0
  0
VERTEX
  5
B49
330
6BF
100
AcDbEntity
  8
GUIDE
100
AcDbVertex
100
AcDb2dVertex
 10
159.472353
 20
-28.55
 30
0.0
  0
VERTEX
  5
B4A
330
6BF
100
AcDbEntity
  8
GUIDE
100
AcDbVertex
100
AcDb2dVertex
 10
159.472353
 20
-21.95
 30
0.0
  0
SEQEND
  5
B46
330
6BF
100
AcDbEntity
  8
GUIDE
  0
POLYLINE
  5
6C5
330
1A
100
AcDbEntity
  8
GUIDE
100
AcDb2dPolyline
 66
     1
 10
0.0
 20
0.0
 30
0.0
 70
     1
  0
VERTEX
  5
B4C
330
6C5
100
AcDbEntity
  8
GUIDE
100
AcDbVertex
100
AcDb2dVertex
 10
148.672353
 20
-21.65
 30
0.0
  0
VERTEX
  5
B4D
330
6C5
100
AcDbEntity
  8
GUIDE
100
AcDbVertex
100
AcDb2dVertex
 10
148.672353
 20
-21.95
 30
0.0
  0
VERTEX
  5
B4E
330
6C5
100
AcDbEntity
  8
GUIDE
100
AcDbVertex
100
AcDb2dVertex
 10
156.672353
 20
-21.95
 30
0.0
  0
VERTEX
  5
B4F
330
6C5
100
AcDbEntity
  8
GUIDE
100
AcDbVertex
100
AcDb2dVertex
 10
156.672353
 20
-21.65
 30
0.0
  0
SEQEND
  5
B4B
330
6C5
100
AcDbEntity
  8
GUIDE
  0
POLYLINE
  5
6CB
330
1A
100
AcDbEntity
  8
GUIDE
100
AcDb2dPolyline
 66
     1
 10
0.0
 20
0.0
 30
0.0
 70
     1
  0
VERTEX
  5
B51
330
6CB
100
AcDbEntity
  8
GUIDE
100
AcDbVertex
100
AcDb2dVertex
 10
148.672353
 20
-28.55
 30
0.0
  0
VERTEX
  5
B52
330
6CB
100
AcDbEntity
  8
GUIDE
100
AcDbVertex
100
AcDb2dVertex
 10
148.672353
 20
-37.75
 30
0.0
  0
VERTEX
  5
B53
330
6CB
100
AcDbEntity
  8
GUIDE
100
AcDbVertex
100
AcDb2dVertex
 10
156.672353
 20
-37.75
 30
0.0
  0
VERTEX
  5
B54
330
6CB
100
AcDbEntity
  8
GUIDE
100
AcDbVertex
100
AcDb2dVertex
 10
156.672353
 20
-28.55
 30
0.0
  0
SEQEND
  5
B50
330
6CB
100
AcDbEntity
  8
GUIDE
  0
POLYLINE
  5
6D1
330
1A
100
AcDbEntity
  8
GUIDE
100
AcDb2dPolyline
 66
     1
 10
0.0
 20
0.0
 30
0.0
 70
     1
  0
VERTEX
  5
B56
330
6D1
100
AcDbEntity
  8
GUIDE
100
AcDbVertex
100
AcDb2dVertex
 10
148.672353
 20
-12.45
 30
0.0
  0
VERTEX
  5
B57
330
6D1
100
AcDbEntity
  8
GUIDE
100
AcDbVertex
100
AcDb2dVertex
 10
148.672353
 20
-21.65
 30
0.0
  0
VERTEX
  5
B58
330
6D1
100
AcDbEntity
  8
GUIDE
100
AcDbVertex
100
AcDb2dVertex
 10
156.672353
 20
-21.65
 30
0.0
  0
VERTEX
  5
B59
330
6D1
100
AcDbEntity
  8
GUIDE
100
AcDbVertex
100
AcDb2dVertex
 10
156.672353
 20
-12.45
 30
0.0
  0
SEQEND
  5
B55
330
6D1
100
AcDbEntity
  8
GUIDE
  0
LINE
  5
6D7
330
1A
100
AcDbEntity
  8
GUIDE
100
AcDbLine
 10
142.872353
 20
-74.5
 30
0.0
 11
156.472353
 21
-74.5
 31
0.0
  0
POLYLINE
  5
6D8
330
1A
100
AcDbEntity
  8
GUIDE
100
AcDb2dPolyline
 66
     1
 10
0.0
 20
0.0
 30
0.0
 70
     1
  0
VERTEX
  5
B5B
330
6D8
100
AcDbEntity
  8
GUIDE
100
AcDbVertex
100
AcDb2dVertex
 10
148.672353
 20
-60.75
 30
0.0
  0
VERTEX
  5
B5C
330
6D8
100
AcDbEntity
  8
GUIDE
100
AcDbVertex
100
AcDb2dVertex
 10
148.672353
 20
-69.95
 30
0.0
  0
VERTEX
  5
B5D
330
6D8
100
AcDbEntity
  8
GUIDE
100
AcDbVertex
100
AcDb2dVertex
 10
156.672353
 20
-69.95
 30
0.0
  0
VERTEX
  5
B5E
330
6D8
100
AcDbEntity
  8
GUIDE
100
AcDbVertex
100
AcDb2dVertex
 10
156.672353
 20
-60.75
 30
0.0
  0
SEQEND
  5
B5A
330
6D8
100
AcDbEntity
  8
GUIDE
  0
POLYLINE
  5
6DE
330
1A
100
AcDbEntity
  8
GUIDE
100
AcDb2dPolyline
 66
     1
 10
0.0
 20
0.0
 30
0.0
 70
     1
  0
VERTEX
  5
B60
330
6DE
100
AcDbEntity
  8
GUIDE
100
AcDbVertex
100
AcDb2dVertex
 10
148.672353
 20
-53.85
 30
0.0
  0
VERTEX
  5
B61
330
6DE
100
AcDbEntity
  8
GUIDE
100
AcDbVertex
100
AcDb2dVertex
 10
148.672353
 20
-54.15
 30
0.0
  0
VERTEX
  5
B62
330
6DE
100
AcDbEntity
  8
GUIDE
100
AcDbVertex
100
AcDb2dVertex
 10
156.672353
 20
-54.15
 30
0.0
  0
VERTEX
  5
B63
330
6DE
100
AcDbEntity
  8
GUIDE
100
AcDbVertex
100
AcDb2dVertex
 10
156.672353
 20
-53.85
 30
0.0
  0
SEQEND
  5
B5F
330
6DE
100
AcDbEntity
  8
GUIDE
  0
POLYLINE
  5
6E4
330
1A
100
AcDbEntity
  8
GUIDE
100
AcDb2dPolyline
 66
     1
 10
0.0
 20
0.0
 30
0.0
 70
     1
  0
VERTEX
  5
B65
330
6E4
100
AcDbEntity
  8
GUIDE
100
AcDbVertex
100
AcDb2dVertex
 10
145.872353
 20
-54.15
 30
0.0
  0
VERTEX
  5
B66
330
6E4
100
AcDbEntity
  8
GUIDE
100
AcDbVertex
100
AcDb2dVertex
 10
145.872353
 20
-60.75
 30
0.0
  0
VERTEX
  5
B67
330
6E4
100
AcDbEntity
  8
GUIDE
100
AcDbVertex
100
AcDb2dVertex
 10
159.472353
 20
-60.75
 30
0.0
  0
VERTEX
  5
B68
330
6E4
100
AcDbEntity
  8
GUIDE
100
AcDbVertex
100
AcDb2dVertex
 10
159.472353
 20
-54.15
 30
0.0
  0
SEQEND
  5
B64
330
6E4
100
AcDbEntity
  8
GUIDE
  0
POLYLINE
  5
6EA
330
1A
100
AcDbEntity
  8
GUIDE
100
AcDb2dPolyline
 66
     1
 10
0.0
 20
0.0
 30
0.0
 70
     1
  0
VERTEX
  5
B6A
330
6EA
100
AcDbEntity
  8
GUIDE
100
AcDbVertex
100
AcDb2dVertex
 10
148.672353
 20
-44.65
 30
0.0
  0
VERTEX
  5
B6B
330
6EA
100
AcDbEntity
  8
GUIDE
100
AcDbVertex
100
AcDb2dVertex
 10
148.672353
 20
-53.85
 30
0.0
  0
VERTEX
  5
B6C
330
6EA
100
AcDbEntity
  8
GUIDE
100
AcDbVertex
100
AcDb2dVertex
 10
156.672353
 20
-53.85
 30
0.0
  0
VERTEX
  5
B6D
330
6EA
100
AcDbEntity
  8
GUIDE
100
AcDbVertex
100
AcDb2dVertex
 10
156.672353
 20
-44.65
 30
0.0
  0
SEQEND
  5
B69
330
6EA
100
AcDbEntity
  8
GUIDE
  0
POLYLINE
  5
6F0
330
1A
100
AcDbEntity
  8
GUIDE
100
AcDb2dPolyline
 66
     1
 10
0.0
 20
0.0
 30
0.0
 70
     1
  0
VERTEX
  5
B6F
330
6F0
100
AcDbEntity
  8
GUIDE
100
AcDbVertex
100
AcDb2dVertex
 10
145.872353
 20
-38.05
 30
0.0
  0
VERTEX
  5
B70
330
6F0
100
AcDbEntity
  8
GUIDE
100
AcDbVertex
100
AcDb2dVertex
 10
145.872353
 20
-44.65
 30
0.0
  0
VERTEX
  5
B71
330
6F0
100
AcDbEntity
  8
GUIDE
100
AcDbVertex
100
AcDb2dVertex
 10
159.472353
 20
-44.65
 30
0.0
  0
VERTEX
  5
B72
330
6F0
100
AcDbEntity
  8
GUIDE
100
AcDbVertex
100
AcDb2dVertex
 10
159.472353
 20
-38.05
 30
0.0
  0
SEQEND
  5
B6E
330
6F0
100
AcDbEntity
  8
GUIDE
  0
POLYLINE
  5
6F6
330
1A
100
AcDbEntity
  8
GUIDE
100
AcDb2dPolyline
 66
     1
 10
0.0
 20
0.0
 30
0.0
 70
     1
  0
VERTEX
  5
B74
330
6F6
100
AcDbEntity
  8
GUIDE
100
AcDbVertex
100
AcDb2dVertex
 10
148.672353
 20
-37.75
 30
0.0
  0
VERTEX
  5
B75
330
6F6
100
AcDbEntity
  8
GUIDE
100
AcDbVertex
100
AcDb2dVertex
 10
148.672353
 20
-38.05
 30
0.0
  0
VERTEX
  5
B76
330
6F6
100
AcDbEntity
  8
GUIDE
100
AcDbVertex
100
AcDb2dVertex
 10
156.672353
 20
-38.05
 30
0.0
  0
VERTEX
  5
B77
330
6F6
100
AcDbEntity
  8
GUIDE
100
AcDbVertex
100
AcDb2dVertex
 10
156.672353
 20
-37.75
 30
0.0
  0
SEQEND
  5
B73
330
6F6
100
AcDbEntity
  8
GUIDE
  0
ARC
  5
6FC
330
1A
100
AcDbEntity
  8
GUIDE
100
AcDbCircle
 10
155.232739
 20
-71.466692
 30
0.0
 40
1.240062
100
AcDbArc
 50
358.460834
 51
78.858783
  0
LINE
  5
6FD
330
1A
100
AcDbEntity
  8
GUIDE
100
AcDbLine
 10
156.472353
 20
-71.5
 30
0.0
 11
156.472353
 21
-74.5
 31
0.0
  0
LINE
  5
6FE
330
1A
100
AcDbEntity
  8
GUIDE
100
AcDbLine
 10
156.472353
 20
-0.5
 30
0.0
 11
156.472353
 21
-3.75
 31
0.0
  0
ARC
  5
6FF
330
1A
100
AcDbEntity
  8
GUIDE
100
AcDbCircle
 10
155.472353
 20
-3.75
 30
0.0
 40
1.0
100
AcDbArc
 50
270.0
 51
0.0
  0
LINE
  5
700
330
1A
100
AcDbEntity
  8
GUIDE
100
AcDbLine
 10
155.472353
 20
-4.75
 30
0.0
 11
145.872353
 21
-4.75
 31
0.0
  0
ARC
  5
701
330
1A
100
AcDbEntity
  8
GUIDE
100
AcDbCircle
 10
145.872353
 20
-5.75
 30
0.0
 40
1.0
100
AcDbArc
 50
90.0
 51
180.0
  0
LINE
  5
702
330
1A
100
AcDbEntity
  8
GUIDE
100
AcDbLine
 10
144.872353
 20
-5.75
 30
0.0
 11
144.872353
 21
-69.25
 31
0.0
  0
ARC
  5
703
330
1A
100
AcDbEntity
  8
GUIDE
100
AcDbCircle
 10
145.872353
 20
-69.25
 30
0.0
 40
1.0
100
AcDbArc
 50
180.0
 51
270.0
  0
LINE
  5
704
330
1A
100
AcDbEntity
  8
GUIDE
100
AcDbLine
 10
145.872353
 20
-70.25
 30
0.0
 11
155.472353
 21
-70.25
 31
0.0
  0
POLYLINE
  5
705
330
1A
100
AcDbEntity
  8
GUIDE
100
AcDb2dPolyline
 66
     1
 10
0.0
 20
0.0
 30
0.0
  0
VERTEX
  5
B79
330
705
100
AcDbEntity
  8
GUIDE
100
AcDbVertex
100
AcDb2dVertex
 10
148.672353
 20
-69.15000000000001
 30
0.0
  0
VERTEX
  5
B7A
330
705
100
AcDbEntity
  8
GUIDE
100
AcDbVertex
100
AcDb2dVertex
 10
145.872353
 20
-69.15000000000001
 30
0.0
  0
SEQEND
  5
B78
330
705
100
AcDbEntity
  8
GUIDE
  0
POLYLINE
  5
709
330
1A
100
AcDbEntity
  8
GUIDE
100
AcDb2dPolyline
 66
     1
 10
0.0
 20
0.0
 30
0.0
  0
VERTEX
  5
B7C
330
709
100
AcDbEntity
  8
GUIDE
100
AcDbVertex
100
AcDb2dVertex
 10
145.872353
 20
-69.15000000000001
 30
0.0
  0
VERTEX
  5
B7D
330
709
100
AcDbEntity
  8
GUIDE
100
AcDbVertex
100
AcDb2dVertex
 10
145.872353
 20
-62.55
 30
0.0
  0
VERTEX
  5
B7E
330
709
100
AcDbEntity
  8
GUIDE
100
AcDbVertex
100
AcDb2dVertex
 10
148.672353
 20
-62.55
 30
0.0
  0
SEQEND
  5
B7B
330
709
100
AcDbEntity
  8
GUIDE
  0
POLYLINE
  5
70E
330
1A
100
AcDbEntity
  8
GUIDE
100
AcDb2dPolyline
 66
     1
 10
0.0
 20
0.0
 30
0.0
  0
VERTEX
  5
B80
330
70E
100
AcDbEntity
  8
GUIDE
100
AcDbVertex
100
AcDb2dVertex
 10
156.672353
 20
-62.55
 30
0.0
  0
VERTEX
  5
B81
330
70E
100
AcDbEntity
  8
GUIDE
100
AcDbVertex
100
AcDb2dVertex
 10
159.472353
 20
-62.55
 30
0.0
  0
VERTEX
  5
B82
330
70E
100
AcDbEntity
  8
GUIDE
100
AcDbVertex
100
AcDb2dVertex
 10
159.472353
 20
-69.15000000000001
 30
0.0
  0
VERTEX
  5
B83
330
70E
100
AcDbEntity
  8
GUIDE
100
AcDbVertex
100
AcDb2dVertex
 10
156.672353
 20
-69.15000000000001
 30
0.0
  0
SEQEND
  5
B7F
330
70E
100
AcDbEntity
  8
GUIDE
  0
POLYLINE
  5
714
330
1A
100
AcDbEntity
  8
GUIDE
100
AcDb2dPolyline
 66
     1
 10
0.0
 20
0.0
 30
0.0
  0
VERTEX
  5
B85
330
714
100
AcDbEntity
  8
GUIDE
100
AcDbVertex
100
AcDb2dVertex
 10
148.672353
 20
-53.05
 30
0.0
  0
VERTEX
  5
B86
330
714
100
AcDbEntity
  8
GUIDE
100
AcDbVertex
100
AcDb2dVertex
 10
145.872353
 20
-53.05
 30
0.0
  0
SEQEND
  5
B84
330
714
100
AcDbEntity
  8
GUIDE
  0
POLYLINE
  5
718
330
1A
100
AcDbEntity
  8
GUIDE
100
AcDb2dPolyline
 66
     1
 10
0.0
 20
0.0
 30
0.0
  0
VERTEX
  5
B88
330
718
100
AcDbEntity
  8
GUIDE
100
AcDbVertex
100
AcDb2dVertex
 10
145.872353
 20
-53.05
 30
0.0
  0
VERTEX
  5
B89
330
718
100
AcDbEntity
  8
GUIDE
100
AcDbVertex
100
AcDb2dVertex
 10
145.872353
 20
-46.45
 30
0.0
  0
VERTEX
  5
B8A
330
718
100
AcDbEntity
  8
GUIDE
100
AcDbVertex
100
AcDb2dVertex
 10
148.672353
 20
-46.45
 30
0.0
  0
SEQEND
  5
B87
330
718
100
AcDbEntity
  8
GUIDE
  0
POLYLINE
  5
71D
330
1A
100
AcDbEntity
  8
GUIDE
100
AcDb2dPolyline
 66
     1
 10
0.0
 20
0.0
 30
0.0
  0
VERTEX
  5
B8C
330
71D
100
AcDbEntity
  8
GUIDE
100
AcDbVertex
100
AcDb2dVertex
 10
156.672353
 20
-46.45
 30
0.0
  0
VERTEX
  5
B8D
330
71D
100
AcDbEntity
  8
GUIDE
100
AcDbVertex
100
AcDb2dVertex
 10
159.472353
 20
-46.45
 30
0.0
  0
VERTEX
  5
B8E
330
71D
100
AcDbEntity
  8
GUIDE
100
AcDbVertex
100
AcDb2dVertex
 10
159.472353
 20
-53.05
 30
0.0
  0
VERTEX
  5
B8F
330
71D
100
AcDbEntity
  8
GUIDE
100
AcDbVertex
100
AcDb2dVertex
 10
156.672353
 20
-53.05
 30
0.0
  0
SEQEND
  5
B8B
330
71D
100
AcDbEntity
  8
GUIDE
  0
POLYLINE
  5
723
330
1A
100
AcDbEntity
  8
GUIDE
100
AcDb2dPolyline
 66
     1
 10
0.0
 20
0.0
 30
0.0
  0
VERTEX
  5
B91
330
723
100
AcDbEntity
  8
GUIDE
100
AcDbVertex
100
AcDb2dVertex
 10
148.672353
 20
-36.95
 30
0.0
  0
VERTEX
  5
B92
330
723
100
AcDbEntity
  8
GUIDE
100
AcDbVertex
100
AcDb2dVertex
 10
145.872353
 20
-36.95
 30
0.0
  0
SEQEND
  5
B90
330
723
100
AcDbEntity
  8
GUIDE
  0
POLYLINE
  5
727
330
1A
100
AcDbEntity
  8
GUIDE
100
AcDb2dPolyline
 66
     1
 10
0.0
 20
0.0
 30
0.0
  0
VERTEX
  5
B94
330
727
100
AcDbEntity
  8
GUIDE
100
AcDbVertex
100
AcDb2dVertex
 10
145.872353
 20
-36.95
 30
0.0
  0
VERTEX
  5
B95
330
727
100
AcDbEntity
  8
GUIDE
100
AcDbVertex
100
AcDb2dVertex
 10
145.872353
 20
-30.35
 30
0.0
  0
VERTEX
  5
B96
330
727
100
AcDbEntity
  8
GUIDE
100
AcDbVertex
100
AcDb2dVertex
 10
148.672353
 20
-30.35
 30
0.0
  0
SEQEND
  5
B93
330
727
100
AcDbEntity
  8
GUIDE
  0
POLYLINE
  5
72C
330
1A
100
AcDbEntity
  8
GUIDE
100
AcDb2dPolyline
 66
     1
 10
0.0
 20
0.0
 30
0.0
  0
VERTEX
  5
B98
330
72C
100
AcDbEntity
  8
GUIDE
100
AcDbVertex
100
AcDb2dVertex
 10
156.672353
 20
-30.35
 30
0.0
  0
VERTEX
  5
B99
330
72C
100
AcDbEntity
  8
GUIDE
100
AcDbVertex
100
AcDb2dVertex
 10
159.472353
 20
-30.35
 30
0.0
  0
VERTEX
  5
B9A
330
72C
100
AcDbEntity
  8
GUIDE
100
AcDbVertex
100
AcDb2dVertex
 10
159.472353
 20
-36.95
 30
0.0
  0
VERTEX
  5
B9B
330
72C
100
AcDbEntity
  8
GUIDE
100
AcDbVertex
100
AcDb2dVertex
 10
156.672353
 20
-36.95
 30
0.0
  0
SEQEND
  5
B97
330
72C
100
AcDbEntity
  8
GUIDE
  0
POLYLINE
  5
732
330
1A
100
AcDbEntity
  8
GUIDE
100
AcDb2dPolyline
 66
     1
 10
0.0
 20
0.0
 30
0.0
  0
VERTEX
  5
B9D
330
732
100
AcDbEntity
  8
GUIDE
100
AcDbVertex
100
AcDb2dVertex
 10
148.672353
 20
-20.85
 30
0.0
  0
VERTEX
  5
B9E
330
732
100
AcDbEntity
  8
GUIDE
100
AcDbVertex
100
AcDb2dVertex
 10
145.872353
 20
-20.85
 30
0.0
  0
SEQEND
  5
B9C
330
732
100
AcDbEntity
  8
GUIDE
  0
POLYLINE
  5
736
330
1A
100
AcDbEntity
  8
GUIDE
100
AcDb2dPolyline
 66
     1
 10
0.0
 20
0.0
 30
0.0
  0
VERTEX
  5
BA0
330
736
100
AcDbEntity
  8
GUIDE
100
AcDbVertex
100
AcDb2dVertex
 10
145.872353
 20
-20.85
 30
0.0
  0
VERTEX
  5
BA1
330
736
100
AcDbEntity
  8
GUIDE
100
AcDbVertex
100
AcDb2dVertex
 10
145.872353
 20
-14.25
 30
0.0
  0
VERTEX
  5
BA2
330
736
100
AcDbEntity
  8
GUIDE
100
AcDbVertex
100
AcDb2dVertex
 10
148.672353
 20
-14.25
 30
0.0
  0
SEQEND
  5
B9F
330
736
100
AcDbEntity
  8
GUIDE
  0
POLYLINE
  5
73B
330
1A
100
AcDbEntity
  8
GUIDE
100
AcDb2dPolyline
 66
     1
 10
0.0
 20
0.0
 30
0.0
  0
VERTEX
  5
BA4
330
73B
100
AcDbEntity
  8
GUIDE
100
AcDbVertex
100
AcDb2dVertex
 10
156.672353
 20
-14.25
 30
0.0
  0
VERTEX
  5
BA5
330
73B
100
AcDbEntity
  8
GUIDE
100
AcDbVertex
100
AcDb2dVertex
 10
159.472353
 20
-14.25
 30
0.0
  0
VERTEX
  5
BA6
330
73B
100
AcDbEntity
  8
GUIDE
100
AcDbVertex
100
AcDb2dVertex
 10
159.472353
 20
-20.85
 30
0.0
  0
VERTEX
  5
BA7
330
73B
100
AcDbEntity
  8
GUIDE
100
AcDbVertex
100
AcDb2dVertex
 10
156.672353
 20
-20.85
 30
0.0
  0
SEQEND
  5
BA3
330
73B
100
AcDbEntity
  8
GUIDE
  0
LINE
  5
741
330
1A
100
AcDbEntity
  8
GUIDE
100
AcDbLine
 10
142.872353
 20
-74.5
 30
0.0
 11
129.272353
 21
-74.5
 31
0.0
  0
LINE
  5
742
330
1A
100
AcDbEntity
  8
GUIDE
100
AcDbLine
 10
140.872353
 20
-5.75
 30
0.0
 11
140.872353
 21
-69.25
 31
0.0
  0
POLYLINE
  5
743
330
1A
100
AcDbEntity
  8
GUIDE
100
AcDb2dPolyline
 66
     1
 10
0.0
 20
0.0
 30
0.0
 70
     1
  0
VERTEX
  5
BA9
330
743
100
AcDbEntity
  8
GUIDE
100
AcDbVertex
100
AcDb2dVertex
 10
137.072353
 20
-28.55
 30
0.0
  0
VERTEX
  5
BAA
330
743
100
AcDbEntity
  8
GUIDE
100
AcDbVertex
100
AcDb2dVertex
 10
137.072353
 20
-37.75
 30
0.0
  0
VERTEX
  5
BAB
330
743
100
AcDbEntity
  8
GUIDE
100
AcDbVertex
100
AcDb2dVertex
 10
129.072353
 20
-37.75
 30
0.0
  0
VERTEX
  5
BAC
330
743
100
AcDbEntity
  8
GUIDE
100
AcDbVertex
100
AcDb2dVertex
 10
129.072353
 20
-28.55
 30
0.0
  0
SEQEND
  5
BA8
330
743
100
AcDbEntity
  8
GUIDE
  0
LINE
  5
749
330
1A
100
AcDbEntity
  8
GUIDE
100
AcDbLine
 10
139.872353
 20
-70.25
 30
0.0
 11
130.272353
 21
-70.25
 31
0.0
  0
POLYLINE
  5
74A
330
1A
100
AcDbEntity
  8
GUIDE
100
AcDb2dPolyline
 66
     1
 10
0.0
 20
0.0
 30
0.0
 70
     1
  0
VERTEX
  5
BAE
330
74A
100
AcDbEntity
  8
GUIDE
100
AcDbVertex
100
AcDb2dVertex
 10
137.072353
 20
-37.75
 30
0.0
  0
VERTEX
  5
BAF
330
74A
100
AcDbEntity
  8
GUIDE
100
AcDbVertex
100
AcDb2dVertex
 10
137.072353
 20
-38.05
 30
0.0
  0
VERTEX
  5
BB0
330
74A
100
AcDbEntity
  8
GUIDE
100
AcDbVertex
100
AcDb2dVertex
 10
129.072353
 20
-38.05
 30
0.0
  0
VERTEX
  5
BB1
330
74A
100
AcDbEntity
  8
GUIDE
100
AcDbVertex
100
AcDb2dVertex
 10
129.072353
 20
-37.75
 30
0.0
  0
SEQEND
  5
BAD
330
74A
100
AcDbEntity
  8
GUIDE
  0
POLYLINE
  5
750
330
1A
100
AcDbEntity
  8
GUIDE
100
AcDb2dPolyline
 66
     1
 10
0.0
 20
0.0
 30
0.0
 70
     1
  0
VERTEX
  5
BB3
330
750
100
AcDbEntity
  8
GUIDE
100
AcDbVertex
100
AcDb2dVertex
 10
139.872353
 20
-38.05
 30
0.0
  0
VERTEX
  5
BB4
330
750
100
AcDbEntity
  8
GUIDE
100
AcDbVertex
100
AcDb2dVertex
 10
139.872353
 20
-44.65
 30
0.0
  0
VERTEX
  5
BB5
330
750
100
AcDbEntity
  8
GUIDE
100
AcDbVertex
100
AcDb2dVertex
 10
126.272353
 20
-44.65
 30
0.0
  0
VERTEX
  5
BB6
330
750
100
AcDbEntity
  8
GUIDE
100
AcDbVertex
100
AcDb2dVertex
 10
126.272353
 20
-38.05
 30
0.0
  0
SEQEND
  5
BB2
330
750
100
AcDbEntity
  8
GUIDE
  0
POLYLINE
  5
756
330
1A
100
AcDbEntity
  8
GUIDE
100
AcDb2dPolyline
 66
     1
 10
0.0
 20
0.0
 30
0.0
 70
     1
  0
VERTEX
  5
BB8
330
756
100
AcDbEntity
  8
GUIDE
100
AcDbVertex
100
AcDb2dVertex
 10
137.072353
 20
-44.65
 30
0.0
  0
VERTEX
  5
BB9
330
756
100
AcDbEntity
  8
GUIDE
100
AcDbVertex
100
AcDb2dVertex
 10
137.072353
 20
-53.85
 30
0.0
  0
VERTEX
  5
BBA
330
756
100
AcDbEntity
  8
GUIDE
100
AcDbVertex
100
AcDb2dVertex
 10
129.072353
 20
-53.85
 30
0.0
  0
VERTEX
  5
BBB
330
756
100
AcDbEntity
  8
GUIDE
100
AcDbVertex
100
AcDb2dVertex
 10
129.072353
 20
-44.65
 30
0.0
  0
SEQEND
  5
BB7
330
756
100
AcDbEntity
  8
GUIDE
  0
POLYLINE
  5
75C
330
1A
100
AcDbEntity
  8
GUIDE
100
AcDb2dPolyline
 66
     1
 10
0.0
 20
0.0
 30
0.0
 70
     1
  0
VERTEX
  5
BBD
330
75C
100
AcDbEntity
  8
GUIDE
100
AcDbVertex
100
AcDb2dVertex
 10
139.872353
 20
-54.15
 30
0.0
  0
VERTEX
  5
BBE
330
75C
100
AcDbEntity
  8
GUIDE
100
AcDbVertex
100
AcDb2dVertex
 10
139.872353
 20
-60.75
 30
0.0
  0
VERTEX
  5
BBF
330
75C
100
AcDbEntity
  8
GUIDE
100
AcDbVertex
100
AcDb2dVertex
 10
126.272353
 20
-60.75
 30
0.0
  0
VERTEX
  5
BC0
330
75C
100
AcDbEntity
  8
GUIDE
100
AcDbVertex
100
AcDb2dVertex
 10
126.272353
 20
-54.15
 30
0.0
  0
SEQEND
  5
BBC
330
75C
100
AcDbEntity
  8
GUIDE
  0
POLYLINE
  5
762
330
1A
100
AcDbEntity
  8
GUIDE
100
AcDb2dPolyline
 66
     1
 10
0.0
 20
0.0
 30
0.0
 70
     1
  0
VERTEX
  5
BC2
330
762
100
AcDbEntity
  8
GUIDE
100
AcDbVertex
100
AcDb2dVertex
 10
137.072353
 20
-53.85
 30
0.0
  0
VERTEX
  5
BC3
330
762
100
AcDbEntity
  8
GUIDE
100
AcDbVertex
100
AcDb2dVertex
 10
137.072353
 20
-54.15
 30
0.0
  0
VERTEX
  5
BC4
330
762
100
AcDbEntity
  8
GUIDE
100
AcDbVertex
100
AcDb2dVertex
 10
129.072353
 20
-54.15
 30
0.0
  0
VERTEX
  5
BC5
330
762
100
AcDbEntity
  8
GUIDE
100
AcDbVertex
100
AcDb2dVertex
 10
129.072353
 20
-53.85
 30
0.0
  0
SEQEND
  5
BC1
330
762
100
AcDbEntity
  8
GUIDE
  0
POLYLINE
  5
768
330
1A
100
AcDbEntity
  8
GUIDE
100
AcDb2dPolyline
 66
     1
 10
0.0
 20
0.0
 30
0.0
 70
     1
  0
VERTEX
  5
BC7
330
768
100
AcDbEntity
  8
GUIDE
100
AcDbVertex
100
AcDb2dVertex
 10
137.072353
 20
-60.75
 30
0.0
  0
VERTEX
  5
BC8
330
768
100
AcDbEntity
  8
GUIDE
100
AcDbVertex
100
AcDb2dVertex
 10
137.072353
 20
-69.95
 30
0.0
  0
VERTEX
  5
BC9
330
768
100
AcDbEntity
  8
GUIDE
100
AcDbVertex
100
AcDb2dVertex
 10
129.072353
 20
-69.95
 30
0.0
  0
VERTEX
  5
BCA
330
768
100
AcDbEntity
  8
GUIDE
100
AcDbVertex
100
AcDb2dVertex
 10
129.072353
 20
-60.75
 30
0.0
  0
SEQEND
  5
BC6
330
768
100
AcDbEntity
  8
GUIDE
  0
POLYLINE
  5
76E
330
1A
100
AcDbEntity
  8
GUIDE
100
AcDb2dPolyline
 66
     1
 10
0.0
 20
0.0
 30
0.0
 70
     1
  0
VERTEX
  5
BCC
330
76E
100
AcDbEntity
  8
GUIDE
100
AcDbVertex
100
AcDb2dVertex
 10
135.572353
 20
-70.25
 30
0.0
  0
VERTEX
  5
BCD
330
76E
100
AcDbEntity
  8
GUIDE
100
AcDbVertex
100
AcDb2dVertex
 10
135.572353
 20
-69.95
 30
0.0
  0
VERTEX
  5
BCE
330
76E
100
AcDbEntity
  8
GUIDE
100
AcDbVertex
100
AcDb2dVertex
 10
130.572353
 20
-69.95
 30
0.0
  0
VERTEX
  5
BCF
330
76E
100
AcDbEntity
  8
GUIDE
100
AcDbVertex
100
AcDb2dVertex
 10
130.572353
 20
-70.25
 30
0.0
  0
SEQEND
  5
BCB
330
76E
100
AcDbEntity
  8
GUIDE
  0
POLYLINE
  5
774
330
1A
100
AcDbEntity
  8
GUIDE
100
AcDb2dPolyline
 66
     1
 10
0.0
 20
0.0
 30
0.0
  0
VERTEX
  5
BD1
330
774
100
AcDbEntity
  8
GUIDE
100
AcDbVertex
100
AcDb2dVertex
 10
139.872353
 20
-69.15000000000001
 30
0.0
  0
VERTEX
  5
BD2
330
774
100
AcDbEntity
  8
GUIDE
100
AcDbVertex
100
AcDb2dVertex
 10
139.872353
 20
-62.55
 30
0.0
  0
VERTEX
  5
BD3
330
774
100
AcDbEntity
  8
GUIDE
100
AcDbVertex
100
AcDb2dVertex
 10
137.072353
 20
-62.55
 30
0.0
  0
SEQEND
  5
BD0
330
774
100
AcDbEntity
  8
GUIDE
  0
POLYLINE
  5
779
330
1A
100
AcDbEntity
  8
GUIDE
100
AcDb2dPolyline
 66
     1
 10
0.0
 20
0.0
 30
0.0
  0
VERTEX
  5
BD5
330
779
100
AcDbEntity
  8
GUIDE
100
AcDbVertex
100
AcDb2dVertex
 10
137.072353
 20
-69.15000000000001
 30
0.0
  0
VERTEX
  5
BD6
330
779
100
AcDbEntity
  8
GUIDE
100
AcDbVertex
100
AcDb2dVertex
 10
139.872353
 20
-69.15000000000001
 30
0.0
  0
SEQEND
  5
BD4
330
779
100
AcDbEntity
  8
GUIDE
  0
ARC
  5
77D
330
1A
100
AcDbEntity
  8
GUIDE
100
AcDbCircle
 10
139.872353
 20
-69.25
 30
0.0
 40
1.0
100
AcDbArc
 50
270.0
 51
0.0
  0
POLYLINE
  5
77E
330
1A
100
AcDbEntity
  8
GUIDE
100
AcDb2dPolyline
 66
     1
 10
0.0
 20
0.0
 30
0.0
  0
VERTEX
  5
BD8
330
77E
100
AcDbEntity
  8
GUIDE
100
AcDbVertex
100
AcDb2dVertex
 10
139.872353
 20
-53.05
 30
0.0
  0
VERTEX
  5
BD9
330
77E
100
AcDbEntity
  8
GUIDE
100
AcDbVertex
100
AcDb2dVertex
 10
139.872353
 20
-46.45
 30
0.0
  0
VERTEX
  5
BDA
330
77E
100
AcDbEntity
  8
GUIDE
100
AcDbVertex
100
AcDb2dVertex
 10
137.072353
 20
-46.45
 30
0.0
  0
SEQEND
  5
BD7
330
77E
100
AcDbEntity
  8
GUIDE
  0
POLYLINE
  5
783
330
1A
100
AcDbEntity
  8
GUIDE
100
AcDb2dPolyline
 66
     1
 10
0.0
 20
0.0
 30
0.0
  0
VERTEX
  5
BDC
330
783
100
AcDbEntity
  8
GUIDE
100
AcDbVertex
100
AcDb2dVertex
 10
137.072353
 20
-53.05
 30
0.0
  0
VERTEX
  5
BDD
330
783
100
AcDbEntity
  8
GUIDE
100
AcDbVertex
100
AcDb2dVertex
 10
139.872353
 20
-53.05
 30
0.0
  0
SEQEND
  5
BDB
330
783
100
AcDbEntity
  8
GUIDE
  0
POLYLINE
  5
787
330
1A
100
AcDbEntity
  8
GUIDE
100
AcDb2dPolyline
 66
     1
 10
0.0
 20
0.0
 30
0.0
  0
VERTEX
  5
BDF
330
787
100
AcDbEntity
  8
GUIDE
100
AcDbVertex
100
AcDb2dVertex
 10
129.072353
 20
-62.55
 30
0.0
  0
VERTEX
  5
BE0
330
787
100
AcDbEntity
  8
GUIDE
100
AcDbVertex
100
AcDb2dVertex
 10
126.272353
 20
-62.55
 30
0.0
  0
VERTEX
  5
BE1
330
787
100
AcDbEntity
  8
GUIDE
100
AcDbVertex
100
AcDb2dVertex
 10
126.272353
 20
-69.15000000000001
 30
0.0
  0
VERTEX
  5
BE2
330
787
100
AcDbEntity
  8
GUIDE
100
AcDbVertex
100
AcDb2dVertex
 10
129.072353
 20
-69.15000000000001
 30
0.0
  0
SEQEND
  5
BDE
330
787
100
AcDbEntity
  8
GUIDE
  0
LINE
  5
78D
330
1A
100
AcDbEntity
  8
GUIDE
100
AcDbLine
 10
129.272353
 20
-71.5
 30
0.0
 11
129.272353
 21
-74.5
 31
0.0
  0
ARC
  5
78E
330
1A
100
AcDbEntity
  8
GUIDE
100
AcDbCircle
 10
130.511968
 20
-71.466692
 30
0.0
 40
1.240062
100
AcDbArc
 50
101.141217
 51
181.539166
  0
POLYLINE
  5
78F
330
1A
100
AcDbEntity
  8
GUIDE
100
AcDb2dPolyline
 66
     1
 10
0.0
 20
0.0
 30
0.0
  0
VERTEX
  5
BE4
330
78F
100
AcDbEntity
  8
GUIDE
100
AcDbVertex
100
AcDb2dVertex
 10
129.072353
 20
-46.45
 30
0.0
  0
VERTEX
  5
BE5
330
78F
100
AcDbEntity
  8
GUIDE
100
AcDbVertex
100
AcDb2dVertex
 10
126.272353
 20
-46.45
 30
0.0
  0
VERTEX
  5
BE6
330
78F
100
AcDbEntity
  8
GUIDE
100
AcDbVertex
100
AcDb2dVertex
 10
126.272353
 20
-53.05
 30
0.0
  0
VERTEX
  5
BE7
330
78F
100
AcDbEntity
  8
GUIDE
100
AcDbVertex
100
AcDb2dVertex
 10
129.072353
 20
-53.05
 30
0.0
  0
SEQEND
  5
BE3
330
78F
100
AcDbEntity
  8
GUIDE
  0
LINE
  5
795
330
1A
100
AcDbEntity
  8
GUIDE
100
AcDbLine
 10
130.272353
 20
-4.75
 30
0.0
 11
139.872353
 21
-4.75
 31
0.0
  0
POLYLINE
  5
796
330
1A
100
AcDbEntity
  8
GUIDE
100
AcDb2dPolyline
 66
     1
 10
0.0
 20
0.0
 30
0.0
 70
     1
  0
VERTEX
  5
BE9
330
796
100
AcDbEntity
  8
GUIDE
100
AcDbVertex
100
AcDb2dVertex
 10
137.072353
 20
-12.45
 30
0.0
  0
VERTEX
  5
BEA
330
796
100
AcDbEntity
  8
GUIDE
100
AcDbVertex
100
AcDb2dVertex
 10
137.072353
 20
-21.65
 30
0.0
  0
VERTEX
  5
BEB
330
796
100
AcDbEntity
  8
GUIDE
100
AcDbVertex
100
AcDb2dVertex
 10
129.072353
 20
-21.65
 30
0.0
  0
VERTEX
  5
BEC
330
796
100
AcDbEntity
  8
GUIDE
100
AcDbVertex
100
AcDb2dVertex
 10
129.072353
 20
-12.45
 30
0.0
  0
SEQEND
  5
BE8
330
796
100
AcDbEntity
  8
GUIDE
  0
POLYLINE
  5
79C
330
1A
100
AcDbEntity
  8
GUIDE
100
AcDb2dPolyline
 66
     1
 10
0.0
 20
0.0
 30
0.0
 70
     1
  0
VERTEX
  5
BEE
330
79C
100
AcDbEntity
  8
GUIDE
100
AcDbVertex
100
AcDb2dVertex
 10
137.072353
 20
-21.65
 30
0.0
  0
VERTEX
  5
BEF
330
79C
100
AcDbEntity
  8
GUIDE
100
AcDbVertex
100
AcDb2dVertex
 10
137.072353
 20
-21.95
 30
0.0
  0
VERTEX
  5
BF0
330
79C
100
AcDbEntity
  8
GUIDE
100
AcDbVertex
100
AcDb2dVertex
 10
129.072353
 20
-21.95
 30
0.0
  0
VERTEX
  5
BF1
330
79C
100
AcDbEntity
  8
GUIDE
100
AcDbVertex
100
AcDb2dVertex
 10
129.072353
 20
-21.65
 30
0.0
  0
SEQEND
  5
BED
330
79C
100
AcDbEntity
  8
GUIDE
  0
POLYLINE
  5
7A2
330
1A
100
AcDbEntity
  8
GUIDE
100
AcDb2dPolyline
 66
     1
 10
0.0
 20
0.0
 30
0.0
 70
     1
  0
VERTEX
  5
BF3
330
7A2
100
AcDbEntity
  8
GUIDE
100
AcDbVertex
100
AcDb2dVertex
 10
139.872353
 20
-21.95
 30
0.0
  0
VERTEX
  5
BF4
330
7A2
100
AcDbEntity
  8
GUIDE
100
AcDbVertex
100
AcDb2dVertex
 10
139.872353
 20
-28.55
 30
0.0
  0
VERTEX
  5
BF5
330
7A2
100
AcDbEntity
  8
GUIDE
100
AcDbVertex
100
AcDb2dVertex
 10
126.272353
 20
-28.55
 30
0.0
  0
VERTEX
  5
BF6
330
7A2
100
AcDbEntity
  8
GUIDE
100
AcDbVertex
100
AcDb2dVertex
 10
126.272353
 20
-21.95
 30
0.0
  0
SEQEND
  5
BF2
330
7A2
100
AcDbEntity
  8
GUIDE
  0
POLYLINE
  5
7A8
330
1A
100
AcDbEntity
  8
GUIDE
100
AcDb2dPolyline
 66
     1
 10
0.0
 20
0.0
 30
0.0
 70
     1
  0
VERTEX
  5
BF8
330
7A8
100
AcDbEntity
  8
GUIDE
100
AcDbVertex
100
AcDb2dVertex
 10
137.072353
 20
-5.55
 30
0.0
  0
VERTEX
  5
BF9
330
7A8
100
AcDbEntity
  8
GUIDE
100
AcDbVertex
100
AcDb2dVertex
 10
137.072353
 20
-5.85
 30
0.0
  0
VERTEX
  5
BFA
330
7A8
100
AcDbEntity
  8
GUIDE
100
AcDbVertex
100
AcDb2dVertex
 10
129.072353
 20
-5.85
 30
0.0
  0
VERTEX
  5
BFB
330
7A8
100
AcDbEntity
  8
GUIDE
100
AcDbVertex
100
AcDb2dVertex
 10
129.072353
 20
-5.55
 30
0.0
  0
SEQEND
  5
BF7
330
7A8
100
AcDbEntity
  8
GUIDE
  0
POLYLINE
  5
7AE
330
1A
100
AcDbEntity
  8
GUIDE
100
AcDb2dPolyline
 66
     1
 10
0.0
 20
0.0
 30
0.0
 70
     1
  0
VERTEX
  5
BFD
330
7AE
100
AcDbEntity
  8
GUIDE
100
AcDbVertex
100
AcDb2dVertex
 10
135.572353
 20
-5.55
 30
0.0
  0
VERTEX
  5
BFE
330
7AE
100
AcDbEntity
  8
GUIDE
100
AcDbVertex
100
AcDb2dVertex
 10
135.572353
 20
-4.75
 30
0.0
  0
VERTEX
  5
BFF
330
7AE
100
AcDbEntity
  8
GUIDE
100
AcDbVertex
100
AcDb2dVertex
 10
130.572353
 20
-4.75
 30
0.0
  0
VERTEX
  5
C00
330
7AE
100
AcDbEntity
  8
GUIDE
100
AcDbVertex
100
AcDb2dVertex
 10
130.572353
 20
-5.55
 30
0.0
  0
SEQEND
  5
BFC
330
7AE
100
AcDbEntity
  8
GUIDE
  0
POLYLINE
  5
7B4
330
1A
100
AcDbEntity
  8
GUIDE
100
AcDb2dPolyline
 66
     1
 10
0.0
 20
0.0
 30
0.0
 70
     1
  0
VERTEX
  5
C02
330
7B4
100
AcDbEntity
  8
GUIDE
100
AcDbVertex
100
AcDb2dVertex
 10
139.872353
 20
-5.85
 30
0.0
  0
VERTEX
  5
C03
330
7B4
100
AcDbEntity
  8
GUIDE
100
AcDbVertex
100
AcDb2dVertex
 10
139.872353
 20
-12.45
 30
0.0
  0
VERTEX
  5
C04
330
7B4
100
AcDbEntity
  8
GUIDE
100
AcDbVertex
100
AcDb2dVertex
 10
126.272353
 20
-12.45
 30
0.0
  0
VERTEX
  5
C05
330
7B4
100
AcDbEntity
  8
GUIDE
100
AcDbVertex
100
AcDb2dVertex
 10
126.272353
 20
-5.85
 30
0.0
  0
SEQEND
  5
C01
330
7B4
100
AcDbEntity
  8
GUIDE
  0
POLYLINE
  5
7BA
330
1A
100
AcDbEntity
  8
GUIDE
100
AcDb2dPolyline
 66
     1
 10
0.0
 20
0.0
 30
0.0
  0
VERTEX
  5
C07
330
7BA
100
AcDbEntity
  8
GUIDE
100
AcDbVertex
100
AcDb2dVertex
 10
139.872353
 20
-20.85
 30
0.0
  0
VERTEX
  5
C08
330
7BA
100
AcDbEntity
  8
GUIDE
100
AcDbVertex
100
AcDb2dVertex
 10
139.872353
 20
-14.25
 30
0.0
  0
VERTEX
  5
C09
330
7BA
100
AcDbEntity
  8
GUIDE
100
AcDbVertex
100
AcDb2dVertex
 10
137.072353
 20
-14.25
 30
0.0
  0
SEQEND
  5
C06
330
7BA
100
AcDbEntity
  8
GUIDE
  0
POLYLINE
  5
7BF
330
1A
100
AcDbEntity
  8
GUIDE
100
AcDb2dPolyline
 66
     1
 10
0.0
 20
0.0
 30
0.0
  0
VERTEX
  5
C0B
330
7BF
100
AcDbEntity
  8
GUIDE
100
AcDbVertex
100
AcDb2dVertex
 10
137.072353
 20
-20.85
 30
0.0
  0
VERTEX
  5
C0C
330
7BF
100
AcDbEntity
  8
GUIDE
100
AcDbVertex
100
AcDb2dVertex
 10
139.872353
 20
-20.85
 30
0.0
  0
SEQEND
  5
C0A
330
7BF
100
AcDbEntity
  8
GUIDE
  0
POLYLINE
  5
7C3
330
1A
100
AcDbEntity
  8
GUIDE
100
AcDb2dPolyline
 66
     1
 10
0.0
 20
0.0
 30
0.0
  0
VERTEX
  5
C0E
330
7C3
100
AcDbEntity
  8
GUIDE
100
AcDbVertex
100
AcDb2dVertex
 10
139.872353
 20
-36.95
 30
0.0
  0
VERTEX
  5
C0F
330
7C3
100
AcDbEntity
  8
GUIDE
100
AcDbVertex
100
AcDb2dVertex
 10
139.872353
 20
-30.35
 30
0.0
  0
VERTEX
  5
C10
330
7C3
100
AcDbEntity
  8
GUIDE
100
AcDbVertex
100
AcDb2dVertex
 10
137.072353
 20
-30.35
 30
0.0
  0
SEQEND
  5
C0D
330
7C3
100
AcDbEntity
  8
GUIDE
  0
POLYLINE
  5
7C8
330
1A
100
AcDbEntity
  8
GUIDE
100
AcDb2dPolyline
 66
     1
 10
0.0
 20
0.0
 30
0.0
  0
VERTEX
  5
C12
330
7C8
100
AcDbEntity
  8
GUIDE
100
AcDbVertex
100
AcDb2dVertex
 10
137.072353
 20
-36.95
 30
0.0
  0
VERTEX
  5
C13
330
7C8
100
AcDbEntity
  8
GUIDE
100
AcDbVertex
100
AcDb2dVertex
 10
139.872353
 20
-36.95
 30
0.0
  0
SEQEND
  5
C11
330
7C8
100
AcDbEntity
  8
GUIDE
  0
ARC
  5
7CC
330
1A
100
AcDbEntity
  8
GUIDE
100
AcDbCircle
 10
139.872353
 20
-5.75
 30
0.0
 40
1.0
100
AcDbArc
 50
0.0
 51
90.0
  0
POLYLINE
  5
7CD
330
1A
100
AcDbEntity
  8
GUIDE
100
AcDb2dPolyline
 66
     1
 10
0.0
 20
0.0
 30
0.0
  0
VERTEX
  5
C15
330
7CD
100
AcDbEntity
  8
GUIDE
100
AcDbVertex
100
AcDb2dVertex
 10
129.072353
 20
-14.25
 30
0.0
  0
VERTEX
  5
C16
330
7CD
100
AcDbEntity
  8
GUIDE
100
AcDbVertex
100
AcDb2dVertex
 10
126.272353
 20
-14.25
 30
0.0
  0
VERTEX
  5
C17
330
7CD
100
AcDbEntity
  8
GUIDE
100
AcDbVertex
100
AcDb2dVertex
 10
126.272353
 20
-20.85
 30
0.0
  0
VERTEX
  5
C18
330
7CD
100
AcDbEntity
  8
GUIDE
100
AcDbVertex
100
AcDb2dVertex
 10
129.072353
 20
-20.85
 30
0.0
  0
SEQEND
  5
C14
330
7CD
100
AcDbEntity
  8
GUIDE
  0
POLYLINE
  5
7D3
330
1A
100
AcDbEntity
  8
GUIDE
100
AcDb2dPolyline
 66
     1
 10
0.0
 20
0.0
 30
0.0
  0
VERTEX
  5
C1A
330
7D3
100
AcDbEntity
  8
GUIDE
100
AcDbVertex
100
AcDb2dVertex
 10
129.072353
 20
-30.35
 30
0.0
  0
VERTEX
  5
C1B
330
7D3
100
AcDbEntity
  8
GUIDE
100
AcDbVertex
100
AcDb2dVertex
 10
126.272353
 20
-30.35
 30
0.0
  0
VERTEX
  5
C1C
330
7D3
100
AcDbEntity
  8
GUIDE
100
AcDbVertex
100
AcDb2dVertex
 10
126.272353
 20
-36.95
 30
0.0
  0
VERTEX
  5
C1D
330
7D3
100
AcDbEntity
  8
GUIDE
100
AcDbVertex
100
AcDb2dVertex
 10
129.072353
 20
-36.95
 30
0.0
  0
SEQEND
  5
C19
330
7D3
100
AcDbEntity
  8
GUIDE
  0
LINE
  5
7D9
330
1A
100
AcDbEntity
  8
GUIDE
100
AcDbLine
 10
129.272353
 20
-0.5
 30
0.0
 11
129.272353
 21
-3.75
 31
0.0
  0
ARC
  5
7DA
330
1A
100
AcDbEntity
  8
GUIDE
100
AcDbCircle
 10
130.272353
 20
-3.75
 30
0.0
 40
1.0
100
AcDbArc
 50
180.0
 51
270.0
  0
LINE
  5
7DB
330
1A
100
AcDbEntity
  8
GUIDE
100
AcDbLine
 10
139.194145
 20
51.116828
 30
0.0
 11
137.194145
 21
51.116828
 31
0.0
  0
LINE
  5
7DC
330
1A
100
AcDbEntity
  8
GUIDE
100
AcDbLine
 10
137.194145
 20
51.116828
 30
0.0
 11
137.194145
 21
41.116828
 31
0.0
  0
ARC
  5
7DD
330
1A
100
AcDbEntity
  8
GUIDE
100
AcDbCircle
 10
138.782707
 20
46.116828
 30
0.0
 40
3.5
100
AcDbArc
 50
116.992564
 51
243.007436
  0
LINE
  5
7DE
330
1A
100
AcDbEntity
  8
GUIDE
100
AcDbLine
 10
149.194145
 20
51.116828
 30
0.0
 11
147.194145
 21
51.116828
 31
0.0
  0
LINE
  5
7DF
330
1A
100
AcDbEntity
  8
GUIDE
100
AcDbLine
 10
147.194145
 20
51.116828
 30
0.0
 11
147.194145
 21
41.116828
 31
0.0
  0
LINE
  5
7E0
330
1A
100
AcDbEntity
  8
GUIDE
100
AcDbLine
 10
139.194145
 20
51.116828
 30
0.0
 11
139.194145
 21
41.116828
 31
0.0
  0
LINE
  5
7E1
330
1A
100
AcDbEntity
  8
GUIDE
100
AcDbLine
 10
147.194145
 20
49.116828
 30
0.0
 11
139.194145
 21
49.116828
 31
0.0
  0
ARC
  5
7E2
330
1A
100
AcDbEntity
  8
GUIDE
100
AcDbCircle
 10
141.338219
 20
46.116828
 30
0.0
 40
9.095051
100
AcDbArc
 50
329.741229
 51
30.258771
  0
LINE
  5
7E3
330
1A
100
AcDbEntity
  8
GUIDE
100
AcDbLine
 10
149.194145
 20
51.116828
 30
0.0
 11
149.194145
 21
41.116828
 31
0.0
  0
LINE
  5
7E4
330
1A
100
AcDbEntity
  8
GUIDE
100
AcDbLine
 10
137.194145
 20
41.116828
 30
0.0
 11
137.194145
 21
-0.383172
 31
0.0
  0
LINE
  5
7E5
330
1A
100
AcDbEntity
  8
GUIDE
100
AcDbLine
 10
137.194145
 20
41.116828
 30
0.0
 11
130.594145
 21
-0.383172
 31
0.0
  0
LINE
  5
7E6
330
1A
100
AcDbEntity
  8
GUIDE
100
AcDbLine
 10
147.194145
 20
41.116828
 30
0.0
 11
147.194145
 21
-0.383172
 31
0.0
  0
LINE
  5
7E7
330
1A
100
AcDbEntity
  8
GUIDE
100
AcDbLine
 10
139.194145
 20
41.116828
 30
0.0
 11
139.194145
 21
-0.383172
 31
0.0
  0
LINE
  5
7E8
330
1A
100
AcDbEntity
  8
GUIDE
100
AcDbLine
 10
149.194145
 20
41.116828
 30
0.0
 11
149.194145
 21
-0.383172
 31
0.0
  0
LINE
  5
7E9
330
1A
100
AcDbEntity
  8
GUIDE
100
AcDbLine
 10
149.194145
 20
41.116828
 30
0.0
 11
155.794145
 21
-0.383172
 31
0.0
  0
LINE
  5
7EA
330
1A
100
AcDbEntity
  8
GUIDE
100
AcDbLine
 10
129.272353
 20
-0.5
 30
0.0
 11
156.472353
 21
-0.5
 31
0.0
  0
ENDSEC
  0
SECTION
  2
OBJECTS
  0
DICTIONARY
  5
C
330
0
100
AcDbDictionary
  3
ACAD_GROUP
350
D
  3
ACAD_LAYOUT
350
7EC
  3
ACAD_MLINESTYLE
350
E
1001
ACAD
1000
TREAT_AS_HARD
1070
     0
  0
DICTIONARY
  5
C1E
330
7EB
100
AcDbDictionary
  3
ACAD_XREC_ROUNDTRIP
360
C1F
  0
DICTIONARY
  5
D
102
{ACAD_REACTORS
330
C
102
}
330
C
100
AcDbDictionary
1001
ACAD
1000
TREAT_AS_HARD
1070
     0
  0
DICTIONARY
  5
7EC
102
{ACAD_REACTORS
330
C
102
}
330
C
100
AcDbDictionary
1001
ACAD
1000
TREAT_AS_HARD
1070
     0
  0
DICTIONARY
  5
E
102
{ACAD_REACTORS
330
C
102
}
330
C
100
AcDbDictionary
  3
STANDARD
350
13
1001
ACAD
1000
TREAT_AS_HARD
1070
     0
  0
XRECORD
  5
C1F
102
{ACAD_REACTORS
330
C1E
102
}
330
C1E
100
AcDbXrecord
102
UCS
 74
     0
 71
     1
 10
0.0
 20
0.0
 30
0.0
 10
1.0
 20
0.0
 30
0.0
 10
0.0
 20
1.0
 30
0.0
146
0.0
 79
     0
102
VIEW
281
     0
  0
MLINESTYLE
  5
13
102
{ACAD_REACTORS
330
E
102
}
330
E
100
AcDbMlineStyle
  2
STANDARD
 70
     0
  3

 62
     0
 51
90.0
 52
90.0
 71
     2
 49
0.5
 62
   256
  6
BYLAYER
 49
-0.5
 62
   256
  6
BYLAYER
  0
ENDSEC
  0
EOF
