  0
SECTION
  2
HEADER
  9
$ACADVER
  1
AC1012
  9
$DWGCODEPAGE
  3
ansi_1252
  9
$INSBASE
 10
0.0
 20
0.0
 30
0.0
  9
$EXTMIN
 10
-302.155895
 20
-48.737586
 30
0.0
  9
$EXTMAX
 10
53.308457
 20
87.59113000000001
 30
0.0
  9
$LIMMIN
 10
0.0
 20
0.0
  9
$LIMMAX
 10
12.0
 20
9.0
  9
$ORTHOMODE
 70
     1
  9
$REGENMODE
 70
     1
  9
$FILLMODE
 70
     1
  9
$QTEXTMODE
 70
     0
  9
$MIRRTEXT
 70
     1
  9
$DRAGMODE
 70
     2
  9
$LTSCALE
 40
1.0
  9
$OSMODE
 70
    37
  9
$ATTMODE
 70
     1
  9
$TEXTSIZE
 40
0.2
  9
$TRACEWID
 40
0.05
  9
$TEXTSTYLE
  7
STANDARD
  9
$CLAYER
  8
0
  9
$CELTYPE
  6
BYLAYER
  9
$CECOLOR
 62
   256
  9
$CELTSCALE
 40
1.0
  9
$DELOBJ
 70
     1
  9
$DISPSILH
 70
     0
  9
$DIMSCALE
 40
1.0
  9
$DIMASZ
 40
0.18
  9
$DIMEXO
 40
0.0625
  9
$DIMDLI
 40
0.38
  9
$DIMRND
 40
0.0
  9
$DIMDLE
 40
0.0
  9
$DIMEXE
 40
0.18
  9
$DIMTP
 40
0.0
  9
$DIMTM
 40
0.0
  9
$DIMTXT
 40
0.18
  9
$DIMCEN
 40
0.09
  9
$DIMTSZ
 40
0.0
  9
$DIMTOL
 70
     0
  9
$DIMLIM
 70
     0
  9
$DIMTIH
 70
     1
  9
$DIMTOH
 70
     1
  9
$DIMSE1
 70
     0
  9
$DIMSE2
 70
     0
  9
$DIMTAD
 70
     0
  9
$DIMZIN
 70
     0
  9
$DIMBLK
  1

  9
$DIMASO
 70
     1
  9
$DIMSHO
 70
     1
  9
$DIMPOST
  1

  9
$DIMAPOST
  1

  9
$DIMALT
 70
     0
  9
$DIMALTD
 70
     2
  9
$DIMALTF
 40
25.4
  9
$DIMLFAC
 40
1.0
  9
$DIMTOFL
 70
     0
  9
$DIMTVP
 40
0.0
  9
$DIMTIX
 70
     0
  9
$DIMSOXD
 70
     0
  9
$DIMSAH
 70
     0
  9
$DIMBLK1
  1

  9
$DIMBLK2
  1

  9
$DIMSTYLE
  2
STANDARD
  9
$DIMCLRD
 70
     0
  9
$DIMCLRE
 70
     0
  9
$DIMCLRT
 70
     0
  9
$DIMTFAC
 40
1.0
  9
$DIMGAP
 40
0.09
  9
$DIMJUST
 70
     0
  9
$DIMSD1
 70
     0
  9
$DIMSD2
 70
     0
  9
$DIMTOLJ
 70
     1
  9
$DIMTZIN
 70
     0
  9
$DIMALTZ
 70
     0
  9
$DIMALTTZ
 70
     0
  9
$DIMFIT
 70
     3
  9
$DIMUPT
 70
     0
  9
$DIMUNIT
 70
     2
  9
$DIMDEC
 70
     4
  9
$DIMTDEC
 70
     4
  9
$DIMALTU
 70
     2
  9
$DIMALTTD
 70
     2
  9
$DIMTXSTY
  7
STANDARD
  9
$DIMAUNIT
 70
     0
  9
$LUNITS
 70
     2
  9
$LUPREC
 70
     4
  9
$SKETCHINC
 40
0.1
  9
$FILLETRAD
 40
0.0
  9
$AUNITS
 70
     0
  9
$AUPREC
 70
     0
  9
$MENU
  1
acad
  9
$ELEVATION
 40
0.0
  9
$PELEVATION
 40
0.0
  9
$THICKNESS
 40
0.0
  9
$LIMCHECK
 70
     0
  9
$CHAMFERA
 40
0.0
  9
$CHAMFERB
 40
0.0
  9
$CHAMFERC
 40
0.0
  9
$CHAMFERD
 40
0.0
  9
$SKPOLY
 70
     0
  9
$TDCREATE
 40
2447893.083333334
  9
$TDUPDATE
 40
2447893.083333334
  9
$TDINDWG
 40
0.0066921296
  9
$TDUSRTIMER
 40
0.0066921296
  9
$USRTIMER
 70
     1
  9
$ANGBASE
 50
0.0
  9
$ANGDIR
 70
     0
  9
$PDMODE
 70
     0
  9
$PDSIZE
 40
0.0
  9
$PLINEWID
 40
0.0
  9
$COORDS
 70
     1
  9
$SPLFRAME
 70
     0
  9
$SPLINETYPE
 70
     6
  9
$SPLINESEGS
 70
     8
  9
$ATTDIA
 70
     0
  9
$ATTREQ
 70
     1
  9
$HANDLING
 70
     1
  9
$HANDSEED
  5
267
  9
$SURFTAB1
 70
     6
  9
$SURFTAB2
 70
     6
  9
$SURFTYPE
 70
     6
  9
$SURFU
 70
     6
  9
$SURFV
 70
     6
  9
$UCSNAME
  2

  9
$UCSORG
 10
0.0
 20
0.0
 30
0.0
  9
$UCSXDIR
 10
1.0
 20
0.0
 30
0.0
  9
$UCSYDIR
 10
0.0
 20
1.0
 30
0.0
  9
$PUCSNAME
  2

  9
$PUCSORG
 10
0.0
 20
0.0
 30
0.0
  9
$PUCSXDIR
 10
1.0
 20
0.0
 30
0.0
  9
$PUCSYDIR
 10
0.0
 20
1.0
 30
0.0
  9
$USERI1
 70
     0
  9
$USERI2
 70
     0
  9
$USERI3
 70
     0
  9
$USERI4
 70
     0
  9
$USERI5
 70
     0
  9
$USERR1
 40
0.0
  9
$USERR2
 40
0.0
  9
$USERR3
 40
0.0
  9
$USERR4
 40
0.0
  9
$USERR5
 40
0.0
  9
$WORLDVIEW
 70
     1
  9
$SHADEDGE
 70
     3
  9
$SHADEDIF
 70
    70
  9
$TILEMODE
 70
     1
  9
$MAXACTVP
 70
    16
  9
$PINSBASE
 10
0.0
 20
0.0
 30
0.0
  9
$PLIMCHECK
 70
     0
  9
$PEXTMIN
 10
1.000000000000000E+20
 20
1.000000000000000E+20
 30
1.000000000000000E+20
  9
$PEXTMAX
 10
-1.000000000000000E+20
 20
-1.000000000000000E+20
 30
-1.000000000000000E+20
  9
$PLIMMIN
 10
0.0
 20
0.0
  9
$PLIMMAX
 10
12.0
 20
9.0
  9
$UNITMODE
 70
     0
  9
$VISRETAIN
 70
     0
  9
$PLINEGEN
 70
     0
  9
$PSLTSCALE
 70
     1
  9
$TREEDEPTH
 70
  3020
  9
$PICKSTYLE
 70
     1
  9
$CMLSTYLE
  2
STANDARD
  9
$CMLJUST
 70
     0
  9
$CMLSCALE
 40
1.0
  9
$SAVEIMAGES
 70
     1
  0
ENDSEC
  0
SECTION
  2
CLASSES
  0
CLASS
  1
XRECORD
  2
AcDbXrecord
  3
AutoCAD 2000
 90
    32768
280
     0
281
     0
  0
CLASS
  1
LWPOLYLINE
  2
AcDbPolyline
  3
AutoCAD 2000
 90
    32768
280
     0
281
     1
  0
CLASS
  1
HATCH
  2
AcDbHatch
  3
AutoCAD 2000
 90
    32768
280
     0
281
     1
  0
CLASS
  1
ACDBPLACEHOLDER
  2
AcDbPlaceHolder
  3
ObjectDBX Classes
 90
        0
280
     0
281
     0
  0
CLASS
  1
LAYOUT
  2
AcDbLayout
  3
ObjectDBX Classes
 90
        0
280
     0
281
     0
  0
ENDSEC
  0
SECTION
  2
TABLES
  0
TABLE
  2
VPORT
  5
8
330
0
100
AcDbSymbolTable
 70
     1
  0
VPORT
  5
1C4
102
{ACAD_XDICTIONARY
360
265
102
}
330
8
100
AcDbSymbolTableRecord
100
AcDbViewportTableRecord
  2
*ACTIVE
 70
     0
 10
0.0
 20
0.0
 11
1.0
 21
1.0
 12
-121.421134
 22
45.62342
 13
0.0
 23
0.0
 14
1.0
 24
1.0
 15
0.0
 25
0.0
 16
0.0
 26
0.0
 36
1.0
 17
0.0
 27
0.0
 37
0.0
 40
188.722012
 41
1.915354
 42
50.0
 43
0.0
 44
0.0
 50
0.0
 51
0.0
 71
     0
 72
   100
 73
     1
 74
     1
 75
     0
 76
     0
 77
     0
 78
     0
  0
ENDTAB
  0
TABLE
  2
LTYPE
  5
5
330
0
100
AcDbSymbolTable
 70
     2
  0
LTYPE
  5
14
330
5
100
AcDbSymbolTableRecord
100
AcDbLinetypeTableRecord
  2
BYBLOCK
 70
     0
  3

 72
    65
 73
     0
 40
0.0
  0
LTYPE
  5
15
330
5
100
AcDbSymbolTableRecord
100
AcDbLinetypeTableRecord
  2
BYLAYER
 70
     0
  3

 72
    65
 73
     0
 40
0.0
  0
LTYPE
  5
16
330
5
100
AcDbSymbolTableRecord
100
AcDbLinetypeTableRecord
  2
CONTINUOUS
 70
     0
  3
Solid line
 72
    65
 73
     0
 40
0.0
  0
LTYPE
  5
28
330
5
100
AcDbSymbolTableRecord
100
AcDbLinetypeTableRecord
  2
DASHDOT
 70
     0
  3
__ . __ . __ . __ . __ . __ . __ . __ . __ . __
 72
    65
 73
     4
 40
1.0
 49
0.5
 74
     0
 49
-0.25
 74
     0
 49
0.0
 74
     0
 49
-0.25
 74
     0
  0
ENDTAB
  0
TABLE
  2
LAYER
  5
2
330
0
100
AcDbSymbolTable
 70
     3
  0
LAYER
  5
F
330
2
100
AcDbSymbolTableRecord
100
AcDbLayerTableRecord
  2
0
 70
     0
 62
     7
  6
CONTINUOUS
  0
LAYER
  5
29
330
2
100
AcDbSymbolTableRecord
100
AcDbLayerTableRecord
  2
GUIDE
 70
     0
 62
     7
  6
CONTINUOUS
  0
LAYER
  5
2A
330
2
100
AcDbSymbolTableRecord
100
AcDbLayerTableRecord
  2
AXIS
 70
     0
 62
     1
  6
DASHDOT
  0
ENDTAB
  0
TABLE
  2
STYLE
  5
3
330
0
100
AcDbSymbolTable
 70
     1
  0
STYLE
  5
10
330
3
100
AcDbSymbolTableRecord
100
AcDbTextStyleTableRecord
  2
STANDARD
 70
     0
 40
0.0
 41
1.0
 50
0.0
 71
     0
 42
0.2
  3
txt
  4

  0
ENDTAB
  0
TABLE
  2
VIEW
  5
6
330
0
100
AcDbSymbolTable
 70
     0
  0
ENDTAB
  0
TABLE
  2
UCS
  5
7
330
0
100
AcDbSymbolTable
 70
     0
  0
ENDTAB
  0
TABLE
  2
APPID
  5
9
330
0
100
AcDbSymbolTable
 70
     1
  0
APPID
  5
11
330
9
100
AcDbSymbolTableRecord
100
AcDbRegAppTableRecord
  2
ACAD
 70
     0
  0
ENDTAB
  0
TABLE
  2
DIMSTYLE
  5
A
330
0
100
AcDbSymbolTable
 70
     1
  0
DIMSTYLE
105
1D
330
A
100
AcDbSymbolTableRecord
100
AcDbDimStyleTableRecord
  2
STANDARD
 70
     0
  3

  4

  5

  6

  7

 40
1.0
 41
0.18
 42
0.0625
 43
0.38
 44
0.18
 45
0.0
 46
0.0
 47
0.0
 48
0.0
140
0.18
141
0.09
142
0.0
143
25.4
144
1.0
145
0.0
146
1.0
147
0.09
 71
     0
 72
     0
 73
     1
 74
     1
 75
     0
 76
     0
 77
     0
 78
     0
170
     0
171
     2
172
     0
173
     0
174
     0
175
     0
176
     0
177
     0
178
     0
270
     2
271
     4
272
     4
273
     2
274
     2
340
10
275
     0
280
     0
281
     0
282
     0
283
     1
284
     0
285
     0
286
     0
287
     3
288
     0
  0
ENDTAB
  0
TABLE
  2
BLOCK_RECORD
  5
1
330
0
100
AcDbSymbolTable
 70
     0
  0
BLOCK_RECORD
  5
1A
330
1
100
AcDbSymbolTableRecord
100
AcDbBlockTableRecord
  2
*MODEL_SPACE
  0
BLOCK_RECORD
  5
17
330
1
100
AcDbSymbolTableRecord
100
AcDbBlockTableRecord
  2
*PAPER_SPACE
  0
ENDTAB
  0
ENDSEC
  0
SECTION
  2
BLOCKS
  0
BLOCK
  5
1B
330
1A
100
AcDbEntity
  8
0
100
AcDbBlockBegin
  2
*MODEL_SPACE
 70
     0
 71
     0
 10
0.0
 20
0.0
 30
0.0
  3
*MODEL_SPACE
  1

  0
ENDBLK
  5
1C
330
1A
100
AcDbEntity
  8
0
100
AcDbBlockEnd
  0
BLOCK
  5
18
330
17
100
AcDbEntity
 67
     1
  8
0
100
AcDbBlockBegin
  2
*PAPER_SPACE
 70
     0
 71
     0
 10
0.0
 20
0.0
 30
0.0
  3
*PAPER_SPACE
  1

  0
ENDBLK
  5
19
330
17
100
AcDbEntity
 67
     1
  8
0
100
AcDbBlockEnd
  0
ENDSEC
  0
SECTION
  2
ENTITIES
  0
POLYLINE
  5
119
330
1A
100
AcDbEntity
  8
GUIDE
100
AcDb2dPolyline
 66
     1
 10
0.0
 20
0.0
 30
0.0
  0
VERTEX
  5
22B
330
119
100
AcDbEntity
  8
GUIDE
100
AcDbVertex
100
AcDb2dVertex
 10
-255.46099
 20
-37.438372
 30
0.0
  0
VERTEX
  5
22C
330
119
100
AcDbEntity
  8
GUIDE
100
AcDbVertex
100
AcDb2dVertex
 10
-236.386859
 20
-48.405997
 30
0.0
 42
0.131204
  0
VERTEX
  5
22D
330
119
100
AcDbEntity
  8
GUIDE
100
AcDbVertex
100
AcDb2dVertex
 10
-235.389917
 20
-48.672185
 30
0.0
  0
VERTEX
  5
22E
330
119
100
AcDbEntity
  8
GUIDE
100
AcDbVertex
100
AcDb2dVertex
 10
-210.923925
 20
-48.672185
 30
0.0
  0
SEQEND
  5
22A
330
119
100
AcDbEntity
  8
GUIDE
  0
LINE
  5
11F
330
1A
100
AcDbEntity
  8
GUIDE
100
AcDbLine
 10
-210.923925
 20
-20.222185
 30
0.0
 11
-300.923925
 21
-20.222185
 31
0.0
  0
LINE
  5
120
330
1A
100
AcDbEntity
  8
GUIDE
100
AcDbLine
 10
-230.923925
 20
-20.222185
 30
0.0
 11
-230.923925
 21
-48.672185
 31
0.0
  0
LINE
  5
121
330
1A
100
AcDbEntity
  8
GUIDE
100
AcDbLine
 10
-300.923925
 20
-20.222185
 30
0.0
 11
-300.923925
 21
-35.172185
 31
0.0
  0
LINE
  5
122
330
1A
100
AcDbEntity
  8
GUIDE
100
AcDbLine
 10
-298.923925
 20
-37.172185
 30
0.0
 11
-256.457932
 21
-37.172185
 31
0.0
  0
ARC
  5
123
330
1A
100
AcDbEntity
  8
GUIDE
100
AcDbCircle
 10
-298.923925
 20
-35.172185
 30
0.0
 40
2.0
100
AcDbArc
 50
180.0
 51
270.0
  0
ARC
  5
124
330
1A
100
AcDbEntity
  8
GUIDE
100
AcDbCircle
 10
-256.457932
 20
-39.172185
 30
0.0
 40
2.0
100
AcDbArc
 50
60.10109800000001
 51
90.0
  0
ARC
  5
125
330
1A
100
AcDbEntity
  8
GUIDE
100
AcDbCircle
 10
-256.457932
 20
-39.172185
 30
0.0
 40
2.0
100
AcDbArc
 50
60.10109800000001
 51
90.0
  0
ARC
  5
126
330
1A
100
AcDbEntity
  8
GUIDE
100
AcDbCircle
 10
-256.457932
 20
-39.172185
 30
0.0
 40
2.0
100
AcDbArc
 50
60.10109800000001
 51
90.0
  0
LINE
  5
127
330
1A
100
AcDbEntity
  8
GUIDE
100
AcDbLine
 10
-210.923925
 20
-20.222185
 30
0.0
 11
-210.923925
 21
-48.672185
 31
0.0
  0
LINE
  5
128
330
1A
100
AcDbEntity
  8
AXIS
 48
10.0
100
AcDbLine
 10
-200.923925
 20
-6.99166
 30
0.0
 11
-200.923925
 21
-35.768677
 31
0.0
  0
LINE
  5
129
330
1A
100
AcDbEntity
  8
AXIS
 48
10.0
100
AcDbLine
 10
-220.923925
 20
-6.99166
 30
0.0
 11
-220.923925
 21
-35.768677
 31
0.0
  0
LINE
  5
12A
330
1A
100
AcDbEntity
  8
AXIS
 48
10.0
100
AcDbLine
 10
-161.671988
 20
-6.99166
 30
0.0
 11
-161.671988
 21
-35.768677
 31
0.0
  0
POLYLINE
  5
12B
330
1A
100
AcDbEntity
  8
GUIDE
100
AcDb2dPolyline
 66
     1
 10
0.0
 20
0.0
 30
0.0
  0
VERTEX
  5
230
330
12B
100
AcDbEntity
  8
GUIDE
100
AcDbVertex
100
AcDb2dVertex
 10
-107.153259
 20
-37.438372
 30
0.0
  0
VERTEX
  5
231
330
12B
100
AcDbEntity
  8
GUIDE
100
AcDbVertex
100
AcDb2dVertex
 10
-126.22739
 20
-48.405997
 30
0.0
 42
-0.131204
  0
VERTEX
  5
232
330
12B
100
AcDbEntity
  8
GUIDE
100
AcDbVertex
100
AcDb2dVertex
 10
-127.224332
 20
-48.672185
 30
0.0
  0
VERTEX
  5
233
330
12B
100
AcDbEntity
  8
GUIDE
100
AcDbVertex
100
AcDb2dVertex
 10
-151.690325
 20
-48.672185
 30
0.0
  0
SEQEND
  5
22F
330
12B
100
AcDbEntity
  8
GUIDE
  0
LINE
  5
131
330
1A
100
AcDbEntity
  8
GUIDE
100
AcDbLine
 10
-151.690325
 20
-20.222185
 30
0.0
 11
-61.690325
 21
-20.222185
 31
0.0
  0
LINE
  5
132
330
1A
100
AcDbEntity
  8
GUIDE
100
AcDbLine
 10
-63.690325
 20
-37.172185
 30
0.0
 11
-106.156317
 21
-37.172185
 31
0.0
  0
LINE
  5
133
330
1A
100
AcDbEntity
  8
GUIDE
100
AcDbLine
 10
-61.690325
 20
-20.222185
 30
0.0
 11
-61.690325
 21
-35.172185
 31
0.0
  0
ARC
  5
134
330
1A
100
AcDbEntity
  8
GUIDE
100
AcDbCircle
 10
-63.690325
 20
-35.172185
 30
0.0
 40
2.0
100
AcDbArc
 50
270.0
 51
0.0
  0
ARC
  5
135
330
1A
100
AcDbEntity
  8
GUIDE
100
AcDbCircle
 10
-106.247256
 20
-39.172185
 30
0.0
 40
2.0
100
AcDbArc
 50
90.0
 51
119.898902
  0
LINE
  5
136
330
1A
100
AcDbEntity
  8
GUIDE
100
AcDbLine
 10
-151.690325
 20
-20.222185
 30
0.0
 11
-151.690325
 21
-48.672185
 31
0.0
  0
LINE
  5
137
330
1A
100
AcDbEntity
  8
GUIDE
100
AcDbLine
 10
-131.690325
 20
-20.222185
 30
0.0
 11
-131.690325
 21
-48.672185
 31
0.0
  0
POLYLINE
  5
138
330
1A
100
AcDbEntity
  8
GUIDE
100
AcDb2dPolyline
 66
     1
 10
0.0
 20
0.0
 30
0.0
 70
     1
  0
VERTEX
  5
235
330
138
100
AcDbEntity
  8
GUIDE
100
AcDbVertex
100
AcDb2dVertex
 10
-151.690325
 20
-20.222185
 30
0.0
  0
VERTEX
  5
236
330
138
100
AcDbEntity
  8
GUIDE
100
AcDbVertex
100
AcDb2dVertex
 10
-151.690325
 20
-29.222185
 30
0.0
  0
VERTEX
  5
237
330
138
100
AcDbEntity
  8
GUIDE
100
AcDbVertex
100
AcDb2dVertex
 10
-171.690325
 20
-29.222185
 30
0.0
  0
VERTEX
  5
238
330
138
100
AcDbEntity
  8
GUIDE
100
AcDbVertex
100
AcDb2dVertex
 10
-171.690325
 20
-20.222185
 30
0.0
  0
SEQEND
  5
234
330
138
100
AcDbEntity
  8
GUIDE
  0
LINE
  5
13E
330
1A
100
AcDbEntity
  8
GUIDE
100
AcDbLine
 10
-210.923925
 20
-20.222185
 30
0.0
 11
-210.923925
 21
-29.222185
 31
0.0
  0
LINE
  5
13F
330
1A
100
AcDbEntity
  8
GUIDE
100
AcDbLine
 10
-210.923925
 20
-29.222185
 30
0.0
 11
-190.923925
 21
-29.222185
 31
0.0
  0
LINE
  5
140
330
1A
100
AcDbEntity
  8
GUIDE
100
AcDbLine
 10
-190.923925
 20
-29.222185
 30
0.0
 11
-190.923925
 21
-20.222185
 31
0.0
  0
LINE
  5
141
330
1A
100
AcDbEntity
  8
GUIDE
100
AcDbLine
 10
-190.923925
 20
-20.222185
 30
0.0
 11
-210.923925
 21
-20.222185
 31
0.0
  0
LINE
  5
142
330
1A
100
AcDbEntity
  8
GUIDE
100
AcDbLine
 10
-171.690325
 20
-29.222185
 30
0.0
 11
-171.690325
 21
-20.222185
 31
0.0
  0
LINE
  5
143
330
1A
100
AcDbEntity
  8
AXIS
 48
10.0
100
AcDbLine
 10
-141.671988
 20
-6.99166
 30
0.0
 11
-141.671988
 21
-35.768677
 31
0.0
  0
LINE
  5
144
330
1A
100
AcDbEntity
  8
GUIDE
100
AcDbLine
 10
-231.039839
 20
76.645545
 30
0.0
 11
-231.039839
 21
83.645545
 31
0.0
  0
LINE
  5
145
330
1A
100
AcDbEntity
  8
GUIDE
100
AcDbLine
 10
-211.039839
 20
86.645545
 30
0.0
 11
-273.585519
 21
86.645545
 31
0.0
  0
LINE
  5
146
330
1A
100
AcDbEntity
  8
GUIDE
100
AcDbLine
 10
-295.985187
 20
73.645545
 30
0.0
 11
-300.048466
 21
73.645545
 31
0.0
  0
LINE
  5
147
330
1A
100
AcDbEntity
  8
GUIDE
100
AcDbLine
 10
-300.048466
 20
73.645545
 30
0.0
 11
-236.039839
 21
63.645545
 31
0.0
  0
LINE
  5
148
330
1A
100
AcDbEntity
  8
GUIDE
100
AcDbLine
 10
-237.117239
 20
76.645545
 30
0.0
 11
-237.117239
 21
86.645545
 31
0.0
  0
LINE
  5
149
330
1A
100
AcDbEntity
  8
GUIDE
100
AcDbLine
 10
-273.585519
 20
80.645545
 30
0.0
 11
-257.117239
 21
80.645545
 31
0.0
  0
LINE
  5
14A
330
1A
100
AcDbEntity
  8
GUIDE
100
AcDbLine
 10
-257.117239
 20
80.645545
 30
0.0
 11
-257.117239
 21
86.645545
 31
0.0
  0
LINE
  5
14B
330
1A
100
AcDbEntity
  8
GUIDE
100
AcDbLine
 10
-237.117239
 20
76.645545
 30
0.0
 11
-257.117239
 21
80.645545
 31
0.0
  0
ARC
  5
14C
330
1A
100
AcDbEntity
  8
GUIDE
100
AcDbCircle
 10
-273.585519
 20
26.645545
 30
0.0
 40
60.0
100
AcDbArc
 50
90.0
 51
110.536646
  0
ARC
  5
14D
330
1A
100
AcDbEntity
  8
GUIDE
100
AcDbCircle
 10
-291.125839
 20
73.467945
 30
0.0
 40
10.0
100
AcDbArc
 50
110.536646
 51
172.481609
  0
ARC
  5
14E
330
1A
100
AcDbEntity
  8
GUIDE
100
AcDbCircle
 10
-273.585519
 20
26.645545
 30
0.0
 40
54.0
100
AcDbArc
 50
90.0
 51
110.536646
  0
ARC
  5
14F
330
1A
100
AcDbEntity
  8
GUIDE
100
AcDbCircle
 10
-291.125839
 20
73.467945
 30
0.0
 40
4.0
100
AcDbArc
 50
110.536646
 51
166.377726
  0
ARC
  5
150
330
1A
100
AcDbEntity
  8
GUIDE
100
AcDbCircle
 10
-295.985187
 20
74.645545
 30
0.0
 40
1.0
100
AcDbArc
 50
270.0
 51
346.377726
  0
ARC
  5
151
330
1A
100
AcDbEntity
  8
GUIDE
100
AcDbCircle
 10
-300.048466
 20
74.645545
 30
0.0
 40
1.0
100
AcDbArc
 50
172.481609
 51
270.0
  0
LINE
  5
152
330
1A
100
AcDbEntity
  8
AXIS
 48
10.0
100
AcDbLine
 10
-201.039869
 20
57.145545
 30
0.0
 11
-201.039869
 21
83.145545
 31
0.0
  0
LINE
  5
153
330
1A
100
AcDbEntity
  8
AXIS
 48
10.0
100
AcDbLine
 10
-221.039869
 20
57.145545
 30
0.0
 11
-221.039869
 21
83.145545
 31
0.0
  0
LINE
  5
154
330
1A
100
AcDbEntity
  8
GUIDE
100
AcDbLine
 10
-191.039869
 20
76.645545
 30
0.0
 11
-237.117239
 21
76.645545
 31
0.0
  0
LINE
  5
155
330
1A
100
AcDbEntity
  8
GUIDE
100
AcDbLine
 10
-191.039869
 20
63.645545
 30
0.0
 11
-236.039839
 21
63.645545
 31
0.0
  0
LINE
  5
156
330
1A
100
AcDbEntity
  8
GUIDE
100
AcDbLine
 10
-191.039869
 20
63.645545
 30
0.0
 11
-191.039869
 21
76.645545
 31
0.0
  0
LINE
  5
157
330
1A
100
AcDbEntity
  8
GUIDE
100
AcDbLine
 10
-211.039839
 20
83.645545
 30
0.0
 11
-231.039839
 21
83.645545
 31
0.0
  0
LINE
  5
158
330
1A
100
AcDbEntity
  8
GUIDE
100
AcDbLine
 10
-211.039839
 20
83.645545
 30
0.0
 11
-211.039839
 21
86.645545
 31
0.0
  0
LINE
  5
159
330
1A
100
AcDbEntity
  8
GUIDE
100
AcDbLine
 10
-229.648133
 20
79.285805
 30
0.0
 11
-222.630755
 21
81.40168900000001
 31
0.0
  0
LINE
  5
15A
330
1A
100
AcDbEntity
  8
GUIDE
100
AcDbLine
 10
-231.039839
 20
76.645545
 30
0.0
 11
-222.450045
 21
79.853869
 31
0.0
  0
LINE
  5
15B
330
1A
100
AcDbEntity
  8
GUIDE
100
AcDbLine
 10
-219.268889
 20
80.86997100000001
 30
0.0
 11
-218.151339
 21
79.932035
 31
0.0
  0
LINE
  5
15C
330
1A
100
AcDbEntity
  8
GUIDE
100
AcDbLine
 10
-220.347072
 20
79.745231
 30
0.0
 11
-219.10053
 21
78.70646000000001
 31
0.0
  0
ARC
  5
15D
330
1A
100
AcDbEntity
  8
GUIDE
100
AcDbCircle
 10
-221.347906
 20
78.618887
 30
0.0
 40
3.06426
100
AcDbArc
 50
47.275579
 51
114.749315
  0
ARC
  5
15E
330
1A
100
AcDbEntity
  8
GUIDE
100
AcDbCircle
 10
-221.499226
 20
77.85086200000001
 30
0.0
 40
2.217226
100
AcDbArc
 50
58.692074
 51
115.393521
  0
ARC
  5
15F
330
1A
100
AcDbEntity
  8
GUIDE
100
AcDbCircle
 10
-218.625935
 20
79.319247
 30
0.0
 40
0.77508
100
AcDbArc
 50
232.242707
 51
52.242707
  0
ARC
  5
160
330
1A
100
AcDbEntity
  8
GUIDE
100
AcDbCircle
 10
-230.039839
 20
80.205895
 30
0.0
 40
1.0
100
AcDbArc
 50
180.0
 51
293.060743
  0
CIRCLE
  5
161
330
1A
100
AcDbEntity
  8
GUIDE
100
AcDbCircle
 10
-201.039869
 20
70.145545
 30
0.0
 40
2.5
  0
CIRCLE
  5
162
330
1A
100
AcDbEntity
  8
GUIDE
100
AcDbCircle
 10
-221.039869
 20
70.145545
 30
0.0
 40
2.5
  0
POLYLINE
  5
163
330
1A
100
AcDbEntity
  8
GUIDE
100
AcDb2dPolyline
 66
     1
 10
0.0
 20
0.0
 30
0.0
 70
     1
  0
VERTEX
  5
23A
330
163
100
AcDbEntity
  8
GUIDE
100
AcDbVertex
100
AcDb2dVertex
 10
-223.060595
 20
73.645545
 30
0.0
  0
VERTEX
  5
23B
330
163
100
AcDbEntity
  8
GUIDE
100
AcDbVertex
100
AcDb2dVertex
 10
-225.08132
 20
70.145545
 30
0.0
  0
VERTEX
  5
23C
330
163
100
AcDbEntity
  8
GUIDE
100
AcDbVertex
100
AcDb2dVertex
 10
-223.060595
 20
66.645545
 30
0.0
  0
VERTEX
  5
23D
330
163
100
AcDbEntity
  8
GUIDE
100
AcDbVertex
100
AcDb2dVertex
 10
-219.019143
 20
66.645545
 30
0.0
  0
VERTEX
  5
23E
330
163
100
AcDbEntity
  8
GUIDE
100
AcDbVertex
100
AcDb2dVertex
 10
-216.998417
 20
70.145545
 30
0.0
  0
VERTEX
  5
23F
330
163
100
AcDbEntity
  8
GUIDE
100
AcDbVertex
100
AcDb2dVertex
 10
-219.019143
 20
73.645545
 30
0.0
  0
SEQEND
  5
239
330
163
100
AcDbEntity
  8
GUIDE
  0
POLYLINE
  5
16B
330
1A
100
AcDbEntity
  8
GUIDE
100
AcDb2dPolyline
 66
     1
 10
0.0
 20
0.0
 30
0.0
 70
     1
  0
VERTEX
  5
241
330
16B
100
AcDbEntity
  8
GUIDE
100
AcDbVertex
100
AcDb2dVertex
 10
-203.060595
 20
73.645545
 30
0.0
  0
VERTEX
  5
242
330
16B
100
AcDbEntity
  8
GUIDE
100
AcDbVertex
100
AcDb2dVertex
 10
-205.08132
 20
70.145545
 30
0.0
  0
VERTEX
  5
243
330
16B
100
AcDbEntity
  8
GUIDE
100
AcDbVertex
100
AcDb2dVertex
 10
-203.060595
 20
66.645545
 30
0.0
  0
VERTEX
  5
244
330
16B
100
AcDbEntity
  8
GUIDE
100
AcDbVertex
100
AcDb2dVertex
 10
-199.019143
 20
66.645545
 30
0.0
  0
VERTEX
  5
245
330
16B
100
AcDbEntity
  8
GUIDE
100
AcDbVertex
100
AcDb2dVertex
 10
-196.998417
 20
70.145545
 30
0.0
  0
VERTEX
  5
246
330
16B
100
AcDbEntity
  8
GUIDE
100
AcDbVertex
100
AcDb2dVertex
 10
-199.019143
 20
73.645545
 30
0.0
  0
SEQEND
  5
240
330
16B
100
AcDbEntity
  8
GUIDE
  0
LINE
  5
173
330
1A
100
AcDbEntity
  8
AXIS
 48
10.0
100
AcDbLine
 10
-228.545586
 20
70.145545
 30
0.0
 11
-193.503696
 21
70.145545
 31
0.0
  0
LINE
  5
174
330
1A
100
AcDbEntity
  8
GUIDE
100
AcDbLine
 10
-62.797701
 20
73.645545
 30
0.0
 11
-126.806327
 21
63.645545
 31
0.0
  0
ARC
  5
175
330
1A
100
AcDbEntity
  8
GUIDE
100
AcDbCircle
 10
-89.260648
 20
26.645545
 30
0.0
 40
60.0
100
AcDbArc
 50
69.463354
 51
90.0
  0
ARC
  5
176
330
1A
100
AcDbEntity
  8
GUIDE
100
AcDbCircle
 10
-89.260648
 20
26.645545
 30
0.0
 40
54.0
100
AcDbArc
 50
69.463354
 51
90.0
  0
LINE
  5
177
330
1A
100
AcDbEntity
  8
GUIDE
100
AcDbLine
 10
-66.86098
 20
73.645545
 30
0.0
 11
-62.797701
 21
73.645545
 31
0.0
  0
ARC
  5
178
330
1A
100
AcDbEntity
  8
GUIDE
100
AcDbCircle
 10
-71.720327
 20
73.467945
 30
0.0
 40
10.0
100
AcDbArc
 50
7.518391
 51
69.463354
  0
ARC
  5
179
330
1A
100
AcDbEntity
  8
GUIDE
100
AcDbCircle
 10
-62.797701
 20
74.645545
 30
0.0
 40
1.0
100
AcDbArc
 50
270.0
 51
7.518391
  0
ARC
  5
17A
330
1A
100
AcDbEntity
  8
GUIDE
100
AcDbCircle
 10
-71.720327
 20
73.467945
 30
0.0
 40
4.0
100
AcDbArc
 50
13.622274
 51
69.463354
  0
ARC
  5
17B
330
1A
100
AcDbEntity
  8
GUIDE
100
AcDbCircle
 10
-66.86098
 20
74.645545
 30
0.0
 40
1.0
100
AcDbArc
 50
193.622274
 51
270.0
  0
LINE
  5
17C
330
1A
100
AcDbEntity
  8
AXIS
 48
10.0
100
AcDbLine
 10
-141.806298
 20
57.145545
 30
0.0
 11
-141.806298
 21
83.145545
 31
0.0
  0
LINE
  5
17D
330
1A
100
AcDbEntity
  8
AXIS
 48
10.0
100
AcDbLine
 10
-161.806298
 20
57.145545
 30
0.0
 11
-161.806298
 21
83.145545
 31
0.0
  0
POLYLINE
  5
17E
330
1A
100
AcDbEntity
  8
GUIDE
100
AcDb2dPolyline
 66
     1
 10
0.0
 20
0.0
 30
0.0
 70
     1
  0
VERTEX
  5
248
330
17E
100
AcDbEntity
  8
GUIDE
100
AcDbVertex
100
AcDb2dVertex
 10
-159.785572
 20
73.645545
 30
0.0
  0
VERTEX
  5
249
330
17E
100
AcDbEntity
  8
GUIDE
100
AcDbVertex
100
AcDb2dVertex
 10
-157.764846
 20
70.145545
 30
0.0
  0
VERTEX
  5
24A
330
17E
100
AcDbEntity
  8
GUIDE
100
AcDbVertex
100
AcDb2dVertex
 10
-159.785572
 20
66.645545
 30
0.0
  0
VERTEX
  5
24B
330
17E
100
AcDbEntity
  8
GUIDE
100
AcDbVertex
100
AcDb2dVertex
 10
-163.827024
 20
66.645545
 30
0.0
  0
VERTEX
  5
24C
330
17E
100
AcDbEntity
  8
GUIDE
100
AcDbVertex
100
AcDb2dVertex
 10
-165.84775
 20
70.145545
 30
0.0
  0
VERTEX
  5
24D
330
17E
100
AcDbEntity
  8
GUIDE
100
AcDbVertex
100
AcDb2dVertex
 10
-163.827024
 20
73.645545
 30
0.0
  0
SEQEND
  5
247
330
17E
100
AcDbEntity
  8
GUIDE
  0
POLYLINE
  5
186
330
1A
100
AcDbEntity
  8
GUIDE
100
AcDb2dPolyline
 66
     1
 10
0.0
 20
0.0
 30
0.0
 70
     1
  0
VERTEX
  5
24F
330
186
100
AcDbEntity
  8
GUIDE
100
AcDbVertex
100
AcDb2dVertex
 10
-139.785572
 20
73.645545
 30
0.0
  0
VERTEX
  5
250
330
186
100
AcDbEntity
  8
GUIDE
100
AcDbVertex
100
AcDb2dVertex
 10
-137.764846
 20
70.145545
 30
0.0
  0
VERTEX
  5
251
330
186
100
AcDbEntity
  8
GUIDE
100
AcDbVertex
100
AcDb2dVertex
 10
-139.785572
 20
66.645545
 30
0.0
  0
VERTEX
  5
252
330
186
100
AcDbEntity
  8
GUIDE
100
AcDbVertex
100
AcDb2dVertex
 10
-143.827024
 20
66.645545
 30
0.0
  0
VERTEX
  5
253
330
186
100
AcDbEntity
  8
GUIDE
100
AcDbVertex
100
AcDb2dVertex
 10
-145.84775
 20
70.145545
 30
0.0
  0
VERTEX
  5
254
330
186
100
AcDbEntity
  8
GUIDE
100
AcDbVertex
100
AcDb2dVertex
 10
-143.827024
 20
73.645545
 30
0.0
  0
SEQEND
  5
24E
330
186
100
AcDbEntity
  8
GUIDE
  0
LINE
  5
18E
330
1A
100
AcDbEntity
  8
GUIDE
100
AcDbLine
 10
-171.806298
 20
63.645545
 30
0.0
 11
-171.806298
 21
76.645545
 31
0.0
  0
LINE
  5
18F
330
1A
100
AcDbEntity
  8
AXIS
 48
10.0
100
AcDbLine
 10
-134.300581
 20
70.145545
 30
0.0
 11
-169.342471
 21
70.145545
 31
0.0
  0
CIRCLE
  5
190
330
1A
100
AcDbEntity
  8
GUIDE
100
AcDbCircle
 10
-161.806298
 20
70.145545
 30
0.0
 40
2.5
  0
LINE
  5
191
330
1A
100
AcDbEntity
  8
GUIDE
100
AcDbLine
 10
-171.806298
 20
63.645545
 30
0.0
 11
-126.806327
 21
63.645545
 31
0.0
  0
CIRCLE
  5
192
330
1A
100
AcDbEntity
  8
GUIDE
100
AcDbCircle
 10
-141.806298
 20
70.145545
 30
0.0
 40
2.5
  0
LINE
  5
193
330
1A
100
AcDbEntity
  8
GUIDE
100
AcDbLine
 10
-171.806298
 20
76.645545
 30
0.0
 11
-125.728927
 21
76.645545
 31
0.0
  0
LINE
  5
194
330
1A
100
AcDbEntity
  8
GUIDE
100
AcDbLine
 10
-151.806327
 20
86.645545
 30
0.0
 11
-89.260648
 21
86.645545
 31
0.0
  0
LINE
  5
195
330
1A
100
AcDbEntity
  8
GUIDE
100
AcDbLine
 10
-125.728927
 20
76.645545
 30
0.0
 11
-105.728927
 21
80.645545
 31
0.0
  0
LINE
  5
196
330
1A
100
AcDbEntity
  8
GUIDE
100
AcDbLine
 10
-89.260648
 20
80.645545
 30
0.0
 11
-105.728927
 21
80.645545
 31
0.0
  0
LINE
  5
197
330
1A
100
AcDbEntity
  8
GUIDE
100
AcDbLine
 10
-105.728927
 20
80.645545
 30
0.0
 11
-105.728927
 21
86.645545
 31
0.0
  0
LINE
  5
198
330
1A
100
AcDbEntity
  8
GUIDE
100
AcDbLine
 10
-143.577278
 20
80.86997100000001
 30
0.0
 11
-144.694827
 21
79.932035
 31
0.0
  0
LINE
  5
199
330
1A
100
AcDbEntity
  8
GUIDE
100
AcDbLine
 10
-142.499094
 20
79.745231
 30
0.0
 11
-143.745637
 21
78.70646000000001
 31
0.0
  0
LINE
  5
19A
330
1A
100
AcDbEntity
  8
GUIDE
100
AcDbLine
 10
-151.806327
 20
83.645545
 30
0.0
 11
-131.806327
 21
83.645545
 31
0.0
  0
LINE
  5
19B
330
1A
100
AcDbEntity
  8
GUIDE
100
AcDbLine
 10
-133.198034
 20
79.285805
 30
0.0
 11
-140.215411
 21
81.40168900000001
 31
0.0
  0
LINE
  5
19C
330
1A
100
AcDbEntity
  8
GUIDE
100
AcDbLine
 10
-131.806327
 20
76.645545
 30
0.0
 11
-140.396121
 21
79.853869
 31
0.0
  0
LINE
  5
19D
330
1A
100
AcDbEntity
  8
GUIDE
100
AcDbLine
 10
-131.806327
 20
76.645545
 30
0.0
 11
-131.806327
 21
83.645545
 31
0.0
  0
LINE
  5
19E
330
1A
100
AcDbEntity
  8
GUIDE
100
AcDbLine
 10
-125.728927
 20
76.645545
 30
0.0
 11
-125.728927
 21
86.645545
 31
0.0
  0
ARC
  5
19F
330
1A
100
AcDbEntity
  8
GUIDE
100
AcDbCircle
 10
-132.806327
 20
80.205895
 30
0.0
 40
1.0
100
AcDbArc
 50
246.939257
 51
0.0
  0
ARC
  5
1A0
330
1A
100
AcDbEntity
  8
GUIDE
100
AcDbCircle
 10
-141.49826
 20
78.618887
 30
0.0
 40
3.06426
100
AcDbArc
 50
65.250685
 51
132.724421
  0
ARC
  5
1A1
330
1A
100
AcDbEntity
  8
GUIDE
100
AcDbCircle
 10
-141.346941
 20
77.85086200000001
 30
0.0
 40
2.217226
100
AcDbArc
 50
64.60647899999999
 51
121.307926
  0
ARC
  5
1A2
330
1A
100
AcDbEntity
  8
GUIDE
100
AcDbCircle
 10
-144.220232
 20
79.319247
 30
0.0
 40
0.77508
100
AcDbArc
 50
127.757293
 51
307.757293
  0
LINE
  5
1A3
330
1A
100
AcDbEntity
  8
GUIDE
100
AcDbLine
 10
-151.806327
 20
83.645545
 30
0.0
 11
-151.806327
 21
86.645545
 31
0.0
  0
LINE
  5
1A4
330
1A
100
AcDbEntity
  8
AXIS
 48
10.0
100
AcDbLine
 10
-17.842102
 20
70.145545
 30
0.0
 11
-2.800212
 21
70.145545
 31
0.0
  0
LINE
  5
1A5
330
1A
100
AcDbEntity
  8
GUIDE
100
AcDbLine
 10
-14.907105
 20
63.645545
 30
0.0
 11
-5.907105
 21
63.645545
 31
0.0
  0
LINE
  5
1A6
330
1A
100
AcDbEntity
  8
GUIDE
100
AcDbLine
 10
-5.907105
 20
63.645545
 30
0.0
 11
-5.907105
 21
73.645545
 31
0.0
  0
LINE
  5
1A7
330
1A
100
AcDbEntity
  8
GUIDE
100
AcDbLine
 10
-14.907105
 20
63.645545
 30
0.0
 11
-14.907105
 21
73.645545
 31
0.0
  0
LINE
  5
1A8
330
1A
100
AcDbEntity
  8
GUIDE
100
AcDbLine
 10
2.042895
 20
73.645545
 30
0.0
 11
2.042895
 21
86.645545
 31
0.0
  0
LINE
  5
1A9
330
1A
100
AcDbEntity
  8
GUIDE
100
AcDbLine
 10
12.292895
 20
76.645545
 30
0.0
 11
2.042895
 21
76.645545
 31
0.0
  0
POLYLINE
  5
1AA
330
1A
100
AcDbEntity
  8
GUIDE
100
AcDb2dPolyline
 66
     1
 10
0.0
 20
0.0
 30
0.0
  0
VERTEX
  5
256
330
1AA
100
AcDbEntity
  8
GUIDE
100
AcDbVertex
100
AcDb2dVertex
 10
2.042895
 20
73.645545
 30
0.0
  0
VERTEX
  5
257
330
1AA
100
AcDbEntity
  8
GUIDE
100
AcDbVertex
100
AcDb2dVertex
 10
-14.907105
 20
73.645545
 30
0.0
  0
SEQEND
  5
255
330
1AA
100
AcDbEntity
  8
GUIDE
  0
POLYLINE
  5
1AE
330
1A
100
AcDbEntity
  8
GUIDE
100
AcDb2dPolyline
 66
     1
 10
0.0
 20
0.0
 30
0.0
  0
VERTEX
  5
259
330
1AE
100
AcDbEntity
  8
GUIDE
100
AcDbVertex
100
AcDb2dVertex
 10
-14.907105
 20
73.645545
 30
0.0
  0
VERTEX
  5
25A
330
1AE
100
AcDbEntity
  8
GUIDE
100
AcDbVertex
100
AcDb2dVertex
 10
-14.907105
 20
86.645545
 30
0.0
  0
VERTEX
  5
25B
330
1AE
100
AcDbEntity
  8
GUIDE
100
AcDbVertex
100
AcDb2dVertex
 10
12.292895
 20
86.645545
 30
0.0
  0
VERTEX
  5
25C
330
1AE
100
AcDbEntity
  8
GUIDE
100
AcDbVertex
100
AcDb2dVertex
 10
12.292895
 20
76.645545
 30
0.0
  0
SEQEND
  5
258
330
1AE
100
AcDbEntity
  8
GUIDE
  0
LINE
  5
1B4
330
1A
100
AcDbEntity
  8
GUIDE
100
AcDbLine
 10
50.373459
 20
63.645545
 30
0.0
 11
50.373459
 21
73.645545
 31
0.0
  0
LINE
  5
1B5
330
1A
100
AcDbEntity
  8
GUIDE
100
AcDbLine
 10
41.373459
 20
63.645545
 30
0.0
 11
41.373459
 21
73.645545
 31
0.0
  0
LINE
  5
1B6
330
1A
100
AcDbEntity
  8
AXIS
 48
10.0
100
AcDbLine
 10
53.308457
 20
70.145545
 30
0.0
 11
38.266567
 21
70.145545
 31
0.0
  0
LINE
  5
1B7
330
1A
100
AcDbEntity
  8
GUIDE
100
AcDbLine
 10
50.373459
 20
63.645545
 30
0.0
 11
41.373459
 21
63.645545
 31
0.0
  0
POLYLINE
  5
1B8
330
1A
100
AcDbEntity
  8
GUIDE
100
AcDb2dPolyline
 66
     1
 10
0.0
 20
0.0
 30
0.0
  0
VERTEX
  5
25E
330
1B8
100
AcDbEntity
  8
GUIDE
100
AcDbVertex
100
AcDb2dVertex
 10
50.373459
 20
73.645545
 30
0.0
  0
VERTEX
  5
25F
330
1B8
100
AcDbEntity
  8
GUIDE
100
AcDbVertex
100
AcDb2dVertex
 10
50.373459
 20
86.645545
 30
0.0
  0
VERTEX
  5
260
330
1B8
100
AcDbEntity
  8
GUIDE
100
AcDbVertex
100
AcDb2dVertex
 10
23.173459
 20
86.645545
 30
0.0
  0
VERTEX
  5
261
330
1B8
100
AcDbEntity
  8
GUIDE
100
AcDbVertex
100
AcDb2dVertex
 10
23.173459
 20
76.645545
 30
0.0
  0
SEQEND
  5
25D
330
1B8
100
AcDbEntity
  8
GUIDE
  0
LINE
  5
1BE
330
1A
100
AcDbEntity
  8
GUIDE
100
AcDbLine
 10
33.423459
 20
73.645545
 30
0.0
 11
33.423459
 21
86.645545
 31
0.0
  0
POLYLINE
  5
1BF
330
1A
100
AcDbEntity
  8
GUIDE
100
AcDb2dPolyline
 66
     1
 10
0.0
 20
0.0
 30
0.0
  0
VERTEX
  5
263
330
1BF
100
AcDbEntity
  8
GUIDE
100
AcDbVertex
100
AcDb2dVertex
 10
33.423459
 20
73.645545
 30
0.0
  0
VERTEX
  5
264
330
1BF
100
AcDbEntity
  8
GUIDE
100
AcDbVertex
100
AcDb2dVertex
 10
50.373459
 20
73.645545
 30
0.0
  0
SEQEND
  5
262
330
1BF
100
AcDbEntity
  8
GUIDE
  0
LINE
  5
1C3
330
1A
100
AcDbEntity
  8
GUIDE
100
AcDbLine
 10
23.173459
 20
76.645545
 30
0.0
 11
33.423459
 21
76.645545
 31
0.0
  0
ENDSEC
  0
SECTION
  2
OBJECTS
  0
DICTIONARY
  5
C
330
0
100
AcDbDictionary
  3
ACAD_GROUP
350
D
  3
ACAD_LAYOUT
350
1C5
  3
ACAD_MLINESTYLE
350
E
1001
ACAD
1000
TREAT_AS_HARD
1070
     0
  0
DICTIONARY
  5
265
330
1C4
100
AcDbDictionary
  3
ACAD_XREC_ROUNDTRIP
360
266
  0
DICTIONARY
  5
D
102
{ACAD_REACTORS
330
C
102
}
330
C
100
AcDbDictionary
1001
ACAD
1000
TREAT_AS_HARD
1070
     0
  0
DICTIONARY
  5
1C5
102
{ACAD_REACTORS
330
C
102
}
330
C
100
AcDbDictionary
1001
ACAD
1000
TREAT_AS_HARD
1070
     0
  0
DICTIONARY
  5
E
102
{ACAD_REACTORS
330
C
102
}
330
C
100
AcDbDictionary
  3
STANDARD
350
13
1001
ACAD
1000
TREAT_AS_HARD
1070
     0
  0
XRECORD
  5
266
102
{ACAD_REACTORS
330
265
102
}
330
265
100
AcDbXrecord
102
UCS
 74
     0
 71
     1
 10
0.0
 20
0.0
 30
0.0
 10
1.0
 20
0.0
 30
0.0
 10
0.0
 20
1.0
 30
0.0
146
0.0
 79
     0
102
VIEW
281
     0
  0
MLINESTYLE
  5
13
102
{ACAD_REACTORS
330
E
102
}
330
E
100
AcDbMlineStyle
  2
STANDARD
 70
     0
  3

 62
     0
 51
90.0
 52
90.0
 71
     2
 49
0.5
 62
   256
  6
BYLAYER
 49
-0.5
 62
   256
  6
BYLAYER
  0
ENDSEC
  0
EOF
