  0
SECTION
  2
HEADER
  9
$ACADVER
  1
AC1012
  9
$DWGCODEPAGE
  3
ansi_1252
  9
$INSBASE
 10
0.0
 20
0.0
 30
0.0
  9
$EXTMIN
 10
-71.038656
 20
-104.656486
 30
0.0
  9
$EXTMAX
 10
148.663347
 20
3.889383
 30
0.0
  9
$LIMMIN
 10
0.0
 20
0.0
  9
$LIMMAX
 10
12.0
 20
9.0
  9
$ORTHOMODE
 70
     1
  9
$REGENMODE
 70
     1
  9
$FILLMODE
 70
     1
  9
$QTEXTMODE
 70
     0
  9
$MIRRTEXT
 70
     1
  9
$DRAGMODE
 70
     2
  9
$LTSCALE
 40
1.0
  9
$OSMODE
 70
    37
  9
$ATTMODE
 70
     1
  9
$TEXTSIZE
 40
0.2
  9
$TRACEWID
 40
0.05
  9
$TEXTSTYLE
  7
STANDARD
  9
$CLAYER
  8
0
  9
$CELTYPE
  6
BYLAYER
  9
$CECOLOR
 62
   256
  9
$CELTSCALE
 40
1.0
  9
$DELOBJ
 70
     1
  9
$DISPSILH
 70
     0
  9
$DIMSCALE
 40
1.0
  9
$DIMASZ
 40
0.18
  9
$DIMEXO
 40
0.0625
  9
$DIMDLI
 40
0.38
  9
$DIMRND
 40
0.0
  9
$DIMDLE
 40
0.0
  9
$DIMEXE
 40
0.18
  9
$DIMTP
 40
0.0
  9
$DIMTM
 40
0.0
  9
$DIMTXT
 40
0.18
  9
$DIMCEN
 40
0.09
  9
$DIMTSZ
 40
0.0
  9
$DIMTOL
 70
     0
  9
$DIMLIM
 70
     0
  9
$DIMTIH
 70
     1
  9
$DIMTOH
 70
     1
  9
$DIMSE1
 70
     0
  9
$DIMSE2
 70
     0
  9
$DIMTAD
 70
     0
  9
$DIMZIN
 70
     0
  9
$DIMBLK
  1

  9
$DIMASO
 70
     1
  9
$DIMSHO
 70
     1
  9
$DIMPOST
  1

  9
$DIMAPOST
  1

  9
$DIMALT
 70
     0
  9
$DIMALTD
 70
     2
  9
$DIMALTF
 40
25.4
  9
$DIMLFAC
 40
1.0
  9
$DIMTOFL
 70
     0
  9
$DIMTVP
 40
0.0
  9
$DIMTIX
 70
     0
  9
$DIMSOXD
 70
     0
  9
$DIMSAH
 70
     0
  9
$DIMBLK1
  1

  9
$DIMBLK2
  1

  9
$DIMSTYLE
  2
STANDARD
  9
$DIMCLRD
 70
     0
  9
$DIMCLRE
 70
     0
  9
$DIMCLRT
 70
     0
  9
$DIMTFAC
 40
1.0
  9
$DIMGAP
 40
0.09
  9
$DIMJUST
 70
     0
  9
$DIMSD1
 70
     0
  9
$DIMSD2
 70
     0
  9
$DIMTOLJ
 70
     1
  9
$DIMTZIN
 70
     0
  9
$DIMALTZ
 70
     0
  9
$DIMALTTZ
 70
     0
  9
$DIMFIT
 70
     3
  9
$DIMUPT
 70
     0
  9
$DIMUNIT
 70
     2
  9
$DIMDEC
 70
     4
  9
$DIMTDEC
 70
     4
  9
$DIMALTU
 70
     2
  9
$DIMALTTD
 70
     2
  9
$DIMTXSTY
  7
STANDARD
  9
$DIMAUNIT
 70
     0
  9
$LUNITS
 70
     2
  9
$LUPREC
 70
     4
  9
$SKETCHINC
 40
0.1
  9
$FILLETRAD
 40
0.0
  9
$AUNITS
 70
     0
  9
$AUPREC
 70
     0
  9
$MENU
  1
acad
  9
$ELEVATION
 40
0.0
  9
$PELEVATION
 40
0.0
  9
$THICKNESS
 40
0.0
  9
$LIMCHECK
 70
     0
  9
$CHAMFERA
 40
0.0
  9
$CHAMFERB
 40
0.0
  9
$CHAMFERC
 40
0.0
  9
$CHAMFERD
 40
0.0
  9
$SKPOLY
 70
     0
  9
$TDCREATE
 40
2447893.083333334
  9
$TDUPDATE
 40
2447893.083333334
  9
$TDINDWG
 40
0.0032732639
  9
$TDUSRTIMER
 40
0.0032732639
  9
$USRTIMER
 70
     1
  9
$ANGBASE
 50
0.0
  9
$ANGDIR
 70
     0
  9
$PDMODE
 70
     0
  9
$PDSIZE
 40
0.0
  9
$PLINEWID
 40
0.0
  9
$COORDS
 70
     1
  9
$SPLFRAME
 70
     0
  9
$SPLINETYPE
 70
     6
  9
$SPLINESEGS
 70
     8
  9
$ATTDIA
 70
     0
  9
$ATTREQ
 70
     1
  9
$HANDLING
 70
     1
  9
$HANDSEED
  5
1EB
  9
$SURFTAB1
 70
     6
  9
$SURFTAB2
 70
     6
  9
$SURFTYPE
 70
     6
  9
$SURFU
 70
     6
  9
$SURFV
 70
     6
  9
$UCSNAME
  2

  9
$UCSORG
 10
0.0
 20
0.0
 30
0.0
  9
$UCSXDIR
 10
1.0
 20
0.0
 30
0.0
  9
$UCSYDIR
 10
0.0
 20
1.0
 30
0.0
  9
$PUCSNAME
  2

  9
$PUCSORG
 10
0.0
 20
0.0
 30
0.0
  9
$PUCSXDIR
 10
1.0
 20
0.0
 30
0.0
  9
$PUCSYDIR
 10
0.0
 20
1.0
 30
0.0
  9
$USERI1
 70
     0
  9
$USERI2
 70
     0
  9
$USERI3
 70
     0
  9
$USERI4
 70
     0
  9
$USERI5
 70
     0
  9
$USERR1
 40
0.0
  9
$USERR2
 40
0.0
  9
$USERR3
 40
0.0
  9
$USERR4
 40
0.0
  9
$USERR5
 40
0.0
  9
$WORLDVIEW
 70
     1
  9
$SHADEDGE
 70
     3
  9
$SHADEDIF
 70
    70
  9
$TILEMODE
 70
     1
  9
$MAXACTVP
 70
    16
  9
$PINSBASE
 10
0.0
 20
0.0
 30
0.0
  9
$PLIMCHECK
 70
     0
  9
$PEXTMIN
 10
1.000000000000000E+20
 20
1.000000000000000E+20
 30
1.000000000000000E+20
  9
$PEXTMAX
 10
-1.000000000000000E+20
 20
-1.000000000000000E+20
 30
-1.000000000000000E+20
  9
$PLIMMIN
 10
0.0
 20
0.0
  9
$PLIMMAX
 10
12.0
 20
9.0
  9
$UNITMODE
 70
     0
  9
$VISRETAIN
 70
     0
  9
$PLINEGEN
 70
     0
  9
$PSLTSCALE
 70
     1
  9
$TREEDEPTH
 70
  3020
  9
$PICKSTYLE
 70
     1
  9
$CMLSTYLE
  2
STANDARD
  9
$CMLJUST
 70
     0
  9
$CMLSCALE
 40
1.0
  9
$SAVEIMAGES
 70
     1
  0
ENDSEC
  0
SECTION
  2
CLASSES
  0
CLASS
  1
XRECORD
  2
AcDbXrecord
  3
AutoCAD 2000
 90
    32768
280
     0
281
     0
  0
CLASS
  1
LWPOLYLINE
  2
AcDbPolyline
  3
AutoCAD 2000
 90
    32768
280
     0
281
     1
  0
CLASS
  1
HATCH
  2
AcDbHatch
  3
AutoCAD 2000
 90
    32768
280
     0
281
     1
  0
CLASS
  1
ACDBPLACEHOLDER
  2
AcDbPlaceHolder
  3
ObjectDBX Classes
 90
        0
280
     0
281
     0
  0
CLASS
  1
LAYOUT
  2
AcDbLayout
  3
ObjectDBX Classes
 90
        0
280
     0
281
     0
  0
ENDSEC
  0
SECTION
  2
TABLES
  0
TABLE
  2
VPORT
  5
8
330
0
100
AcDbSymbolTable
 70
     1
  0
VPORT
  5
142
102
{ACAD_XDICTIONARY
360
1E9
102
}
330
8
100
AcDbSymbolTableRecord
100
AcDbViewportTableRecord
  2
*ACTIVE
 70
     0
 10
0.0
 20
0.0
 11
1.0
 21
1.0
 12
41.178709
 22
-46.545058
 13
0.0
 23
0.0
 14
1.0
 24
1.0
 15
0.0
 25
0.0
 16
0.0
 26
0.0
 36
1.0
 17
0.0
 27
0.0
 37
0.0
 40
116.092054
 41
1.915354
 42
50.0
 43
0.0
 44
0.0
 50
0.0
 51
0.0
 71
     0
 72
   100
 73
     1
 74
     1
 75
     0
 76
     0
 77
     0
 78
     0
  0
ENDTAB
  0
TABLE
  2
LTYPE
  5
5
330
0
100
AcDbSymbolTable
 70
     2
  0
LTYPE
  5
14
330
5
100
AcDbSymbolTableRecord
100
AcDbLinetypeTableRecord
  2
BYBLOCK
 70
     0
  3

 72
    65
 73
     0
 40
0.0
  0
LTYPE
  5
15
330
5
100
AcDbSymbolTableRecord
100
AcDbLinetypeTableRecord
  2
BYLAYER
 70
     0
  3

 72
    65
 73
     0
 40
0.0
  0
LTYPE
  5
16
330
5
100
AcDbSymbolTableRecord
100
AcDbLinetypeTableRecord
  2
CONTINUOUS
 70
     0
  3
Solid line
 72
    65
 73
     0
 40
0.0
  0
LTYPE
  5
28
330
5
100
AcDbSymbolTableRecord
100
AcDbLinetypeTableRecord
  2
DASHDOT
 70
     0
  3
__ . __ . __ . __ . __ . __ . __ . __ . __ . __
 72
    65
 73
     4
 40
1.0
 49
0.5
 74
     0
 49
-0.25
 74
     0
 49
0.0
 74
     0
 49
-0.25
 74
     0
  0
ENDTAB
  0
TABLE
  2
LAYER
  5
2
330
0
100
AcDbSymbolTable
 70
     3
  0
LAYER
  5
F
330
2
100
AcDbSymbolTableRecord
100
AcDbLayerTableRecord
  2
0
 70
     0
 62
     7
  6
CONTINUOUS
  0
LAYER
  5
29
330
2
100
AcDbSymbolTableRecord
100
AcDbLayerTableRecord
  2
GUIDE
 70
     0
 62
     7
  6
CONTINUOUS
  0
LAYER
  5
2A
330
2
100
AcDbSymbolTableRecord
100
AcDbLayerTableRecord
  2
AXIS
 70
     0
 62
     1
  6
DASHDOT
  0
ENDTAB
  0
TABLE
  2
STYLE
  5
3
330
0
100
AcDbSymbolTable
 70
     1
  0
STYLE
  5
10
330
3
100
AcDbSymbolTableRecord
100
AcDbTextStyleTableRecord
  2
STANDARD
 70
     0
 40
0.0
 41
1.0
 50
0.0
 71
     0
 42
0.2
  3
txt
  4

  0
ENDTAB
  0
TABLE
  2
VIEW
  5
6
330
0
100
AcDbSymbolTable
 70
     0
  0
ENDTAB
  0
TABLE
  2
UCS
  5
7
330
0
100
AcDbSymbolTable
 70
     0
  0
ENDTAB
  0
TABLE
  2
APPID
  5
9
330
0
100
AcDbSymbolTable
 70
     1
  0
APPID
  5
11
330
9
100
AcDbSymbolTableRecord
100
AcDbRegAppTableRecord
  2
ACAD
 70
     0
  0
ENDTAB
  0
TABLE
  2
DIMSTYLE
  5
A
330
0
100
AcDbSymbolTable
 70
     1
  0
DIMSTYLE
105
1D
330
A
100
AcDbSymbolTableRecord
100
AcDbDimStyleTableRecord
  2
STANDARD
 70
     0
  3

  4

  5

  6

  7

 40
1.0
 41
0.18
 42
0.0625
 43
0.38
 44
0.18
 45
0.0
 46
0.0
 47
0.0
 48
0.0
140
0.18
141
0.09
142
0.0
143
25.4
144
1.0
145
0.0
146
1.0
147
0.09
 71
     0
 72
     0
 73
     1
 74
     1
 75
     0
 76
     0
 77
     0
 78
     0
170
     0
171
     2
172
     0
173
     0
174
     0
175
     0
176
     0
177
     0
178
     0
270
     2
271
     4
272
     4
273
     2
274
     2
340
10
275
     0
280
     0
281
     0
282
     0
283
     1
284
     0
285
     0
286
     0
287
     3
288
     0
  0
ENDTAB
  0
TABLE
  2
BLOCK_RECORD
  5
1
330
0
100
AcDbSymbolTable
 70
     0
  0
BLOCK_RECORD
  5
1A
330
1
100
AcDbSymbolTableRecord
100
AcDbBlockTableRecord
  2
*MODEL_SPACE
  0
BLOCK_RECORD
  5
17
330
1
100
AcDbSymbolTableRecord
100
AcDbBlockTableRecord
  2
*PAPER_SPACE
  0
ENDTAB
  0
ENDSEC
  0
SECTION
  2
BLOCKS
  0
BLOCK
  5
1B
330
1A
100
AcDbEntity
  8
0
100
AcDbBlockBegin
  2
*MODEL_SPACE
 70
     0
 71
     0
 10
0.0
 20
0.0
 30
0.0
  3
*MODEL_SPACE
  1

  0
ENDBLK
  5
1C
330
1A
100
AcDbEntity
  8
0
100
AcDbBlockEnd
  0
BLOCK
  5
18
330
17
100
AcDbEntity
 67
     1
  8
0
100
AcDbBlockBegin
  2
*PAPER_SPACE
 70
     0
 71
     0
 10
0.0
 20
0.0
 30
0.0
  3
*PAPER_SPACE
  1

  0
ENDBLK
  5
19
330
17
100
AcDbEntity
 67
     1
  8
0
100
AcDbBlockEnd
  0
ENDSEC
  0
SECTION
  2
ENTITIES
  0
LINE
  5
BE
330
1A
100
AcDbEntity
  8
GUIDE
100
AcDbLine
 10
25.0
 20
-68.09108500000001
 30
0.0
 11
0.0
 21
-68.09108500000001
 31
0.0
  0
LINE
  5
BF
330
1A
100
AcDbEntity
  8
GUIDE
100
AcDbLine
 10
25.0
 20
-98.09108500000001
 30
0.0
 11
0.0
 21
-98.09108500000001
 31
0.0
  0
LINE
  5
C0
330
1A
100
AcDbEntity
  8
GUIDE
100
AcDbLine
 10
0.0
 20
-104.591085
 30
0.0
 11
0.0
 21
-61.591085
 31
0.0
  0
POLYLINE
  5
C1
330
1A
100
AcDbEntity
  8
GUIDE
100
AcDb2dPolyline
 66
     1
 10
0.0
 20
0.0
 30
0.0
  0
VERTEX
  5
1AC
330
C1
100
AcDbEntity
  8
GUIDE
100
AcDbVertex
100
AcDb2dVertex
 10
25.0
 20
-68.09108500000001
 30
0.0
  0
VERTEX
  5
1AD
330
C1
100
AcDbEntity
  8
GUIDE
100
AcDbVertex
100
AcDb2dVertex
 10
25.0
 20
-98.09108500000001
 30
0.0
  0
SEQEND
  5
1AB
330
C1
100
AcDbEntity
  8
GUIDE
  0
ARC
  5
C5
330
1A
100
AcDbEntity
  8
GUIDE
100
AcDbCircle
 10
-25.534008
 20
-95.09108500000001
 30
0.0
 40
2.0
100
AcDbArc
 50
60.10109800000001
 51
90.0
  0
LINE
  5
C6
330
1A
100
AcDbEntity
  8
GUIDE
100
AcDbLine
 10
-25.534008
 20
-93.09108500000001
 30
0.0
 11
-68.0
 21
-93.09108500000001
 31
0.0
  0
ARC
  5
C7
330
1A
100
AcDbEntity
  8
GUIDE
100
AcDbCircle
 10
-68.0
 20
-91.09108500000001
 30
0.0
 40
2.0
100
AcDbArc
 50
180.0
 51
270.0
  0
LINE
  5
C8
330
1A
100
AcDbEntity
  8
GUIDE
100
AcDbLine
 10
-70.0
 20
-91.09108500000001
 30
0.0
 11
-70.0
 21
-75.09108500000001
 31
0.0
  0
ARC
  5
C9
330
1A
100
AcDbEntity
  8
GUIDE
100
AcDbCircle
 10
-68.0
 20
-75.09108500000001
 30
0.0
 40
2.0
100
AcDbArc
 50
90.0
 51
180.0
  0
LINE
  5
CA
330
1A
100
AcDbEntity
  8
GUIDE
100
AcDbLine
 10
-68.0
 20
-73.09108500000001
 30
0.0
 11
-25.534008
 21
-73.09108500000001
 31
0.0
  0
ARC
  5
CB
330
1A
100
AcDbEntity
  8
GUIDE
100
AcDbCircle
 10
-25.534008
 20
-71.09108500000001
 30
0.0
 40
2.0
100
AcDbArc
 50
270.0
 51
299.898902
  0
ARC
  5
CC
330
1A
100
AcDbEntity
  8
GUIDE
100
AcDbCircle
 10
-25.534008
 20
-71.09108500000001
 30
0.0
 40
2.0
100
AcDbArc
 50
270.0
 51
299.898902
  0
ARC
  5
CD
330
1A
100
AcDbEntity
  8
GUIDE
100
AcDbCircle
 10
-25.534008
 20
-71.09108500000001
 30
0.0
 40
2.0
100
AcDbArc
 50
270.0
 51
299.898902
  0
POLYLINE
  5
CE
330
1A
100
AcDbEntity
  8
GUIDE
100
AcDb2dPolyline
 66
     1
 10
0.0
 20
0.0
 30
0.0
  0
VERTEX
  5
1AF
330
CE
100
AcDbEntity
  8
GUIDE
100
AcDbVertex
100
AcDb2dVertex
 10
-24.537065
 20
-72.82489800000001
 30
0.0
  0
VERTEX
  5
1B0
330
CE
100
AcDbEntity
  8
GUIDE
100
AcDbVertex
100
AcDb2dVertex
 10
-5.462935
 20
-61.857272
 30
0.0
 42
-0.131204
  0
VERTEX
  5
1B1
330
CE
100
AcDbEntity
  8
GUIDE
100
AcDbVertex
100
AcDb2dVertex
 10
-4.465992
 20
-61.591085
 30
0.0
  0
VERTEX
  5
1B2
330
CE
100
AcDbEntity
  8
GUIDE
100
AcDbVertex
100
AcDb2dVertex
 10
0.0
 20
-61.591085
 30
0.0
  0
SEQEND
  5
1AE
330
CE
100
AcDbEntity
  8
GUIDE
  0
POLYLINE
  5
D4
330
1A
100
AcDbEntity
  8
GUIDE
100
AcDb2dPolyline
 66
     1
 10
0.0
 20
0.0
 30
0.0
  0
VERTEX
  5
1B4
330
D4
100
AcDbEntity
  8
GUIDE
100
AcDbVertex
100
AcDb2dVertex
 10
0.0
 20
-104.591085
 30
0.0
  0
VERTEX
  5
1B5
330
D4
100
AcDbEntity
  8
GUIDE
100
AcDbVertex
100
AcDb2dVertex
 10
-4.465992
 20
-104.591085
 30
0.0
 42
-0.131204
  0
VERTEX
  5
1B6
330
D4
100
AcDbEntity
  8
GUIDE
100
AcDbVertex
100
AcDb2dVertex
 10
-5.462935
 20
-104.324898
 30
0.0
  0
VERTEX
  5
1B7
330
D4
100
AcDbEntity
  8
GUIDE
100
AcDbVertex
100
AcDb2dVertex
 10
-24.537065
 20
-93.357272
 30
0.0
  0
SEQEND
  5
1B3
330
D4
100
AcDbEntity
  8
GUIDE
  0
LINE
  5
DA
330
1A
100
AcDbEntity
  8
GUIDE
100
AcDbLine
 10
47.0
 20
-89.59108500000001
 30
0.0
 11
63.0
 21
-89.59108500000001
 31
0.0
  0
LINE
  5
DB
330
1A
100
AcDbEntity
  8
GUIDE
100
AcDbLine
 10
45.0
 20
-91.59108500000001
 30
0.0
 11
45.0
 21
-91.59108500000001
 31
0.0
  0
LINE
  5
DC
330
1A
100
AcDbEntity
  8
GUIDE
100
AcDbLine
 10
65.0
 20
-91.59108500000001
 30
0.0
 11
65.0
 21
-91.59108500000001
 31
0.0
  0
LINE
  5
DD
330
1A
100
AcDbEntity
  8
GUIDE
100
AcDbLine
 10
45.0
 20
-74.59108500000001
 30
0.0
 11
45.0
 21
-74.59108500000001
 31
0.0
  0
LINE
  5
DE
330
1A
100
AcDbEntity
  8
GUIDE
100
AcDbLine
 10
65.0
 20
-74.59108500000001
 30
0.0
 11
65.0
 21
-74.59108500000001
 31
0.0
  0
LINE
  5
DF
330
1A
100
AcDbEntity
  8
GUIDE
100
AcDbLine
 10
47.0
 20
-76.59108500000001
 30
0.0
 11
63.0
 21
-76.59108500000001
 31
0.0
  0
POLYLINE
  5
E0
330
1A
100
AcDbEntity
  8
GUIDE
100
AcDb2dPolyline
 66
     1
 10
0.0
 20
0.0
 30
0.0
  0
VERTEX
  5
1B9
330
E0
100
AcDbEntity
  8
GUIDE
100
AcDbVertex
100
AcDb2dVertex
 10
45.0
 20
-91.59108500000001
 30
0.0
  0
VERTEX
  5
1BA
330
E0
100
AcDbEntity
  8
GUIDE
100
AcDbVertex
100
AcDb2dVertex
 10
25.0
 20
-91.59108500000001
 30
0.0
  0
SEQEND
  5
1B8
330
E0
100
AcDbEntity
  8
GUIDE
  0
POLYLINE
  5
E4
330
1A
100
AcDbEntity
  8
GUIDE
100
AcDb2dPolyline
 66
     1
 10
0.0
 20
0.0
 30
0.0
  0
VERTEX
  5
1BC
330
E4
100
AcDbEntity
  8
GUIDE
100
AcDbVertex
100
AcDb2dVertex
 10
25.0
 20
-91.59108500000001
 30
0.0
  0
VERTEX
  5
1BD
330
E4
100
AcDbEntity
  8
GUIDE
100
AcDbVertex
100
AcDb2dVertex
 10
25.0
 20
-74.59108500000001
 30
0.0
  0
VERTEX
  5
1BE
330
E4
100
AcDbEntity
  8
GUIDE
100
AcDbVertex
100
AcDb2dVertex
 10
45.0
 20
-74.59108500000001
 30
0.0
  0
SEQEND
  5
1BB
330
E4
100
AcDbEntity
  8
GUIDE
  0
POLYLINE
  5
E9
330
1A
100
AcDbEntity
  8
GUIDE
100
AcDb2dPolyline
 66
     1
 10
0.0
 20
0.0
 30
0.0
  0
VERTEX
  5
1C0
330
E9
100
AcDbEntity
  8
GUIDE
100
AcDbVertex
100
AcDb2dVertex
 10
65.0
 20
-74.59108500000001
 30
0.0
  0
VERTEX
  5
1C1
330
E9
100
AcDbEntity
  8
GUIDE
100
AcDbVertex
100
AcDb2dVertex
 10
73.0
 20
-74.59108500000001
 30
0.0
  0
VERTEX
  5
1C2
330
E9
100
AcDbEntity
  8
GUIDE
100
AcDbVertex
100
AcDb2dVertex
 10
75.0
 20
-76.59108500000001
 30
0.0
  0
VERTEX
  5
1C3
330
E9
100
AcDbEntity
  8
GUIDE
100
AcDbVertex
100
AcDb2dVertex
 10
75.0
 20
-89.59108500000001
 30
0.0
  0
VERTEX
  5
1C4
330
E9
100
AcDbEntity
  8
GUIDE
100
AcDbVertex
100
AcDb2dVertex
 10
73.0
 20
-91.59108500000001
 30
0.0
  0
VERTEX
  5
1C5
330
E9
100
AcDbEntity
  8
GUIDE
100
AcDbVertex
100
AcDb2dVertex
 10
65.0
 20
-91.59108500000001
 30
0.0
  0
SEQEND
  5
1BF
330
E9
100
AcDbEntity
  8
GUIDE
  0
LINE
  5
F1
330
1A
100
AcDbEntity
  8
GUIDE
100
AcDbLine
 10
45.0
 20
-74.59108500000001
 30
0.0
 11
47.0
 21
-76.59108500000001
 31
0.0
  0
LINE
  5
F2
330
1A
100
AcDbEntity
  8
GUIDE
100
AcDbLine
 10
65.0
 20
-74.59108500000001
 30
0.0
 11
63.0
 21
-76.59108500000001
 31
0.0
  0
LINE
  5
F3
330
1A
100
AcDbEntity
  8
GUIDE
100
AcDbLine
 10
65.0
 20
-91.59108500000001
 30
0.0
 11
63.0
 21
-89.59108500000001
 31
0.0
  0
LINE
  5
F4
330
1A
100
AcDbEntity
  8
GUIDE
100
AcDbLine
 10
45.0
 20
-91.59108500000001
 30
0.0
 11
47.0
 21
-89.59108500000001
 31
0.0
  0
LINE
  5
F5
330
1A
100
AcDbEntity
  8
GUIDE
100
AcDbLine
 10
73.0
 20
-74.59108500000001
 30
0.0
 11
73.0
 21
-91.59108500000001
 31
0.0
  0
CIRCLE
  5
F6
330
1A
100
AcDbEntity
  8
GUIDE
100
AcDbCircle
 10
49.0
 20
-83.09108500000001
 30
0.0
 40
3.0
  0
CIRCLE
  5
F7
330
1A
100
AcDbEntity
  8
GUIDE
100
AcDbCircle
 10
65.0
 20
-83.09108500000001
 30
0.0
 40
3.0
  0
POLYLINE
  5
F8
330
1A
100
AcDbEntity
  8
GUIDE
100
AcDb2dPolyline
 66
     1
 10
0.0
 20
0.0
 30
0.0
 70
     1
  0
VERTEX
  5
1C7
330
F8
100
AcDbEntity
  8
GUIDE
100
AcDbVertex
100
AcDb2dVertex
 10
46.690599
 20
-79.09108500000001
 30
0.0
  0
VERTEX
  5
1C8
330
F8
100
AcDbEntity
  8
GUIDE
100
AcDbVertex
100
AcDb2dVertex
 10
44.381198
 20
-83.09108500000001
 30
0.0
  0
VERTEX
  5
1C9
330
F8
100
AcDbEntity
  8
GUIDE
100
AcDbVertex
100
AcDb2dVertex
 10
46.690599
 20
-87.09108500000001
 30
0.0
  0
VERTEX
  5
1CA
330
F8
100
AcDbEntity
  8
GUIDE
100
AcDbVertex
100
AcDb2dVertex
 10
51.309401
 20
-87.09108500000001
 30
0.0
  0
VERTEX
  5
1CB
330
F8
100
AcDbEntity
  8
GUIDE
100
AcDbVertex
100
AcDb2dVertex
 10
53.618802
 20
-83.09108500000001
 30
0.0
  0
VERTEX
  5
1CC
330
F8
100
AcDbEntity
  8
GUIDE
100
AcDbVertex
100
AcDb2dVertex
 10
51.309401
 20
-79.09108500000001
 30
0.0
  0
SEQEND
  5
1C6
330
F8
100
AcDbEntity
  8
GUIDE
  0
POLYLINE
  5
100
330
1A
100
AcDbEntity
  8
GUIDE
100
AcDb2dPolyline
 66
     1
 10
0.0
 20
0.0
 30
0.0
 70
     1
  0
VERTEX
  5
1CE
330
100
100
AcDbEntity
  8
GUIDE
100
AcDbVertex
100
AcDb2dVertex
 10
62.690599
 20
-79.09108500000001
 30
0.0
  0
VERTEX
  5
1CF
330
100
100
AcDbEntity
  8
GUIDE
100
AcDbVertex
100
AcDb2dVertex
 10
60.381198
 20
-83.09108500000001
 30
0.0
  0
VERTEX
  5
1D0
330
100
100
AcDbEntity
  8
GUIDE
100
AcDbVertex
100
AcDb2dVertex
 10
62.690599
 20
-87.09108500000001
 30
0.0
  0
VERTEX
  5
1D1
330
100
100
AcDbEntity
  8
GUIDE
100
AcDbVertex
100
AcDb2dVertex
 10
67.30940099999999
 20
-87.09108500000001
 30
0.0
  0
VERTEX
  5
1D2
330
100
100
AcDbEntity
  8
GUIDE
100
AcDbVertex
100
AcDb2dVertex
 10
69.618802
 20
-83.09108500000001
 30
0.0
  0
VERTEX
  5
1D3
330
100
100
AcDbEntity
  8
GUIDE
100
AcDbVertex
100
AcDb2dVertex
 10
67.30940099999999
 20
-79.09108500000001
 30
0.0
  0
SEQEND
  5
1CD
330
100
100
AcDbEntity
  8
GUIDE
  0
LINE
  5
108
330
1A
100
AcDbEntity
  8
AXIS
 48
5.0
100
AcDbLine
 10
49.0
 20
-90.148523
 30
0.0
 11
49.0
 21
-76.033647
 31
0.0
  0
LINE
  5
109
330
1A
100
AcDbEntity
  8
AXIS
 48
5.0
100
AcDbLine
 10
65.0
 20
-90.148523
 30
0.0
 11
65.0
 21
-76.033647
 31
0.0
  0
LINE
  5
10A
330
1A
100
AcDbEntity
  8
AXIS
 48
5.0
100
AcDbLine
 10
40.224266
 20
-83.09108500000001
 30
0.0
 11
73.36502299999999
 21
-83.09108500000001
 31
0.0
  0
POLYLINE
  5
10B
330
1A
100
AcDbEntity
  8
GUIDE
100
AcDb2dPolyline
 66
     1
 10
0.0
 20
0.0
 30
0.0
 70
     1
  0
VERTEX
  5
1D5
330
10B
100
AcDbEntity
  8
GUIDE
100
AcDbVertex
100
AcDb2dVertex
 10
25.0
 20
-21.5
 30
0.0
  0
VERTEX
  5
1D6
330
10B
100
AcDbEntity
  8
GUIDE
100
AcDbVertex
100
AcDb2dVertex
 10
25.0
 20
-5.5
 30
0.0
  0
VERTEX
  5
1D7
330
10B
100
AcDbEntity
  8
GUIDE
100
AcDbVertex
100
AcDb2dVertex
 10
75.0
 20
-5.5
 30
0.0
  0
VERTEX
  5
1D8
330
10B
100
AcDbEntity
  8
GUIDE
100
AcDbVertex
100
AcDb2dVertex
 10
75.0
 20
-21.5
 30
0.0
  0
SEQEND
  5
1D4
330
10B
100
AcDbEntity
  8
GUIDE
  0
LINE
  5
111
330
1A
100
AcDbEntity
  8
GUIDE
100
AcDbLine
 10
25.0
 20
-4.0
 30
0.0
 11
0.0
 21
-4.0
 31
0.0
  0
LINE
  5
112
330
1A
100
AcDbEntity
  8
GUIDE
100
AcDbLine
 10
0.0
 20
-10.0
 30
0.0
 11
0.0
 21
0.0
 31
0.0
  0
LINE
  5
113
330
1A
100
AcDbEntity
  8
GUIDE
100
AcDbLine
 10
25.0
 20
-23.0
 30
0.0
 11
25.0
 21
-4.0
 31
0.0
  0
LINE
  5
114
330
1A
100
AcDbEntity
  8
GUIDE
100
AcDbLine
 10
0.0
 20
0.0
 30
0.0
 11
-42.46828
 21
0.0
 31
0.0
  0
LINE
  5
115
330
1A
100
AcDbEntity
  8
GUIDE
100
AcDbLine
 10
-6.0
 20
-10.0
 30
0.0
 11
21.99301
 21
-10.0
 31
0.0
  0
LINE
  5
116
330
1A
100
AcDbEntity
  8
GUIDE
100
AcDbLine
 10
-64.867948
 20
-13.0
 30
0.0
 11
-68.931226
 21
-13.0
 31
0.0
  0
LINE
  5
117
330
1A
100
AcDbEntity
  8
GUIDE
100
AcDbLine
 10
-68.931226
 20
-13.0
 30
0.0
 11
25.0
 21
-23.0
 31
0.0
  0
LINE
  5
118
330
1A
100
AcDbEntity
  8
GUIDE
100
AcDbLine
 10
-6.0
 20
-10.0
 30
0.0
 11
-6.0
 21
0.0
 31
0.0
  0
LINE
  5
119
330
1A
100
AcDbEntity
  8
GUIDE
100
AcDbLine
 10
-42.46828
 20
-6.0
 30
0.0
 11
-26.0
 21
-6.0
 31
0.0
  0
LINE
  5
11A
330
1A
100
AcDbEntity
  8
GUIDE
100
AcDbLine
 10
-26.0
 20
-6.0
 30
0.0
 11
-26.0
 21
0.0
 31
0.0
  0
LINE
  5
11B
330
1A
100
AcDbEntity
  8
GUIDE
100
AcDbLine
 10
-6.0
 20
-10.0
 30
0.0
 11
-26.0
 21
-6.0
 31
0.0
  0
ARC
  5
11C
330
1A
100
AcDbEntity
  8
GUIDE
100
AcDbCircle
 10
-42.46828
 20
-60.0
 30
0.0
 40
60.0
100
AcDbArc
 50
90.0
 51
110.536646
  0
ARC
  5
11D
330
1A
100
AcDbEntity
  8
GUIDE
100
AcDbCircle
 10
-60.0086
 20
-13.1776
 30
0.0
 40
10.0
100
AcDbArc
 50
110.536646
 51
172.481609
  0
ARC
  5
11E
330
1A
100
AcDbEntity
  8
GUIDE
100
AcDbCircle
 10
-42.46828
 20
-60.0
 30
0.0
 40
54.0
100
AcDbArc
 50
90.0
 51
110.536646
  0
ARC
  5
11F
330
1A
100
AcDbEntity
  8
GUIDE
100
AcDbCircle
 10
-60.0086
 20
-13.1776
 30
0.0
 40
4.0
100
AcDbArc
 50
110.536646
 51
166.377726
  0
ARC
  5
120
330
1A
100
AcDbEntity
  8
GUIDE
100
AcDbCircle
 10
-64.867948
 20
-12.0
 30
0.0
 40
1.0
100
AcDbArc
 50
270.0
 51
346.377726
  0
ARC
  5
121
330
1A
100
AcDbEntity
  8
GUIDE
100
AcDbCircle
 10
-68.931226
 20
-12.0
 30
0.0
 40
1.0
100
AcDbArc
 50
172.481609
 51
270.0
  0
LINE
  5
122
330
1A
100
AcDbEntity
  8
GUIDE
100
AcDbLine
 10
21.99301
 20
-10.0
 30
0.0
 11
21.99301
 21
-22.679844
 31
0.0
  0
LINE
  5
123
330
1A
100
AcDbEntity
  8
GUIDE
100
AcDbLine
 10
0.0
 20
-7.0
 30
0.0
 11
25.0
 21
-7.0
 31
0.0
  0
LINE
  5
124
330
1A
100
AcDbEntity
  8
GUIDE
100
AcDbLine
 10
21.99301
 20
-10.0
 30
0.0
 11
25.0
 21
-7.0
 31
0.0
  0
LINE
  5
125
330
1A
100
AcDbEntity
  8
GUIDE
100
AcDbLine
 10
16.99301
 20
-10.0
 30
0.0
 11
16.99301
 21
-22.147491
 31
0.0
  0
LINE
  5
126
330
1A
100
AcDbEntity
  8
AXIS
 48
10.0
100
AcDbLine
 10
65.0
 20
-26.5
 30
0.0
 11
65.0
 21
-0.5
 31
0.0
  0
LINE
  5
127
330
1A
100
AcDbEntity
  8
AXIS
 48
10.0
100
AcDbLine
 10
49.0
 20
-26.5
 30
0.0
 11
49.0
 21
-0.5
 31
0.0
  0
LINE
  5
128
330
1A
100
AcDbEntity
  8
GUIDE
100
AcDbLine
 10
137.163347
 20
-13.0
 30
0.0
 11
117.163347
 21
-13.0
 31
0.0
  0
LINE
  5
129
330
1A
100
AcDbEntity
  8
AXIS
 48
10.0
100
AcDbLine
 10
127.163347
 20
-26.743461
 30
0.0
 11
127.163347
 21
3.889383
 31
0.0
  0
LINE
  5
12A
330
1A
100
AcDbEntity
  8
GUIDE
100
AcDbLine
 10
117.163347
 20
-13.0
 30
0.0
 11
117.163347
 21
0.0
 31
0.0
  0
LINE
  5
12B
330
1A
100
AcDbEntity
  8
GUIDE
100
AcDbLine
 10
137.163347
 20
-13.0
 30
0.0
 11
137.163347
 21
0.0
 31
0.0
  0
POLYLINE
  5
12C
330
1A
100
AcDbEntity
  8
GUIDE
100
AcDb2dPolyline
 66
     1
 10
0.0
 20
0.0
 30
0.0
  0
VERTEX
  5
1DA
330
12C
100
AcDbEntity
  8
GUIDE
100
AcDbVertex
100
AcDb2dVertex
 10
117.163347
 20
-10.0
 30
0.0
  0
VERTEX
  5
1DB
330
12C
100
AcDbEntity
  8
GUIDE
100
AcDbVertex
100
AcDb2dVertex
 10
105.663347
 20
-10.0
 30
0.0
  0
SEQEND
  5
1D9
330
12C
100
AcDbEntity
  8
GUIDE
  0
POLYLINE
  5
130
330
1A
100
AcDbEntity
  8
GUIDE
100
AcDb2dPolyline
 66
     1
 10
0.0
 20
0.0
 30
0.0
  0
VERTEX
  5
1DD
330
130
100
AcDbEntity
  8
GUIDE
100
AcDbVertex
100
AcDb2dVertex
 10
105.663347
 20
-10.0
 30
0.0
  0
VERTEX
  5
1DE
330
130
100
AcDbEntity
  8
GUIDE
100
AcDbVertex
100
AcDb2dVertex
 10
105.663347
 20
0.0
 30
0.0
  0
VERTEX
  5
1DF
330
130
100
AcDbEntity
  8
GUIDE
100
AcDbVertex
100
AcDb2dVertex
 10
148.663347
 20
0.0
 30
0.0
  0
VERTEX
  5
1E0
330
130
100
AcDbEntity
  8
GUIDE
100
AcDbVertex
100
AcDb2dVertex
 10
148.663347
 20
-10.0
 30
0.0
  0
VERTEX
  5
1E1
330
130
100
AcDbEntity
  8
GUIDE
100
AcDbVertex
100
AcDb2dVertex
 10
137.163347
 20
-10.0
 30
0.0
  0
SEQEND
  5
1DC
330
130
100
AcDbEntity
  8
GUIDE
  0
POLYLINE
  5
137
330
1A
100
AcDbEntity
  8
GUIDE
100
AcDb2dPolyline
 66
     1
 10
0.0
 20
0.0
 30
0.0
  0
VERTEX
  5
1E3
330
137
100
AcDbEntity
  8
GUIDE
100
AcDbVertex
100
AcDb2dVertex
 10
112.163347
 20
-23.0
 30
0.0
  0
VERTEX
  5
1E4
330
137
100
AcDbEntity
  8
GUIDE
100
AcDbVertex
100
AcDb2dVertex
 10
112.163347
 20
-10.0
 30
0.0
  0
SEQEND
  5
1E2
330
137
100
AcDbEntity
  8
GUIDE
  0
POLYLINE
  5
13B
330
1A
100
AcDbEntity
  8
GUIDE
100
AcDb2dPolyline
 66
     1
 10
0.0
 20
0.0
 30
0.0
  0
VERTEX
  5
1E6
330
13B
100
AcDbEntity
  8
GUIDE
100
AcDbVertex
100
AcDb2dVertex
 10
142.163347
 20
-10.0
 30
0.0
  0
VERTEX
  5
1E7
330
13B
100
AcDbEntity
  8
GUIDE
100
AcDbVertex
100
AcDb2dVertex
 10
142.163347
 20
-23.0
 30
0.0
  0
VERTEX
  5
1E8
330
13B
100
AcDbEntity
  8
GUIDE
100
AcDbVertex
100
AcDb2dVertex
 10
112.163347
 20
-23.0
 30
0.0
  0
SEQEND
  5
1E5
330
13B
100
AcDbEntity
  8
GUIDE
  0
LINE
  5
140
330
1A
100
AcDbEntity
  8
GUIDE
100
AcDbLine
 10
124.163347
 20
-13.0
 30
0.0
 11
124.163347
 21
-23.0
 31
0.0
  0
LINE
  5
141
330
1A
100
AcDbEntity
  8
GUIDE
100
AcDbLine
 10
130.163347
 20
-13.0
 30
0.0
 11
130.163347
 21
-23.0
 31
0.0
  0
ENDSEC
  0
SECTION
  2
OBJECTS
  0
DICTIONARY
  5
C
330
0
100
AcDbDictionary
  3
ACAD_GROUP
350
D
  3
ACAD_LAYOUT
350
143
  3
ACAD_MLINESTYLE
350
E
1001
ACAD
1000
TREAT_AS_HARD
1070
     0
  0
DICTIONARY
  5
1E9
330
142
100
AcDbDictionary
  3
ACAD_XREC_ROUNDTRIP
360
1EA
  0
DICTIONARY
  5
D
102
{ACAD_REACTORS
330
C
102
}
330
C
100
AcDbDictionary
1001
ACAD
1000
TREAT_AS_HARD
1070
     0
  0
DICTIONARY
  5
143
102
{ACAD_REACTORS
330
C
102
}
330
C
100
AcDbDictionary
1001
ACAD
1000
TREAT_AS_HARD
1070
     0
  0
DICTIONARY
  5
E
102
{ACAD_REACTORS
330
C
102
}
330
C
100
AcDbDictionary
  3
STANDARD
350
13
1001
ACAD
1000
TREAT_AS_HARD
1070
     0
  0
XRECORD
  5
1EA
102
{ACAD_REACTORS
330
1E9
102
}
330
1E9
100
AcDbXrecord
102
UCS
 74
     0
 71
     1
 10
0.0
 20
0.0
 30
0.0
 10
1.0
 20
0.0
 30
0.0
 10
0.0
 20
1.0
 30
0.0
146
0.0
 79
     0
102
VIEW
281
     0
  0
MLINESTYLE
  5
13
102
{ACAD_REACTORS
330
E
102
}
330
E
100
AcDbMlineStyle
  2
STANDARD
 70
     0
  3

 62
     0
 51
90.0
 52
90.0
 71
     2
 49
0.5
 62
   256
  6
BYLAYER
 49
-0.5
 62
   256
  6
BYLAYER
  0
ENDSEC
  0
EOF
