  0
SECTION
  2
HEADER
  9
$ACADVER
  1
AC1012
  9
$DWGCODEPAGE
  3
ansi_1252
  9
$INSBASE
 10
0.0
 20
0.0
 30
0.0
  9
$EXTMIN
 10
-71.116056
 20
-100.84641
 30
0.0
  9
$EXTMAX
 10
198.592669
 20
3.960522
 30
0.0
  9
$LIMMIN
 10
0.0
 20
0.0
  9
$LIMMAX
 10
12.0
 20
9.0
  9
$ORTHOMODE
 70
     1
  9
$REGENMODE
 70
     1
  9
$FILLMODE
 70
     1
  9
$QTEXTMODE
 70
     0
  9
$MIRRTEXT
 70
     1
  9
$DRAGMODE
 70
     2
  9
$LTSCALE
 40
1.0
  9
$OSMODE
 70
    37
  9
$ATTMODE
 70
     1
  9
$TEXTSIZE
 40
0.2
  9
$TRACEWID
 40
0.05
  9
$TEXTSTYLE
  7
STANDARD
  9
$CLAYER
  8
0
  9
$CELTYPE
  6
BYLAYER
  9
$CECOLOR
 62
   256
  9
$CELTSCALE
 40
1.0
  9
$DELOBJ
 70
     1
  9
$DISPSILH
 70
     0
  9
$DIMSCALE
 40
1.0
  9
$DIMASZ
 40
0.18
  9
$DIMEXO
 40
0.0625
  9
$DIMDLI
 40
0.38
  9
$DIMRND
 40
0.0
  9
$DIMDLE
 40
0.0
  9
$DIMEXE
 40
0.18
  9
$DIMTP
 40
0.0
  9
$DIMTM
 40
0.0
  9
$DIMTXT
 40
0.18
  9
$DIMCEN
 40
0.09
  9
$DIMTSZ
 40
0.0
  9
$DIMTOL
 70
     0
  9
$DIMLIM
 70
     0
  9
$DIMTIH
 70
     1
  9
$DIMTOH
 70
     1
  9
$DIMSE1
 70
     0
  9
$DIMSE2
 70
     0
  9
$DIMTAD
 70
     0
  9
$DIMZIN
 70
     0
  9
$DIMBLK
  1

  9
$DIMASO
 70
     1
  9
$DIMSHO
 70
     1
  9
$DIMPOST
  1

  9
$DIMAPOST
  1

  9
$DIMALT
 70
     0
  9
$DIMALTD
 70
     2
  9
$DIMALTF
 40
25.4
  9
$DIMLFAC
 40
1.0
  9
$DIMTOFL
 70
     0
  9
$DIMTVP
 40
0.0
  9
$DIMTIX
 70
     0
  9
$DIMSOXD
 70
     0
  9
$DIMSAH
 70
     0
  9
$DIMBLK1
  1

  9
$DIMBLK2
  1

  9
$DIMSTYLE
  2
STANDARD
  9
$DIMCLRD
 70
     0
  9
$DIMCLRE
 70
     0
  9
$DIMCLRT
 70
     0
  9
$DIMTFAC
 40
1.0
  9
$DIMGAP
 40
0.09
  9
$DIMJUST
 70
     0
  9
$DIMSD1
 70
     0
  9
$DIMSD2
 70
     0
  9
$DIMTOLJ
 70
     1
  9
$DIMTZIN
 70
     0
  9
$DIMALTZ
 70
     0
  9
$DIMALTTZ
 70
     0
  9
$DIMFIT
 70
     3
  9
$DIMUPT
 70
     0
  9
$DIMUNIT
 70
     2
  9
$DIMDEC
 70
     4
  9
$DIMTDEC
 70
     4
  9
$DIMALTU
 70
     2
  9
$DIMALTTD
 70
     2
  9
$DIMTXSTY
  7
STANDARD
  9
$DIMAUNIT
 70
     0
  9
$LUNITS
 70
     2
  9
$LUPREC
 70
     4
  9
$SKETCHINC
 40
0.1
  9
$FILLETRAD
 40
0.0
  9
$AUNITS
 70
     0
  9
$AUPREC
 70
     0
  9
$MENU
  1
acad
  9
$ELEVATION
 40
0.0
  9
$PELEVATION
 40
0.0
  9
$THICKNESS
 40
0.0
  9
$LIMCHECK
 70
     0
  9
$CHAMFERA
 40
0.0
  9
$CHAMFERB
 40
0.0
  9
$CHAMFERC
 40
0.0
  9
$CHAMFERD
 40
0.0
  9
$SKPOLY
 70
     0
  9
$TDCREATE
 40
2447893.083333334
  9
$TDUPDATE
 40
2447893.083333334
  9
$TDINDWG
 40
0.005640625
  9
$TDUSRTIMER
 40
0.005640625
  9
$USRTIMER
 70
     1
  9
$ANGBASE
 50
0.0
  9
$ANGDIR
 70
     0
  9
$PDMODE
 70
     0
  9
$PDSIZE
 40
0.0
  9
$PLINEWID
 40
0.0
  9
$COORDS
 70
     1
  9
$SPLFRAME
 70
     0
  9
$SPLINETYPE
 70
     6
  9
$SPLINESEGS
 70
     8
  9
$ATTDIA
 70
     0
  9
$ATTREQ
 70
     1
  9
$HANDLING
 70
     1
  9
$HANDSEED
  5
217
  9
$SURFTAB1
 70
     6
  9
$SURFTAB2
 70
     6
  9
$SURFTYPE
 70
     6
  9
$SURFU
 70
     6
  9
$SURFV
 70
     6
  9
$UCSNAME
  2

  9
$UCSORG
 10
0.0
 20
0.0
 30
0.0
  9
$UCSXDIR
 10
1.0
 20
0.0
 30
0.0
  9
$UCSYDIR
 10
0.0
 20
1.0
 30
0.0
  9
$PUCSNAME
  2

  9
$PUCSORG
 10
0.0
 20
0.0
 30
0.0
  9
$PUCSXDIR
 10
1.0
 20
0.0
 30
0.0
  9
$PUCSYDIR
 10
0.0
 20
1.0
 30
0.0
  9
$USERI1
 70
     0
  9
$USERI2
 70
     0
  9
$USERI3
 70
     0
  9
$USERI4
 70
     0
  9
$USERI5
 70
     0
  9
$USERR1
 40
0.0
  9
$USERR2
 40
0.0
  9
$USERR3
 40
0.0
  9
$USERR4
 40
0.0
  9
$USERR5
 40
0.0
  9
$WORLDVIEW
 70
     1
  9
$SHADEDGE
 70
     3
  9
$SHADEDIF
 70
    70
  9
$TILEMODE
 70
     1
  9
$MAXACTVP
 70
    16
  9
$PINSBASE
 10
0.0
 20
0.0
 30
0.0
  9
$PLIMCHECK
 70
     0
  9
$PEXTMIN
 10
1.000000000000000E+20
 20
1.000000000000000E+20
 30
1.000000000000000E+20
  9
$PEXTMAX
 10
-1.000000000000000E+20
 20
-1.000000000000000E+20
 30
-1.000000000000000E+20
  9
$PLIMMIN
 10
0.0
 20
0.0
  9
$PLIMMAX
 10
12.0
 20
9.0
  9
$UNITMODE
 70
     0
  9
$VISRETAIN
 70
     0
  9
$PLINEGEN
 70
     0
  9
$PSLTSCALE
 70
     1
  9
$TREEDEPTH
 70
  3020
  9
$PICKSTYLE
 70
     1
  9
$CMLSTYLE
  2
STANDARD
  9
$CMLJUST
 70
     0
  9
$CMLSCALE
 40
1.0
  9
$SAVEIMAGES
 70
     1
  0
ENDSEC
  0
SECTION
  2
CLASSES
  0
CLASS
  1
XRECORD
  2
AcDbXrecord
  3
AutoCAD 2000
 90
    32768
280
     0
281
     0
  0
CLASS
  1
LWPOLYLINE
  2
AcDbPolyline
  3
AutoCAD 2000
 90
    32768
280
     0
281
     1
  0
CLASS
  1
HATCH
  2
AcDbHatch
  3
AutoCAD 2000
 90
    32768
280
     0
281
     1
  0
CLASS
  1
ACDBPLACEHOLDER
  2
AcDbPlaceHolder
  3
ObjectDBX Classes
 90
        0
280
     0
281
     0
  0
CLASS
  1
LAYOUT
  2
AcDbLayout
  3
ObjectDBX Classes
 90
        0
280
     0
281
     0
  0
ENDSEC
  0
SECTION
  2
TABLES
  0
TABLE
  2
VPORT
  5
8
330
0
100
AcDbSymbolTable
 70
     1
  0
VPORT
  5
160
102
{ACAD_XDICTIONARY
360
215
102
}
330
8
100
AcDbSymbolTableRecord
100
AcDbViewportTableRecord
  2
*ACTIVE
 70
     0
 10
0.0
 20
0.0
 11
1.0
 21
1.0
 12
66.565106
 22
-39.88109
 13
0.0
 23
0.0
 14
1.0
 24
1.0
 15
0.0
 25
0.0
 16
0.0
 26
0.0
 36
1.0
 17
0.0
 27
0.0
 37
0.0
 40
142.600388
 41
1.915354
 42
50.0
 43
0.0
 44
0.0
 50
0.0
 51
0.0
 71
     0
 72
   100
 73
     1
 74
     1
 75
     0
 76
     0
 77
     0
 78
     0
  0
ENDTAB
  0
TABLE
  2
LTYPE
  5
5
330
0
100
AcDbSymbolTable
 70
     2
  0
LTYPE
  5
14
330
5
100
AcDbSymbolTableRecord
100
AcDbLinetypeTableRecord
  2
BYBLOCK
 70
     0
  3

 72
    65
 73
     0
 40
0.0
  0
LTYPE
  5
15
330
5
100
AcDbSymbolTableRecord
100
AcDbLinetypeTableRecord
  2
BYLAYER
 70
     0
  3

 72
    65
 73
     0
 40
0.0
  0
LTYPE
  5
16
330
5
100
AcDbSymbolTableRecord
100
AcDbLinetypeTableRecord
  2
CONTINUOUS
 70
     0
  3
Solid line
 72
    65
 73
     0
 40
0.0
  0
LTYPE
  5
28
330
5
100
AcDbSymbolTableRecord
100
AcDbLinetypeTableRecord
  2
DASHDOT
 70
     0
  3
__ . __ . __ . __ . __ . __ . __ . __ . __ . __
 72
    65
 73
     4
 40
1.0
 49
0.5
 74
     0
 49
-0.25
 74
     0
 49
0.0
 74
     0
 49
-0.25
 74
     0
  0
ENDTAB
  0
TABLE
  2
LAYER
  5
2
330
0
100
AcDbSymbolTable
 70
     3
  0
LAYER
  5
F
330
2
100
AcDbSymbolTableRecord
100
AcDbLayerTableRecord
  2
0
 70
     0
 62
     7
  6
CONTINUOUS
  0
LAYER
  5
29
330
2
100
AcDbSymbolTableRecord
100
AcDbLayerTableRecord
  2
GUIDE
 70
     0
 62
     7
  6
CONTINUOUS
  0
LAYER
  5
2A
330
2
100
AcDbSymbolTableRecord
100
AcDbLayerTableRecord
  2
AXIS
 70
     0
 62
     1
  6
DASHDOT
  0
ENDTAB
  0
TABLE
  2
STYLE
  5
3
330
0
100
AcDbSymbolTable
 70
     1
  0
STYLE
  5
10
330
3
100
AcDbSymbolTableRecord
100
AcDbTextStyleTableRecord
  2
STANDARD
 70
     0
 40
0.0
 41
1.0
 50
0.0
 71
     0
 42
0.2
  3
txt
  4

  0
ENDTAB
  0
TABLE
  2
VIEW
  5
6
330
0
100
AcDbSymbolTable
 70
     0
  0
ENDTAB
  0
TABLE
  2
UCS
  5
7
330
0
100
AcDbSymbolTable
 70
     0
  0
ENDTAB
  0
TABLE
  2
APPID
  5
9
330
0
100
AcDbSymbolTable
 70
     1
  0
APPID
  5
11
330
9
100
AcDbSymbolTableRecord
100
AcDbRegAppTableRecord
  2
ACAD
 70
     0
  0
ENDTAB
  0
TABLE
  2
DIMSTYLE
  5
A
330
0
100
AcDbSymbolTable
 70
     1
  0
DIMSTYLE
105
1D
330
A
100
AcDbSymbolTableRecord
100
AcDbDimStyleTableRecord
  2
STANDARD
 70
     0
  3

  4

  5

  6

  7

 40
1.0
 41
0.18
 42
0.0625
 43
0.38
 44
0.18
 45
0.0
 46
0.0
 47
0.0
 48
0.0
140
0.18
141
0.09
142
0.0
143
25.4
144
1.0
145
0.0
146
1.0
147
0.09
 71
     0
 72
     0
 73
     1
 74
     1
 75
     0
 76
     0
 77
     0
 78
     0
170
     0
171
     2
172
     0
173
     0
174
     0
175
     0
176
     0
177
     0
178
     0
270
     2
271
     4
272
     4
273
     2
274
     2
340
10
275
     0
280
     0
281
     0
282
     0
283
     1
284
     0
285
     0
286
     0
287
     3
288
     0
  0
ENDTAB
  0
TABLE
  2
BLOCK_RECORD
  5
1
330
0
100
AcDbSymbolTable
 70
     0
  0
BLOCK_RECORD
  5
1A
330
1
100
AcDbSymbolTableRecord
100
AcDbBlockTableRecord
  2
*MODEL_SPACE
  0
BLOCK_RECORD
  5
17
330
1
100
AcDbSymbolTableRecord
100
AcDbBlockTableRecord
  2
*PAPER_SPACE
  0
ENDTAB
  0
ENDSEC
  0
SECTION
  2
BLOCKS
  0
BLOCK
  5
1B
330
1A
100
AcDbEntity
  8
0
100
AcDbBlockBegin
  2
*MODEL_SPACE
 70
     0
 71
     0
 10
0.0
 20
0.0
 30
0.0
  3
*MODEL_SPACE
  1

  0
ENDBLK
  5
1C
330
1A
100
AcDbEntity
  8
0
100
AcDbBlockEnd
  0
BLOCK
  5
18
330
17
100
AcDbEntity
 67
     1
  8
0
100
AcDbBlockBegin
  2
*PAPER_SPACE
 70
     0
 71
     0
 10
0.0
 20
0.0
 30
0.0
  3
*PAPER_SPACE
  1

  0
ENDBLK
  5
19
330
17
100
AcDbEntity
 67
     1
  8
0
100
AcDbBlockEnd
  0
ENDSEC
  0
SECTION
  2
ENTITIES
  0
LINE
  5
CD
330
1A
100
AcDbEntity
  8
GUIDE
100
AcDbLine
 10
25.0
 20
-64.281009
 30
0.0
 11
0.0
 21
-64.281009
 31
0.0
  0
LINE
  5
CE
330
1A
100
AcDbEntity
  8
GUIDE
100
AcDbLine
 10
25.0
 20
-94.281009
 30
0.0
 11
0.0
 21
-94.281009
 31
0.0
  0
LINE
  5
CF
330
1A
100
AcDbEntity
  8
GUIDE
100
AcDbLine
 10
0.0
 20
-100.781009
 30
0.0
 11
0.0
 21
-57.781009
 31
0.0
  0
POLYLINE
  5
D0
330
1A
100
AcDbEntity
  8
GUIDE
100
AcDb2dPolyline
 66
     1
 10
0.0
 20
0.0
 30
0.0
  0
VERTEX
  5
1D1
330
D0
100
AcDbEntity
  8
GUIDE
100
AcDbVertex
100
AcDb2dVertex
 10
25.0
 20
-64.281009
 30
0.0
  0
VERTEX
  5
1D2
330
D0
100
AcDbEntity
  8
GUIDE
100
AcDbVertex
100
AcDb2dVertex
 10
25.0
 20
-94.281009
 30
0.0
  0
SEQEND
  5
1D0
330
D0
100
AcDbEntity
  8
GUIDE
  0
ARC
  5
D4
330
1A
100
AcDbEntity
  8
GUIDE
100
AcDbCircle
 10
-25.534008
 20
-91.281009
 30
0.0
 40
2.0
100
AcDbArc
 50
60.10109800000001
 51
90.0
  0
LINE
  5
D5
330
1A
100
AcDbEntity
  8
GUIDE
100
AcDbLine
 10
-25.534008
 20
-89.281009
 30
0.0
 11
-68.0
 21
-89.281009
 31
0.0
  0
ARC
  5
D6
330
1A
100
AcDbEntity
  8
GUIDE
100
AcDbCircle
 10
-68.0
 20
-87.281009
 30
0.0
 40
2.0
100
AcDbArc
 50
180.0
 51
270.0
  0
LINE
  5
D7
330
1A
100
AcDbEntity
  8
GUIDE
100
AcDbLine
 10
-70.0
 20
-87.281009
 30
0.0
 11
-70.0
 21
-71.281009
 31
0.0
  0
ARC
  5
D8
330
1A
100
AcDbEntity
  8
GUIDE
100
AcDbCircle
 10
-68.0
 20
-71.281009
 30
0.0
 40
2.0
100
AcDbArc
 50
90.0
 51
180.0
  0
LINE
  5
D9
330
1A
100
AcDbEntity
  8
GUIDE
100
AcDbLine
 10
-68.0
 20
-69.281009
 30
0.0
 11
-25.534008
 21
-69.281009
 31
0.0
  0
ARC
  5
DA
330
1A
100
AcDbEntity
  8
GUIDE
100
AcDbCircle
 10
-25.534008
 20
-67.281009
 30
0.0
 40
2.0
100
AcDbArc
 50
270.0
 51
299.898902
  0
ARC
  5
DB
330
1A
100
AcDbEntity
  8
GUIDE
100
AcDbCircle
 10
-25.534008
 20
-67.281009
 30
0.0
 40
2.0
100
AcDbArc
 50
270.0
 51
299.898902
  0
ARC
  5
DC
330
1A
100
AcDbEntity
  8
GUIDE
100
AcDbCircle
 10
-25.534008
 20
-67.281009
 30
0.0
 40
2.0
100
AcDbArc
 50
270.0
 51
299.898902
  0
POLYLINE
  5
DD
330
1A
100
AcDbEntity
  8
GUIDE
100
AcDb2dPolyline
 66
     1
 10
0.0
 20
0.0
 30
0.0
  0
VERTEX
  5
1D4
330
DD
100
AcDbEntity
  8
GUIDE
100
AcDbVertex
100
AcDb2dVertex
 10
-24.537065
 20
-69.014822
 30
0.0
  0
VERTEX
  5
1D5
330
DD
100
AcDbEntity
  8
GUIDE
100
AcDbVertex
100
AcDb2dVertex
 10
-5.462935
 20
-58.047196
 30
0.0
 42
-0.131204
  0
VERTEX
  5
1D6
330
DD
100
AcDbEntity
  8
GUIDE
100
AcDbVertex
100
AcDb2dVertex
 10
-4.465992
 20
-57.781009
 30
0.0
  0
VERTEX
  5
1D7
330
DD
100
AcDbEntity
  8
GUIDE
100
AcDbVertex
100
AcDb2dVertex
 10
0.0
 20
-57.781009
 30
0.0
  0
SEQEND
  5
1D3
330
DD
100
AcDbEntity
  8
GUIDE
  0
POLYLINE
  5
E3
330
1A
100
AcDbEntity
  8
GUIDE
100
AcDb2dPolyline
 66
     1
 10
0.0
 20
0.0
 30
0.0
  0
VERTEX
  5
1D9
330
E3
100
AcDbEntity
  8
GUIDE
100
AcDbVertex
100
AcDb2dVertex
 10
0.0
 20
-100.781009
 30
0.0
  0
VERTEX
  5
1DA
330
E3
100
AcDbEntity
  8
GUIDE
100
AcDbVertex
100
AcDb2dVertex
 10
-4.465992
 20
-100.781009
 30
0.0
 42
-0.131204
  0
VERTEX
  5
1DB
330
E3
100
AcDbEntity
  8
GUIDE
100
AcDbVertex
100
AcDb2dVertex
 10
-5.462935
 20
-100.514822
 30
0.0
  0
VERTEX
  5
1DC
330
E3
100
AcDbEntity
  8
GUIDE
100
AcDbVertex
100
AcDb2dVertex
 10
-24.537065
 20
-89.547196
 30
0.0
  0
SEQEND
  5
1D8
330
E3
100
AcDbEntity
  8
GUIDE
  0
LINE
  5
E9
330
1A
100
AcDbEntity
  8
GUIDE
100
AcDbLine
 10
47.0
 20
-85.781009
 30
0.0
 11
63.0
 21
-85.781009
 31
0.0
  0
LINE
  5
EA
330
1A
100
AcDbEntity
  8
GUIDE
100
AcDbLine
 10
45.0
 20
-87.781009
 30
0.0
 11
45.0
 21
-87.781009
 31
0.0
  0
LINE
  5
EB
330
1A
100
AcDbEntity
  8
GUIDE
100
AcDbLine
 10
65.0
 20
-87.781009
 30
0.0
 11
65.0
 21
-87.781009
 31
0.0
  0
LINE
  5
EC
330
1A
100
AcDbEntity
  8
GUIDE
100
AcDbLine
 10
45.0
 20
-70.781009
 30
0.0
 11
45.0
 21
-70.781009
 31
0.0
  0
LINE
  5
ED
330
1A
100
AcDbEntity
  8
GUIDE
100
AcDbLine
 10
65.0
 20
-70.781009
 30
0.0
 11
65.0
 21
-70.781009
 31
0.0
  0
LINE
  5
EE
330
1A
100
AcDbEntity
  8
GUIDE
100
AcDbLine
 10
47.0
 20
-72.781009
 30
0.0
 11
63.0
 21
-72.781009
 31
0.0
  0
POLYLINE
  5
EF
330
1A
100
AcDbEntity
  8
GUIDE
100
AcDb2dPolyline
 66
     1
 10
0.0
 20
0.0
 30
0.0
  0
VERTEX
  5
1DE
330
EF
100
AcDbEntity
  8
GUIDE
100
AcDbVertex
100
AcDb2dVertex
 10
45.0
 20
-87.781009
 30
0.0
  0
VERTEX
  5
1DF
330
EF
100
AcDbEntity
  8
GUIDE
100
AcDbVertex
100
AcDb2dVertex
 10
25.0
 20
-87.781009
 30
0.0
  0
SEQEND
  5
1DD
330
EF
100
AcDbEntity
  8
GUIDE
  0
POLYLINE
  5
F3
330
1A
100
AcDbEntity
  8
GUIDE
100
AcDb2dPolyline
 66
     1
 10
0.0
 20
0.0
 30
0.0
  0
VERTEX
  5
1E1
330
F3
100
AcDbEntity
  8
GUIDE
100
AcDbVertex
100
AcDb2dVertex
 10
25.0
 20
-87.781009
 30
0.0
  0
VERTEX
  5
1E2
330
F3
100
AcDbEntity
  8
GUIDE
100
AcDbVertex
100
AcDb2dVertex
 10
25.0
 20
-70.781009
 30
0.0
  0
VERTEX
  5
1E3
330
F3
100
AcDbEntity
  8
GUIDE
100
AcDbVertex
100
AcDb2dVertex
 10
45.0
 20
-70.781009
 30
0.0
  0
SEQEND
  5
1E0
330
F3
100
AcDbEntity
  8
GUIDE
  0
POLYLINE
  5
F8
330
1A
100
AcDbEntity
  8
GUIDE
100
AcDb2dPolyline
 66
     1
 10
0.0
 20
0.0
 30
0.0
  0
VERTEX
  5
1E5
330
F8
100
AcDbEntity
  8
GUIDE
100
AcDbVertex
100
AcDb2dVertex
 10
65.0
 20
-70.781009
 30
0.0
  0
VERTEX
  5
1E6
330
F8
100
AcDbEntity
  8
GUIDE
100
AcDbVertex
100
AcDb2dVertex
 10
73.0
 20
-70.781009
 30
0.0
  0
VERTEX
  5
1E7
330
F8
100
AcDbEntity
  8
GUIDE
100
AcDbVertex
100
AcDb2dVertex
 10
75.0
 20
-72.781009
 30
0.0
  0
VERTEX
  5
1E8
330
F8
100
AcDbEntity
  8
GUIDE
100
AcDbVertex
100
AcDb2dVertex
 10
75.0
 20
-85.781009
 30
0.0
  0
VERTEX
  5
1E9
330
F8
100
AcDbEntity
  8
GUIDE
100
AcDbVertex
100
AcDb2dVertex
 10
73.0
 20
-87.781009
 30
0.0
  0
VERTEX
  5
1EA
330
F8
100
AcDbEntity
  8
GUIDE
100
AcDbVertex
100
AcDb2dVertex
 10
65.0
 20
-87.781009
 30
0.0
  0
SEQEND
  5
1E4
330
F8
100
AcDbEntity
  8
GUIDE
  0
LINE
  5
100
330
1A
100
AcDbEntity
  8
GUIDE
100
AcDbLine
 10
45.0
 20
-70.781009
 30
0.0
 11
47.0
 21
-72.781009
 31
0.0
  0
LINE
  5
101
330
1A
100
AcDbEntity
  8
GUIDE
100
AcDbLine
 10
65.0
 20
-70.781009
 30
0.0
 11
63.0
 21
-72.781009
 31
0.0
  0
LINE
  5
102
330
1A
100
AcDbEntity
  8
GUIDE
100
AcDbLine
 10
65.0
 20
-87.781009
 30
0.0
 11
63.0
 21
-85.781009
 31
0.0
  0
LINE
  5
103
330
1A
100
AcDbEntity
  8
GUIDE
100
AcDbLine
 10
45.0
 20
-87.781009
 30
0.0
 11
47.0
 21
-85.781009
 31
0.0
  0
LINE
  5
104
330
1A
100
AcDbEntity
  8
GUIDE
100
AcDbLine
 10
73.0
 20
-70.781009
 30
0.0
 11
73.0
 21
-87.781009
 31
0.0
  0
CIRCLE
  5
105
330
1A
100
AcDbEntity
  8
GUIDE
100
AcDbCircle
 10
49.0
 20
-79.281009
 30
0.0
 40
3.0
  0
CIRCLE
  5
106
330
1A
100
AcDbEntity
  8
GUIDE
100
AcDbCircle
 10
65.0
 20
-79.281009
 30
0.0
 40
3.0
  0
POLYLINE
  5
107
330
1A
100
AcDbEntity
  8
GUIDE
100
AcDb2dPolyline
 66
     1
 10
0.0
 20
0.0
 30
0.0
 70
     1
  0
VERTEX
  5
1EC
330
107
100
AcDbEntity
  8
GUIDE
100
AcDbVertex
100
AcDb2dVertex
 10
46.690599
 20
-75.281009
 30
0.0
  0
VERTEX
  5
1ED
330
107
100
AcDbEntity
  8
GUIDE
100
AcDbVertex
100
AcDb2dVertex
 10
44.381198
 20
-79.281009
 30
0.0
  0
VERTEX
  5
1EE
330
107
100
AcDbEntity
  8
GUIDE
100
AcDbVertex
100
AcDb2dVertex
 10
46.690599
 20
-83.281009
 30
0.0
  0
VERTEX
  5
1EF
330
107
100
AcDbEntity
  8
GUIDE
100
AcDbVertex
100
AcDb2dVertex
 10
51.309401
 20
-83.281009
 30
0.0
  0
VERTEX
  5
1F0
330
107
100
AcDbEntity
  8
GUIDE
100
AcDbVertex
100
AcDb2dVertex
 10
53.618802
 20
-79.281009
 30
0.0
  0
VERTEX
  5
1F1
330
107
100
AcDbEntity
  8
GUIDE
100
AcDbVertex
100
AcDb2dVertex
 10
51.309401
 20
-75.281009
 30
0.0
  0
SEQEND
  5
1EB
330
107
100
AcDbEntity
  8
GUIDE
  0
POLYLINE
  5
10F
330
1A
100
AcDbEntity
  8
GUIDE
100
AcDb2dPolyline
 66
     1
 10
0.0
 20
0.0
 30
0.0
 70
     1
  0
VERTEX
  5
1F3
330
10F
100
AcDbEntity
  8
GUIDE
100
AcDbVertex
100
AcDb2dVertex
 10
62.690599
 20
-75.281009
 30
0.0
  0
VERTEX
  5
1F4
330
10F
100
AcDbEntity
  8
GUIDE
100
AcDbVertex
100
AcDb2dVertex
 10
60.381198
 20
-79.281009
 30
0.0
  0
VERTEX
  5
1F5
330
10F
100
AcDbEntity
  8
GUIDE
100
AcDbVertex
100
AcDb2dVertex
 10
62.690599
 20
-83.281009
 30
0.0
  0
VERTEX
  5
1F6
330
10F
100
AcDbEntity
  8
GUIDE
100
AcDbVertex
100
AcDb2dVertex
 10
67.30940099999999
 20
-83.281009
 30
0.0
  0
VERTEX
  5
1F7
330
10F
100
AcDbEntity
  8
GUIDE
100
AcDbVertex
100
AcDb2dVertex
 10
69.618802
 20
-79.281009
 30
0.0
  0
VERTEX
  5
1F8
330
10F
100
AcDbEntity
  8
GUIDE
100
AcDbVertex
100
AcDb2dVertex
 10
67.30940099999999
 20
-75.281009
 30
0.0
  0
SEQEND
  5
1F2
330
10F
100
AcDbEntity
  8
GUIDE
  0
LINE
  5
117
330
1A
100
AcDbEntity
  8
GUIDE
100
AcDbLine
 10
-39.999995
 20
-79.281009
 30
0.0
 11
-39.999995
 21
-79.281009
 31
0.0
  0
LINE
  5
118
330
1A
100
AcDbEntity
  8
AXIS
 48
5.0
100
AcDbLine
 10
49.0
 20
-86.338447
 30
0.0
 11
49.0
 21
-72.22357100000001
 31
0.0
  0
LINE
  5
119
330
1A
100
AcDbEntity
  8
AXIS
 48
5.0
100
AcDbLine
 10
65.0
 20
-86.338447
 30
0.0
 11
65.0
 21
-72.22357100000001
 31
0.0
  0
LINE
  5
11A
330
1A
100
AcDbEntity
  8
AXIS
 48
5.0
100
AcDbLine
 10
40.224266
 20
-79.281009
 30
0.0
 11
73.36502299999999
 21
-79.281009
 31
0.0
  0
LINE
  5
11B
330
1A
100
AcDbEntity
  8
GUIDE
100
AcDbLine
 10
-38.267945
 20
-77.781009
 30
0.0
 11
0.0
 21
-77.781009
 31
0.0
  0
LINE
  5
11C
330
1A
100
AcDbEntity
  8
GUIDE
100
AcDbLine
 10
-38.267945
 20
-80.781009
 30
0.0
 11
0.0
 21
-80.781009
 31
0.0
  0
LINE
  5
11D
330
1A
100
AcDbEntity
  8
GUIDE
100
AcDbLine
 10
-38.267945
 20
-77.781009
 30
0.0
 11
-39.999995
 21
-79.281009
 31
0.0
  0
LINE
  5
11E
330
1A
100
AcDbEntity
  8
GUIDE
100
AcDbLine
 10
-38.267945
 20
-80.781009
 30
0.0
 11
-39.999995
 21
-79.281009
 31
0.0
  0
POLYLINE
  5
11F
330
1A
100
AcDbEntity
  8
GUIDE
100
AcDb2dPolyline
 66
     1
 10
0.0
 20
0.0
 30
0.0
 70
     1
  0
VERTEX
  5
1FA
330
11F
100
AcDbEntity
  8
GUIDE
100
AcDbVertex
100
AcDb2dVertex
 10
25.0
 20
-21.5
 30
0.0
  0
VERTEX
  5
1FB
330
11F
100
AcDbEntity
  8
GUIDE
100
AcDbVertex
100
AcDb2dVertex
 10
25.0
 20
-5.5
 30
0.0
  0
VERTEX
  5
1FC
330
11F
100
AcDbEntity
  8
GUIDE
100
AcDbVertex
100
AcDb2dVertex
 10
75.0
 20
-5.5
 30
0.0
  0
VERTEX
  5
1FD
330
11F
100
AcDbEntity
  8
GUIDE
100
AcDbVertex
100
AcDb2dVertex
 10
75.0
 20
-21.5
 30
0.0
  0
SEQEND
  5
1F9
330
11F
100
AcDbEntity
  8
GUIDE
  0
LINE
  5
125
330
1A
100
AcDbEntity
  8
GUIDE
100
AcDbLine
 10
25.0
 20
-4.0
 30
0.0
 11
0.0
 21
-4.0
 31
0.0
  0
LINE
  5
126
330
1A
100
AcDbEntity
  8
GUIDE
100
AcDbLine
 10
0.0
 20
-10.0
 30
0.0
 11
0.0
 21
2.2
 31
0.0
  0
LINE
  5
127
330
1A
100
AcDbEntity
  8
GUIDE
100
AcDbLine
 10
25.0
 20
-23.0
 30
0.0
 11
25.0
 21
-4.0
 31
0.0
  0
LINE
  5
128
330
1A
100
AcDbEntity
  8
GUIDE
100
AcDbLine
 10
0.0
 20
0.0
 30
0.0
 11
-42.54568
 21
0.0
 31
0.0
  0
LINE
  5
129
330
1A
100
AcDbEntity
  8
GUIDE
100
AcDbLine
 10
-6.0774
 20
-10.0
 30
0.0
 11
21.99301
 21
-10.0
 31
0.0
  0
LINE
  5
12A
330
1A
100
AcDbEntity
  8
GUIDE
100
AcDbLine
 10
-64.945348
 20
-13.0
 30
0.0
 11
-69.00862600000001
 21
-13.0
 31
0.0
  0
LINE
  5
12B
330
1A
100
AcDbEntity
  8
GUIDE
100
AcDbLine
 10
-69.00862600000001
 20
-13.0
 30
0.0
 11
25.0
 21
-23.0
 31
0.0
  0
LINE
  5
12C
330
1A
100
AcDbEntity
  8
GUIDE
100
AcDbLine
 10
-6.0774
 20
-10.0
 30
0.0
 11
-6.0774
 21
0.0
 31
0.0
  0
LINE
  5
12D
330
1A
100
AcDbEntity
  8
GUIDE
100
AcDbLine
 10
-42.54568
 20
-6.0
 30
0.0
 11
-26.0774
 21
-6.0
 31
0.0
  0
LINE
  5
12E
330
1A
100
AcDbEntity
  8
GUIDE
100
AcDbLine
 10
-26.0774
 20
-6.0
 30
0.0
 11
-26.0774
 21
0.0
 31
0.0
  0
LINE
  5
12F
330
1A
100
AcDbEntity
  8
GUIDE
100
AcDbLine
 10
-6.0774
 20
-10.0
 30
0.0
 11
-26.0774
 21
-6.0
 31
0.0
  0
ARC
  5
130
330
1A
100
AcDbEntity
  8
GUIDE
100
AcDbCircle
 10
-42.54568
 20
-60.0
 30
0.0
 40
60.0
100
AcDbArc
 50
90.0
 51
110.536646
  0
ARC
  5
131
330
1A
100
AcDbEntity
  8
GUIDE
100
AcDbCircle
 10
-60.086
 20
-13.1776
 30
0.0
 40
10.0
100
AcDbArc
 50
110.536646
 51
172.481609
  0
ARC
  5
132
330
1A
100
AcDbEntity
  8
GUIDE
100
AcDbCircle
 10
-42.54568
 20
-60.0
 30
0.0
 40
54.0
100
AcDbArc
 50
90.0
 51
110.536646
  0
ARC
  5
133
330
1A
100
AcDbEntity
  8
GUIDE
100
AcDbCircle
 10
-60.086
 20
-13.1776
 30
0.0
 40
4.0
100
AcDbArc
 50
110.536646
 51
166.377726
  0
ARC
  5
134
330
1A
100
AcDbEntity
  8
GUIDE
100
AcDbCircle
 10
-64.945348
 20
-12.0
 30
0.0
 40
1.0
100
AcDbArc
 50
270.0
 51
346.377726
  0
ARC
  5
135
330
1A
100
AcDbEntity
  8
GUIDE
100
AcDbCircle
 10
-69.00862600000001
 20
-12.0
 30
0.0
 40
1.0
100
AcDbArc
 50
172.481609
 51
270.0
  0
LINE
  5
136
330
1A
100
AcDbEntity
  8
GUIDE
100
AcDbLine
 10
21.99301
 20
-10.0
 30
0.0
 11
21.99301
 21
-22.679844
 31
0.0
  0
LINE
  5
137
330
1A
100
AcDbEntity
  8
GUIDE
100
AcDbLine
 10
0.0
 20
-7.0
 30
0.0
 11
25.0
 21
-7.0
 31
0.0
  0
LINE
  5
138
330
1A
100
AcDbEntity
  8
GUIDE
100
AcDbLine
 10
21.99301
 20
-10.0
 30
0.0
 11
25.0
 21
-7.0
 31
0.0
  0
LINE
  5
139
330
1A
100
AcDbEntity
  8
GUIDE
100
AcDbLine
 10
16.99301
 20
-10.0
 30
0.0
 11
16.99301
 21
-22.147491
 31
0.0
  0
LINE
  5
13A
330
1A
100
AcDbEntity
  8
AXIS
 48
10.0
100
AcDbLine
 10
65.0
 20
-26.5
 30
0.0
 11
65.0
 21
-0.5
 31
0.0
  0
LINE
  5
13B
330
1A
100
AcDbEntity
  8
AXIS
 48
10.0
100
AcDbLine
 10
49.0
 20
-26.5
 30
0.0
 11
49.0
 21
-0.5
 31
0.0
  0
LINE
  5
13C
330
1A
100
AcDbEntity
  8
GUIDE
100
AcDbLine
 10
0.0
 20
2.2
 30
0.0
 11
-26.0774
 21
2.2
 31
0.0
  0
LINE
  5
13D
330
1A
100
AcDbEntity
  8
GUIDE
100
AcDbLine
 10
-26.0774
 20
2.2
 30
0.0
 11
-40.0
 21
0.0
 31
0.0
  0
LINE
  5
13E
330
1A
100
AcDbEntity
  8
GUIDE
100
AcDbLine
 10
187.092669
 20
-12.928862
 30
0.0
 11
167.092669
 21
-12.928862
 31
0.0
  0
LINE
  5
13F
330
1A
100
AcDbEntity
  8
AXIS
 48
10.0
100
AcDbLine
 10
177.092669
 20
-26.672323
 30
0.0
 11
177.092669
 21
3.960522
 31
0.0
  0
LINE
  5
140
330
1A
100
AcDbEntity
  8
GUIDE
100
AcDbLine
 10
167.092669
 20
-12.928862
 30
0.0
 11
167.092669
 21
0.071138
 31
0.0
  0
LINE
  5
141
330
1A
100
AcDbEntity
  8
GUIDE
100
AcDbLine
 10
187.092669
 20
-12.928862
 30
0.0
 11
187.092669
 21
0.071138
 31
0.0
  0
POLYLINE
  5
142
330
1A
100
AcDbEntity
  8
GUIDE
100
AcDb2dPolyline
 66
     1
 10
0.0
 20
0.0
 30
0.0
  0
VERTEX
  5
1FF
330
142
100
AcDbEntity
  8
GUIDE
100
AcDbVertex
100
AcDb2dVertex
 10
167.092669
 20
-9.928862000000001
 30
0.0
  0
VERTEX
  5
200
330
142
100
AcDbEntity
  8
GUIDE
100
AcDbVertex
100
AcDb2dVertex
 10
155.592669
 20
-9.928862000000001
 30
0.0
  0
SEQEND
  5
1FE
330
142
100
AcDbEntity
  8
GUIDE
  0
POLYLINE
  5
146
330
1A
100
AcDbEntity
  8
GUIDE
100
AcDb2dPolyline
 66
     1
 10
0.0
 20
0.0
 30
0.0
  0
VERTEX
  5
202
330
146
100
AcDbEntity
  8
GUIDE
100
AcDbVertex
100
AcDb2dVertex
 10
155.592669
 20
-9.928862000000001
 30
0.0
  0
VERTEX
  5
203
330
146
100
AcDbEntity
  8
GUIDE
100
AcDbVertex
100
AcDb2dVertex
 10
155.592669
 20
0.071138
 30
0.0
  0
VERTEX
  5
204
330
146
100
AcDbEntity
  8
GUIDE
100
AcDbVertex
100
AcDb2dVertex
 10
198.592669
 20
0.071138
 30
0.0
  0
VERTEX
  5
205
330
146
100
AcDbEntity
  8
GUIDE
100
AcDbVertex
100
AcDb2dVertex
 10
198.592669
 20
-9.928862000000001
 30
0.0
  0
VERTEX
  5
206
330
146
100
AcDbEntity
  8
GUIDE
100
AcDbVertex
100
AcDb2dVertex
 10
187.092669
 20
-9.928862000000001
 30
0.0
  0
SEQEND
  5
201
330
146
100
AcDbEntity
  8
GUIDE
  0
POLYLINE
  5
14D
330
1A
100
AcDbEntity
  8
GUIDE
100
AcDb2dPolyline
 66
     1
 10
0.0
 20
0.0
 30
0.0
  0
VERTEX
  5
208
330
14D
100
AcDbEntity
  8
GUIDE
100
AcDbVertex
100
AcDb2dVertex
 10
162.092669
 20
-22.928862
 30
0.0
  0
VERTEX
  5
209
330
14D
100
AcDbEntity
  8
GUIDE
100
AcDbVertex
100
AcDb2dVertex
 10
162.092669
 20
-9.928862000000001
 30
0.0
  0
SEQEND
  5
207
330
14D
100
AcDbEntity
  8
GUIDE
  0
POLYLINE
  5
151
330
1A
100
AcDbEntity
  8
GUIDE
100
AcDb2dPolyline
 66
     1
 10
0.0
 20
0.0
 30
0.0
  0
VERTEX
  5
20B
330
151
100
AcDbEntity
  8
GUIDE
100
AcDbVertex
100
AcDb2dVertex
 10
192.092669
 20
-9.928862000000001
 30
0.0
  0
VERTEX
  5
20C
330
151
100
AcDbEntity
  8
GUIDE
100
AcDbVertex
100
AcDb2dVertex
 10
192.092669
 20
-22.928862
 30
0.0
  0
VERTEX
  5
20D
330
151
100
AcDbEntity
  8
GUIDE
100
AcDbVertex
100
AcDb2dVertex
 10
162.092669
 20
-22.928862
 30
0.0
  0
SEQEND
  5
20A
330
151
100
AcDbEntity
  8
GUIDE
  0
LINE
  5
156
330
1A
100
AcDbEntity
  8
GUIDE
100
AcDbLine
 10
174.092669
 20
-12.928862
 30
0.0
 11
174.092669
 21
-22.928862
 31
0.0
  0
LINE
  5
157
330
1A
100
AcDbEntity
  8
GUIDE
100
AcDbLine
 10
180.092669
 20
-12.928862
 30
0.0
 11
180.092669
 21
-22.928862
 31
0.0
  0
POLYLINE
  5
158
330
1A
100
AcDbEntity
  8
GUIDE
100
AcDb2dPolyline
 66
     1
 10
0.0
 20
0.0
 30
0.0
 70
     1
  0
VERTEX
  5
20F
330
158
100
AcDbEntity
  8
GUIDE
100
AcDbVertex
100
AcDb2dVertex
 10
175.592669
 20
0.071138
 30
0.0
  0
VERTEX
  5
210
330
158
100
AcDbEntity
  8
GUIDE
100
AcDbVertex
100
AcDb2dVertex
 10
175.592669
 20
1.271138
 30
0.0
 42
-0.414214
  0
VERTEX
  5
211
330
158
100
AcDbEntity
  8
GUIDE
100
AcDbVertex
100
AcDb2dVertex
 10
176.592669
 20
2.271138
 30
0.0
  0
VERTEX
  5
212
330
158
100
AcDbEntity
  8
GUIDE
100
AcDbVertex
100
AcDb2dVertex
 10
177.592669
 20
2.271138
 30
0.0
 42
-0.414214
  0
VERTEX
  5
213
330
158
100
AcDbEntity
  8
GUIDE
100
AcDbVertex
100
AcDb2dVertex
 10
178.592669
 20
1.271138
 30
0.0
  0
VERTEX
  5
214
330
158
100
AcDbEntity
  8
GUIDE
100
AcDbVertex
100
AcDb2dVertex
 10
178.592669
 20
0.071138
 30
0.0
  0
SEQEND
  5
20E
330
158
100
AcDbEntity
  8
GUIDE
  0
ENDSEC
  0
SECTION
  2
OBJECTS
  0
DICTIONARY
  5
C
330
0
100
AcDbDictionary
  3
ACAD_GROUP
350
D
  3
ACAD_LAYOUT
350
161
  3
ACAD_MLINESTYLE
350
E
1001
ACAD
1000
TREAT_AS_HARD
1070
     0
  0
DICTIONARY
  5
215
330
160
100
AcDbDictionary
  3
ACAD_XREC_ROUNDTRIP
360
216
  0
DICTIONARY
  5
D
102
{ACAD_REACTORS
330
C
102
}
330
C
100
AcDbDictionary
1001
ACAD
1000
TREAT_AS_HARD
1070
     0
  0
DICTIONARY
  5
161
102
{ACAD_REACTORS
330
C
102
}
330
C
100
AcDbDictionary
1001
ACAD
1000
TREAT_AS_HARD
1070
     0
  0
DICTIONARY
  5
E
102
{ACAD_REACTORS
330
C
102
}
330
C
100
AcDbDictionary
  3
STANDARD
350
13
1001
ACAD
1000
TREAT_AS_HARD
1070
     0
  0
XRECORD
  5
216
102
{ACAD_REACTORS
330
215
102
}
330
215
100
AcDbXrecord
102
UCS
 74
     0
 71
     1
 10
0.0
 20
0.0
 30
0.0
 10
1.0
 20
0.0
 30
0.0
 10
0.0
 20
1.0
 30
0.0
146
0.0
 79
     0
102
VIEW
281
     0
  0
MLINESTYLE
  5
13
102
{ACAD_REACTORS
330
E
102
}
330
E
100
AcDbMlineStyle
  2
STANDARD
 70
     0
  3

 62
     0
 51
90.0
 52
90.0
 71
     2
 49
0.5
 62
   256
  6
BYLAYER
 49
-0.5
 62
   256
  6
BYLAYER
  0
ENDSEC
  0
EOF
