  0
SECTION
  2
HEADER
  9
$ACADVER
  1
AC1012
  9
$DWGCODEPAGE
  3
ansi_1252
  9
$INSBASE
 10
0.0
 20
0.0
 30
0.0
  9
$EXTMIN
 10
-42.033363
 20
-16.771076
 30
0.0
  9
$EXTMAX
 10
195.903101
 20
359.729408
 30
0.0
  9
$LIMMIN
 10
0.0
 20
0.0
  9
$LIMMAX
 10
12.0
 20
9.0
  9
$ORTHOMODE
 70
     1
  9
$REGENMODE
 70
     1
  9
$FILLMODE
 70
     1
  9
$QTEXTMODE
 70
     0
  9
$MIRRTEXT
 70
     1
  9
$DRAGMODE
 70
     2
  9
$LTSCALE
 40
1.0
  9
$OSMODE
 70
    37
  9
$ATTMODE
 70
     1
  9
$TEXTSIZE
 40
0.2
  9
$TRACEWID
 40
0.05
  9
$TEXTSTYLE
  7
STANDARD
  9
$CLAYER
  8
0
  9
$CELTYPE
  6
BYLAYER
  9
$CECOLOR
 62
   256
  9
$CELTSCALE
 40
1.0
  9
$DELOBJ
 70
     1
  9
$DISPSILH
 70
     0
  9
$DIMSCALE
 40
1.0
  9
$DIMASZ
 40
0.18
  9
$DIMEXO
 40
0.0625
  9
$DIMDLI
 40
0.38
  9
$DIMRND
 40
0.0
  9
$DIMDLE
 40
0.0
  9
$DIMEXE
 40
0.18
  9
$DIMTP
 40
0.0
  9
$DIMTM
 40
0.0
  9
$DIMTXT
 40
0.18
  9
$DIMCEN
 40
0.09
  9
$DIMTSZ
 40
0.0
  9
$DIMTOL
 70
     0
  9
$DIMLIM
 70
     0
  9
$DIMTIH
 70
     1
  9
$DIMTOH
 70
     1
  9
$DIMSE1
 70
     0
  9
$DIMSE2
 70
     0
  9
$DIMTAD
 70
     0
  9
$DIMZIN
 70
     0
  9
$DIMBLK
  1

  9
$DIMASO
 70
     1
  9
$DIMSHO
 70
     1
  9
$DIMPOST
  1

  9
$DIMAPOST
  1

  9
$DIMALT
 70
     0
  9
$DIMALTD
 70
     2
  9
$DIMALTF
 40
25.4
  9
$DIMLFAC
 40
1.0
  9
$DIMTOFL
 70
     0
  9
$DIMTVP
 40
0.0
  9
$DIMTIX
 70
     0
  9
$DIMSOXD
 70
     0
  9
$DIMSAH
 70
     0
  9
$DIMBLK1
  1

  9
$DIMBLK2
  1

  9
$DIMSTYLE
  2
STANDARD
  9
$DIMCLRD
 70
     0
  9
$DIMCLRE
 70
     0
  9
$DIMCLRT
 70
     0
  9
$DIMTFAC
 40
1.0
  9
$DIMGAP
 40
0.09
  9
$DIMJUST
 70
     0
  9
$DIMSD1
 70
     0
  9
$DIMSD2
 70
     0
  9
$DIMTOLJ
 70
     1
  9
$DIMTZIN
 70
     0
  9
$DIMALTZ
 70
     0
  9
$DIMALTTZ
 70
     0
  9
$DIMFIT
 70
     3
  9
$DIMUPT
 70
     0
  9
$DIMUNIT
 70
     2
  9
$DIMDEC
 70
     4
  9
$DIMTDEC
 70
     4
  9
$DIMALTU
 70
     2
  9
$DIMALTTD
 70
     2
  9
$DIMTXSTY
  7
STANDARD
  9
$DIMAUNIT
 70
     0
  9
$LUNITS
 70
     2
  9
$LUPREC
 70
     4
  9
$SKETCHINC
 40
0.1
  9
$FILLETRAD
 40
0.0
  9
$AUNITS
 70
     0
  9
$AUPREC
 70
     0
  9
$MENU
  1
acad
  9
$ELEVATION
 40
0.0
  9
$PELEVATION
 40
0.0
  9
$THICKNESS
 40
0.0
  9
$LIMCHECK
 70
     0
  9
$CHAMFERA
 40
0.0
  9
$CHAMFERB
 40
0.0
  9
$CHAMFERC
 40
0.0
  9
$CHAMFERD
 40
0.0
  9
$SKPOLY
 70
     0
  9
$TDCREATE
 40
2447893.083333334
  9
$TDUPDATE
 40
2447893.083333334
  9
$TDINDWG
 40
0.0023489583
  9
$TDUSRTIMER
 40
0.0023489583
  9
$USRTIMER
 70
     1
  9
$ANGBASE
 50
0.0
  9
$ANGDIR
 70
     0
  9
$PDMODE
 70
     0
  9
$PDSIZE
 40
0.0
  9
$PLINEWID
 40
0.0
  9
$COORDS
 70
     1
  9
$SPLFRAME
 70
     0
  9
$SPLINETYPE
 70
     6
  9
$SPLINESEGS
 70
     8
  9
$ATTDIA
 70
     0
  9
$ATTREQ
 70
     1
  9
$HANDLING
 70
     1
  9
$HANDSEED
  5
3CF
  9
$SURFTAB1
 70
     6
  9
$SURFTAB2
 70
     6
  9
$SURFTYPE
 70
     6
  9
$SURFU
 70
     6
  9
$SURFV
 70
     6
  9
$UCSNAME
  2

  9
$UCSORG
 10
0.0
 20
0.0
 30
0.0
  9
$UCSXDIR
 10
1.0
 20
0.0
 30
0.0
  9
$UCSYDIR
 10
0.0
 20
1.0
 30
0.0
  9
$PUCSNAME
  2

  9
$PUCSORG
 10
0.0
 20
0.0
 30
0.0
  9
$PUCSXDIR
 10
1.0
 20
0.0
 30
0.0
  9
$PUCSYDIR
 10
0.0
 20
1.0
 30
0.0
  9
$USERI1
 70
     0
  9
$USERI2
 70
     0
  9
$USERI3
 70
     0
  9
$USERI4
 70
     0
  9
$USERI5
 70
     0
  9
$USERR1
 40
0.0
  9
$USERR2
 40
0.0
  9
$USERR3
 40
0.0
  9
$USERR4
 40
0.0
  9
$USERR5
 40
0.0
  9
$WORLDVIEW
 70
     1
  9
$SHADEDGE
 70
     3
  9
$SHADEDIF
 70
    70
  9
$TILEMODE
 70
     1
  9
$MAXACTVP
 70
    16
  9
$PINSBASE
 10
0.0
 20
0.0
 30
0.0
  9
$PLIMCHECK
 70
     0
  9
$PEXTMIN
 10
1.000000000000000E+20
 20
1.000000000000000E+20
 30
1.000000000000000E+20
  9
$PEXTMAX
 10
-1.000000000000000E+20
 20
-1.000000000000000E+20
 30
-1.000000000000000E+20
  9
$PLIMMIN
 10
0.0
 20
0.0
  9
$PLIMMAX
 10
12.0
 20
9.0
  9
$UNITMODE
 70
     0
  9
$VISRETAIN
 70
     0
  9
$PLINEGEN
 70
     0
  9
$PSLTSCALE
 70
     1
  9
$TREEDEPTH
 70
  3020
  9
$PICKSTYLE
 70
     1
  9
$CMLSTYLE
  2
STANDARD
  9
$CMLJUST
 70
     0
  9
$CMLSCALE
 40
1.0
  9
$SAVEIMAGES
 70
     1
  0
ENDSEC
  0
SECTION
  2
CLASSES
  0
CLASS
  1
XRECORD
  2
AcDbXrecord
  3
AutoCAD 2000
 90
    32768
280
     0
281
     0
  0
CLASS
  1
LWPOLYLINE
  2
AcDbPolyline
  3
AutoCAD 2000
 90
    32768
280
     0
281
     1
  0
CLASS
  1
HATCH
  2
AcDbHatch
  3
AutoCAD 2000
 90
    32768
280
     0
281
     1
  0
CLASS
  1
ACDBPLACEHOLDER
  2
AcDbPlaceHolder
  3
ObjectDBX Classes
 90
        0
280
     0
281
     0
  0
CLASS
  1
LAYOUT
  2
AcDbLayout
  3
ObjectDBX Classes
 90
        0
280
     0
281
     0
  0
ENDSEC
  0
SECTION
  2
TABLES
  0
TABLE
  2
VPORT
  5
8
330
0
100
AcDbSymbolTable
 70
     1
  0
VPORT
  5
2AA
102
{ACAD_XDICTIONARY
360
3CD
102
}
330
8
100
AcDbSymbolTableRecord
100
AcDbViewportTableRecord
  2
*ACTIVE
 70
     0
 10
0.0
 20
0.0
 11
1.0
 21
1.0
 12
317.739187
 22
171.89338
 13
0.0
 23
0.0
 14
1.0
 24
1.0
 15
0.0
 25
0.0
 16
0.0
 26
0.0
 36
1.0
 17
0.0
 27
0.0
 37
0.0
 40
375.672056
 41
1.915354
 42
50.0
 43
0.0
 44
0.0
 50
0.0
 51
0.0
 71
     0
 72
   100
 73
     1
 74
     1
 75
     0
 76
     0
 77
     0
 78
     0
  0
ENDTAB
  0
TABLE
  2
LTYPE
  5
5
330
0
100
AcDbSymbolTable
 70
     3
  0
LTYPE
  5
14
330
5
100
AcDbSymbolTableRecord
100
AcDbLinetypeTableRecord
  2
BYBLOCK
 70
     0
  3

 72
    65
 73
     0
 40
0.0
  0
LTYPE
  5
15
330
5
100
AcDbSymbolTableRecord
100
AcDbLinetypeTableRecord
  2
BYLAYER
 70
     0
  3

 72
    65
 73
     0
 40
0.0
  0
LTYPE
  5
16
330
5
100
AcDbSymbolTableRecord
100
AcDbLinetypeTableRecord
  2
CONTINUOUS
 70
     0
  3
Solid line
 72
    65
 73
     0
 40
0.0
  0
LTYPE
  5
28
330
5
100
AcDbSymbolTableRecord
100
AcDbLinetypeTableRecord
  2
DASHDOT
 70
     0
  3
__ . __ . __ . __ . __ . __ . __ . __ . __ . __
 72
    65
 73
     4
 40
1.0
 49
0.5
 74
     0
 49
-0.25
 74
     0
 49
0.0
 74
     0
 49
-0.25
 74
     0
  0
LTYPE
  5
113
330
5
100
AcDbSymbolTableRecord
100
AcDbLinetypeTableRecord
  2
HIDDEN
 70
     0
  3
__ __ __ __ __ __ __ __ __ __ __ __ __ __ __ __
 72
    65
 73
     2
 40
0.375
 49
0.25
 74
     0
 49
-0.125
 74
     0
  0
ENDTAB
  0
TABLE
  2
LAYER
  5
2
330
0
100
AcDbSymbolTable
 70
     3
  0
LAYER
  5
F
330
2
100
AcDbSymbolTableRecord
100
AcDbLayerTableRecord
  2
0
 70
     0
 62
     7
  6
CONTINUOUS
  0
LAYER
  5
29
330
2
100
AcDbSymbolTableRecord
100
AcDbLayerTableRecord
  2
BRACKET
 70
     0
 62
     5
  6
CONTINUOUS
  0
LAYER
  5
2A
330
2
100
AcDbSymbolTableRecord
100
AcDbLayerTableRecord
  2
AXIS
 70
     0
 62
     1
  6
DASHDOT
  0
ENDTAB
  0
TABLE
  2
STYLE
  5
3
330
0
100
AcDbSymbolTable
 70
     1
  0
STYLE
  5
10
330
3
100
AcDbSymbolTableRecord
100
AcDbTextStyleTableRecord
  2
STANDARD
 70
     0
 40
0.0
 41
1.0
 50
0.0
 71
     0
 42
0.2
  3
txt
  4

  0
ENDTAB
  0
TABLE
  2
VIEW
  5
6
330
0
100
AcDbSymbolTable
 70
     0
  0
ENDTAB
  0
TABLE
  2
UCS
  5
7
330
0
100
AcDbSymbolTable
 70
     0
  0
ENDTAB
  0
TABLE
  2
APPID
  5
9
330
0
100
AcDbSymbolTable
 70
     1
  0
APPID
  5
11
330
9
100
AcDbSymbolTableRecord
100
AcDbRegAppTableRecord
  2
ACAD
 70
     0
  0
ENDTAB
  0
TABLE
  2
DIMSTYLE
  5
A
330
0
100
AcDbSymbolTable
 70
     1
  0
DIMSTYLE
105
1D
330
A
100
AcDbSymbolTableRecord
100
AcDbDimStyleTableRecord
  2
STANDARD
 70
     0
  3

  4

  5

  6

  7

 40
1.0
 41
0.18
 42
0.0625
 43
0.38
 44
0.18
 45
0.0
 46
0.0
 47
0.0
 48
0.0
140
0.18
141
0.09
142
0.0
143
25.4
144
1.0
145
0.0
146
1.0
147
0.09
 71
     0
 72
     0
 73
     1
 74
     1
 75
     0
 76
     0
 77
     0
 78
     0
170
     0
171
     2
172
     0
173
     0
174
     0
175
     0
176
     0
177
     0
178
     0
270
     2
271
     4
272
     4
273
     2
274
     2
340
10
275
     0
280
     0
281
     0
282
     0
283
     1
284
     0
285
     0
286
     0
287
     3
288
     0
  0
ENDTAB
  0
TABLE
  2
BLOCK_RECORD
  5
1
330
0
100
AcDbSymbolTable
 70
     0
  0
BLOCK_RECORD
  5
1A
330
1
100
AcDbSymbolTableRecord
100
AcDbBlockTableRecord
  2
*MODEL_SPACE
  0
BLOCK_RECORD
  5
17
330
1
100
AcDbSymbolTableRecord
100
AcDbBlockTableRecord
  2
*PAPER_SPACE
  0
ENDTAB
  0
ENDSEC
  0
SECTION
  2
BLOCKS
  0
BLOCK
  5
1B
330
1A
100
AcDbEntity
  8
0
100
AcDbBlockBegin
  2
*MODEL_SPACE
 70
     0
 71
     0
 10
0.0
 20
0.0
 30
0.0
  3
*MODEL_SPACE
  1

  0
ENDBLK
  5
1C
330
1A
100
AcDbEntity
  8
0
100
AcDbBlockEnd
  0
BLOCK
  5
18
330
17
100
AcDbEntity
 67
     1
  8
0
100
AcDbBlockBegin
  2
*PAPER_SPACE
 70
     0
 71
     0
 10
0.0
 20
0.0
 30
0.0
  3
*PAPER_SPACE
  1

  0
ENDBLK
  5
19
330
17
100
AcDbEntity
 67
     1
  8
0
100
AcDbBlockEnd
  0
ENDSEC
  0
SECTION
  2
ENTITIES
  0
POLYLINE
  5
174
330
1A
100
AcDbEntity
  8
BRACKET
100
AcDb2dPolyline
 66
     1
 10
0.0
 20
0.0
 30
0.0
  0
VERTEX
  5
352
330
174
100
AcDbEntity
  8
BRACKET
100
AcDbVertex
100
AcDb2dVertex
 10
17.043254
 20
268.229401
 30
0.0
  0
VERTEX
  5
353
330
174
100
AcDbEntity
  8
BRACKET
100
AcDbVertex
100
AcDb2dVertex
 10
17.043254
 20
313.117758
 30
0.0
  0
SEQEND
  5
351
330
174
100
AcDbEntity
  8
BRACKET
  0
POLYLINE
  5
178
330
1A
100
AcDbEntity
  8
BRACKET
100
AcDb2dPolyline
 66
     1
 10
0.0
 20
0.0
 30
0.0
  0
VERTEX
  5
355
330
178
100
AcDbEntity
  8
BRACKET
100
AcDbVertex
100
AcDb2dVertex
 10
53.043254
 20
313.117758
 30
0.0
  0
VERTEX
  5
356
330
178
100
AcDbEntity
  8
BRACKET
100
AcDbVertex
100
AcDb2dVertex
 10
53.043254
 20
268.229401
 30
0.0
  0
SEQEND
  5
354
330
178
100
AcDbEntity
  8
BRACKET
  0
LINE
  5
17C
330
1A
100
AcDbEntity
  8
AXIS
 48
10.0
100
AcDbLine
 10
-17.642198
 20
288.229401
 30
0.0
 11
73.10342799999999
 21
288.229401
 31
0.0
  0
LINE
  5
17D
330
1A
100
AcDbEntity
  8
BRACKET
100
AcDbLine
 10
-6.956746
 20
281.229401
 30
0.0
 11
-6.956746
 21
295.229401
 31
0.0
  0
POLYLINE
  5
17E
330
1A
100
AcDbEntity
  8
BRACKET
100
AcDb2dPolyline
 66
     1
 10
0.0
 20
0.0
 30
0.0
  0
VERTEX
  5
358
330
17E
100
AcDbEntity
  8
BRACKET
100
AcDbVertex
100
AcDb2dVertex
 10
53.043254
 20
295.229401
 30
0.0
  0
VERTEX
  5
359
330
17E
100
AcDbEntity
  8
BRACKET
100
AcDbVertex
100
AcDb2dVertex
 10
63.043254
 20
295.229401
 30
0.0
  0
VERTEX
  5
35A
330
17E
100
AcDbEntity
  8
BRACKET
100
AcDbVertex
100
AcDb2dVertex
 10
63.043254
 20
281.229401
 30
0.0
  0
VERTEX
  5
35B
330
17E
100
AcDbEntity
  8
BRACKET
100
AcDbVertex
100
AcDb2dVertex
 10
53.043254
 20
281.229401
 30
0.0
  0
SEQEND
  5
357
330
17E
100
AcDbEntity
  8
BRACKET
  0
LINE
  5
184
330
1A
100
AcDbEntity
  8
BRACKET
100
AcDbLine
 10
17.043254
 20
268.229401
 30
0.0
 11
53.043254
 21
268.229401
 31
0.0
  0
ARC
  5
185
330
1A
100
AcDbEntity
  8
BRACKET
100
AcDbCircle
 10
-17.138292
 20
233.392815
 30
0.0
 40
31.185796
100
AcDbArc
 50
272.171304
 51
359.054167
  0
LINE
  5
186
330
1A
100
AcDbEntity
  8
BRACKET
100
AcDbLine
 10
55.782866
 20
196.446834
 30
0.0
 11
15.188171
 21
73.636892
 31
0.0
  0
ARC
  5
187
330
1A
100
AcDbEntity
  8
BRACKET
100
AcDbCircle
 10
10.44856
 20
75.229401
 30
0.0
 40
5.0
100
AcDbArc
 50
270.0
 51
341.427651
  0
LINE
  5
188
330
1A
100
AcDbEntity
  8
BRACKET
100
AcDbLine
 10
-6.956746
 20
68.229401
 30
0.0
 11
-15.956746
 21
68.229401
 31
0.0
  0
LINE
  5
189
330
1A
100
AcDbEntity
  8
BRACKET
100
AcDbLine
 10
14.043254
 20
232.878026
 30
0.0
 11
14.043254
 21
263.229401
 31
0.0
  0
ARC
  5
18A
330
1A
100
AcDbEntity
  8
BRACKET
100
AcDbCircle
 10
19.043254
 20
263.229401
 30
0.0
 40
5.0
100
AcDbArc
 50
90.0
 51
180.0
  0
LINE
  5
18B
330
1A
100
AcDbEntity
  8
BRACKET
100
AcDbLine
 10
19.043254
 20
268.229401
 30
0.0
 11
51.043254
 21
268.229401
 31
0.0
  0
ARC
  5
18C
330
1A
100
AcDbEntity
  8
BRACKET
100
AcDbCircle
 10
51.043254
 20
263.229401
 30
0.0
 40
5.0
100
AcDbArc
 50
0.0
 51
90.0
  0
LINE
  5
18D
330
1A
100
AcDbEntity
  8
BRACKET
100
AcDbLine
 10
56.043254
 20
263.229401
 30
0.0
 11
56.043254
 21
198.039343
 31
0.0
  0
ARC
  5
18E
330
1A
100
AcDbEntity
  8
BRACKET
100
AcDbCircle
 10
51.043254
 20
198.039343
 30
0.0
 40
5.0
100
AcDbArc
 50
341.427651
 51
0.0
  0
LINE
  5
18F
330
1A
100
AcDbEntity
  8
AXIS
 48
10.0
100
AcDbLine
 10
35.043254
 20
242.778499
 30
0.0
 11
35.043254
 21
278.668695
 31
0.0
  0
LINE
  5
190
330
1A
100
AcDbEntity
  8
AXIS
 48
10.0
100
AcDbLine
 10
10.119872
 20
83.479401
 30
0.0
 11
-42.033363
 21
83.479401
 31
0.0
  0
LINE
  5
191
330
1A
100
AcDbEntity
  8
AXIS
 48
10.0
100
AcDbLine
 10
10.119872
 20
126.479401
 30
0.0
 11
-42.033363
 21
126.479401
 31
0.0
  0
LINE
  5
192
330
1A
100
AcDbEntity
  8
AXIS
 48
10.0
100
AcDbLine
 10
10.119872
 20
139.979401
 30
0.0
 11
-42.033363
 21
139.979401
 31
0.0
  0
LINE
  5
193
330
1A
100
AcDbEntity
  8
AXIS
 48
10.0
100
AcDbLine
 10
10.119872
 20
182.979401
 30
0.0
 11
-42.033363
 21
182.979401
 31
0.0
  0
LINE
  5
194
330
1A
100
AcDbEntity
  8
BRACKET
100
AcDbLine
 10
-6.956746
 20
68.229401
 30
0.0
 11
10.44856
 21
70.229401
 31
0.0
  0
ARC
  5
195
330
1A
100
AcDbEntity
  8
BRACKET
100
AcDbCircle
 10
30.293254
 20
319.758383
 30
0.0
 40
6.640625
100
AcDbArc
 50
224.332692
 51
315.667308
  0
ARC
  5
196
330
1A
100
AcDbEntity
  8
BRACKET
100
AcDbCircle
 10
39.793254
 20
319.758383
 30
0.0
 40
6.640625
100
AcDbArc
 50
224.332692
 51
315.667308
  0
LINE
  5
197
330
1A
100
AcDbEntity
  8
BRACKET
100
AcDbLine
 10
60.043254
 20
354.841001
 30
0.0
 11
60.043254
 21
351.341001
 31
0.0
  0
LINE
  5
198
330
1A
100
AcDbEntity
  8
BRACKET
100
AcDbLine
 10
40.043254
 20
359.729358
 30
0.0
 11
35.043254
 21
359.729358
 31
0.0
  0
LINE
  5
199
330
1A
100
AcDbEntity
  8
BRACKET
100
AcDbLine
 10
41.043254
 20
354.229358
 30
0.0
 11
35.043254
 21
354.229358
 31
0.0
  0
LINE
  5
19A
330
1A
100
AcDbEntity
  8
BRACKET
100
AcDbLine
 10
46.543254
 20
325.117758
 30
0.0
 11
35.043254
 21
325.117758
 31
0.0
  0
LINE
  5
19B
330
1A
100
AcDbEntity
  8
BRACKET
100
AcDbLine
 10
46.543254
 20
341.84166
 30
0.0
 11
46.543254
 21
325.117758
 31
0.0
  0
LINE
  5
19C
330
1A
100
AcDbEntity
  8
BRACKET
100
AcDbLine
 10
59.450986
 20
356.617805
 30
0.0
 11
60.043254
 21
354.841001
 31
0.0
  0
LINE
  5
19D
330
1A
100
AcDbEntity
  8
BRACKET
100
AcDbLine
 10
60.043254
 20
351.341001
 30
0.0
 11
53.000425
 21
345.541024
 31
0.0
  0
ARC
  5
19E
330
1A
100
AcDbEntity
  8
BRACKET
100
AcDbCircle
 10
57.55362
 20
355.373707
 30
0.0
 40
2.0
100
AcDbArc
 50
18.434949
 51
84.05313700000001
  0
ARC
  5
19F
330
1A
100
AcDbEntity
  8
BRACKET
100
AcDbCircle
 10
56.909913
 20
328.458083
 30
0.0
 40
16.928903
100
AcDbArc
 50
103.352167
 51
127.760668
  0
LINE
  5
1A0
330
1A
100
AcDbEntity
  8
BRACKET
100
AcDbLine
 10
40.043254
 20
359.729358
 30
0.0
 11
57.760832
 21
357.362944
 31
0.0
  0
ARC
  5
1A1
330
1A
100
AcDbEntity
  8
BRACKET
100
AcDbCircle
 10
53.088362
 20
336.129759
 30
0.0
 40
21.741208
100
AcDbArc
 50
77.589573
 51
123.64338
  0
ARC
  5
1A2
330
1A
100
AcDbEntity
  8
BRACKET
100
AcDbCircle
 10
45.687848
 20
347.202781
 30
0.0
 40
5.046449
100
AcDbArc
 50
203.019954
 51
279.759127
  0
LINE
  5
1A3
330
1A
100
AcDbEntity
  8
BRACKET
100
AcDbLine
 10
41.043254
 20
354.229358
 30
0.0
 11
41.043254
 21
345.229358
 31
0.0
  0
LINE
  5
1A4
330
1A
100
AcDbEntity
  8
BRACKET
100
AcDbLine
 10
41.043254
 20
345.229358
 30
0.0
 11
35.043254
 21
345.229358
 31
0.0
  0
LINE
  5
1A5
330
1A
100
AcDbEntity
  8
BRACKET
100
AcDbLine
 10
29.043254
 20
345.229358
 30
0.0
 11
35.043254
 21
345.229358
 31
0.0
  0
LINE
  5
1A6
330
1A
100
AcDbEntity
  8
BRACKET
100
AcDbLine
 10
29.043254
 20
354.229358
 30
0.0
 11
29.043254
 21
345.229358
 31
0.0
  0
ARC
  5
1A7
330
1A
100
AcDbEntity
  8
BRACKET
100
AcDbCircle
 10
24.39866
 20
347.202781
 30
0.0
 40
5.046449
100
AcDbArc
 50
260.240873
 51
336.980046
  0
ARC
  5
1A8
330
1A
100
AcDbEntity
  8
BRACKET
100
AcDbCircle
 10
16.998147
 20
336.129759
 30
0.0
 40
21.741208
100
AcDbArc
 50
56.35662
 51
102.410427
  0
LINE
  5
1A9
330
1A
100
AcDbEntity
  8
BRACKET
100
AcDbLine
 10
30.043254
 20
359.729358
 30
0.0
 11
12.325677
 21
357.362944
 31
0.0
  0
ARC
  5
1AA
330
1A
100
AcDbEntity
  8
BRACKET
100
AcDbCircle
 10
13.176595
 20
328.458083
 30
0.0
 40
16.928903
100
AcDbArc
 50
52.239332
 51
76.64783300000001
  0
ARC
  5
1AB
330
1A
100
AcDbEntity
  8
BRACKET
100
AcDbCircle
 10
12.532889
 20
355.373707
 30
0.0
 40
2.0
100
AcDbArc
 50
95.94686299999999
 51
161.565051
  0
LINE
  5
1AC
330
1A
100
AcDbEntity
  8
BRACKET
100
AcDbLine
 10
10.043254
 20
350.729358
 30
0.0
 11
17.086083
 21
344.929381
 31
0.0
  0
LINE
  5
1AD
330
1A
100
AcDbEntity
  8
BRACKET
100
AcDbLine
 10
10.635523
 20
356.006162
 30
0.0
 11
10.043254
 21
354.229358
 31
0.0
  0
LINE
  5
1AE
330
1A
100
AcDbEntity
  8
BRACKET
100
AcDbLine
 10
23.543254
 20
341.84166
 30
0.0
 11
23.543254
 21
325.117758
 31
0.0
  0
LINE
  5
1AF
330
1A
100
AcDbEntity
  8
BRACKET
100
AcDbLine
 10
23.543254
 20
325.117758
 30
0.0
 11
35.043254
 21
325.117758
 31
0.0
  0
LINE
  5
1B0
330
1A
100
AcDbEntity
  8
BRACKET
100
AcDbLine
 10
29.043254
 20
354.229358
 30
0.0
 11
35.043254
 21
354.229358
 31
0.0
  0
LINE
  5
1B1
330
1A
100
AcDbEntity
  8
BRACKET
100
AcDbLine
 10
30.043254
 20
359.729358
 30
0.0
 11
35.043254
 21
359.729358
 31
0.0
  0
LINE
  5
1B2
330
1A
100
AcDbEntity
  8
BRACKET
100
AcDbLine
 10
10.043254
 20
354.229358
 30
0.0
 11
10.043254
 21
350.729358
 31
0.0
  0
LINE
  5
1B3
330
1A
100
AcDbEntity
  8
BRACKET
100
AcDbLine
 10
25.543254
 20
323.117758
 30
0.0
 11
25.543254
 21
315.117758
 31
0.0
  0
LINE
  5
1B4
330
1A
100
AcDbEntity
  8
BRACKET
100
AcDbLine
 10
44.543254
 20
315.117758
 30
0.0
 11
44.543254
 21
323.117758
 31
0.0
  0
LINE
  5
1B5
330
1A
100
AcDbEntity
  8
BRACKET
100
AcDbLine
 10
39.793254
 20
325.117758
 30
0.0
 11
35.043254
 21
325.117758
 31
0.0
  0
LINE
  5
1B6
330
1A
100
AcDbEntity
  8
BRACKET
100
AcDbLine
 10
35.043254
 20
325.117758
 30
0.0
 11
30.293254
 21
325.117758
 31
0.0
  0
ARC
  5
1B7
330
1A
100
AcDbEntity
  8
BRACKET
100
AcDbCircle
 10
30.293254
 20
318.477133
 30
0.0
 40
6.640625
100
AcDbArc
 50
44.33269200000001
 51
135.667308
  0
ARC
  5
1B8
330
1A
100
AcDbEntity
  8
BRACKET
100
AcDbCircle
 10
39.793254
 20
318.477133
 30
0.0
 40
6.640625
100
AcDbArc
 50
44.33269200000001
 51
135.667308
  0
LINE
  5
1B9
330
1A
100
AcDbEntity
  8
BRACKET
100
AcDbLine
 10
35.043254
 20
323.117758
 30
0.0
 11
35.043254
 21
315.117758
 31
0.0
  0
POLYLINE
  5
1BA
330
1A
100
AcDbEntity
  8
BRACKET
100
AcDb2dPolyline
 66
     1
 10
0.0
 20
0.0
 30
0.0
  0
VERTEX
  5
35D
330
1BA
100
AcDbEntity
  8
BRACKET
100
AcDbVertex
100
AcDb2dVertex
 10
-15.956746
 20
68.229401
 30
0.0
  0
VERTEX
  5
35E
330
1BA
100
AcDbEntity
  8
BRACKET
100
AcDbVertex
100
AcDb2dVertex
 10
-15.956746
 20
198.22941
 30
0.0
  0
SEQEND
  5
35C
330
1BA
100
AcDbEntity
  8
BRACKET
  0
POLYLINE
  5
1BE
330
1A
100
AcDbEntity
  8
BRACKET
100
AcDb2dPolyline
 66
     1
 10
0.0
 20
0.0
 30
0.0
  0
VERTEX
  5
360
330
1BE
100
AcDbEntity
  8
BRACKET
100
AcDbVertex
100
AcDb2dVertex
 10
-19.956746
 20
198.22941
 30
0.0
  0
VERTEX
  5
361
330
1BE
100
AcDbEntity
  8
BRACKET
100
AcDbVertex
100
AcDb2dVertex
 10
-19.956746
 20
202.22941
 30
0.0
  0
VERTEX
  5
362
330
1BE
100
AcDbEntity
  8
BRACKET
100
AcDbVertex
100
AcDb2dVertex
 10
-15.956746
 20
202.22941
 30
0.0
  0
SEQEND
  5
35F
330
1BE
100
AcDbEntity
  8
BRACKET
  0
POLYLINE
  5
1C3
330
1A
100
AcDbEntity
  8
BRACKET
100
AcDb2dPolyline
 66
     1
 10
0.0
 20
0.0
 30
0.0
  0
VERTEX
  5
364
330
1C3
100
AcDbEntity
  8
BRACKET
100
AcDbVertex
100
AcDb2dVertex
 10
-15.956746
 20
198.22941
 30
0.0
  0
VERTEX
  5
365
330
1C3
100
AcDbEntity
  8
BRACKET
100
AcDbVertex
100
AcDb2dVertex
 10
-19.956746
 20
198.22941
 30
0.0
  0
SEQEND
  5
363
330
1C3
100
AcDbEntity
  8
BRACKET
  0
LINE
  5
1C7
330
1A
100
AcDbEntity
  8
BRACKET
100
AcDbLine
 10
17.043254
 20
313.117758
 30
0.0
 11
53.043254
 21
313.117758
 31
0.0
  0
LINE
  5
1C8
330
1A
100
AcDbEntity
  8
BRACKET
100
AcDbLine
 10
17.043254
 20
313.117758
 30
0.0
 11
53.043254
 21
313.117758
 31
0.0
  0
LINE
  5
1C9
330
1A
100
AcDbEntity
  8
BRACKET
100
AcDbLine
 10
15.043254
 20
278.729401
 30
0.0
 11
17.043254
 21
278.729401
 31
0.0
  0
LINE
  5
1CA
330
1A
100
AcDbEntity
  8
BRACKET
100
AcDbLine
 10
15.043254
 20
297.729401
 30
0.0
 11
17.043254
 21
297.729401
 31
0.0
  0
LINE
  5
1CB
330
1A
100
AcDbEntity
  8
BRACKET
100
AcDbLine
 10
15.043254
 20
297.729401
 30
0.0
 11
15.043254
 21
278.729401
 31
0.0
  0
POLYLINE
  5
1CC
330
1A
100
AcDbEntity
  8
BRACKET
100
AcDb2dPolyline
 66
     1
 10
0.0
 20
0.0
 30
0.0
  0
VERTEX
  5
367
330
1CC
100
AcDbEntity
  8
BRACKET
100
AcDbVertex
100
AcDb2dVertex
 10
15.043254
 20
281.229401
 30
0.0
  0
VERTEX
  5
368
330
1CC
100
AcDbEntity
  8
BRACKET
100
AcDbVertex
100
AcDb2dVertex
 10
-6.956746
 20
281.229401
 30
0.0
  0
VERTEX
  5
369
330
1CC
100
AcDbEntity
  8
BRACKET
100
AcDbVertex
100
AcDb2dVertex
 10
-8.956746000000001
 20
283.229401
 30
0.0
  0
SEQEND
  5
366
330
1CC
100
AcDbEntity
  8
BRACKET
  0
POLYLINE
  5
1D1
330
1A
100
AcDbEntity
  8
BRACKET
100
AcDb2dPolyline
 66
     1
 10
0.0
 20
0.0
 30
0.0
  0
VERTEX
  5
36B
330
1D1
100
AcDbEntity
  8
BRACKET
100
AcDbVertex
100
AcDb2dVertex
 10
-8.956746000000001
 20
283.229401
 30
0.0
  0
VERTEX
  5
36C
330
1D1
100
AcDbEntity
  8
BRACKET
100
AcDbVertex
100
AcDb2dVertex
 10
-8.956746000000001
 20
293.229401
 30
0.0
  0
VERTEX
  5
36D
330
1D1
100
AcDbEntity
  8
BRACKET
100
AcDbVertex
100
AcDb2dVertex
 10
-6.956746
 20
295.229401
 30
0.0
  0
VERTEX
  5
36E
330
1D1
100
AcDbEntity
  8
BRACKET
100
AcDbVertex
100
AcDb2dVertex
 10
15.043254
 20
295.229401
 30
0.0
  0
SEQEND
  5
36A
330
1D1
100
AcDbEntity
  8
BRACKET
  0
LINE
  5
1D7
330
1A
100
AcDbEntity
  8
BRACKET
100
AcDbLine
 10
-15.956746
 20
29.557352
 30
0.0
 11
-15.956746
 21
-8.442648
 31
0.0
  0
LINE
  5
1D8
330
1A
100
AcDbEntity
  8
BRACKET
100
AcDbLine
 10
-15.956746
 20
29.557352
 30
0.0
 11
23.043254
 21
29.557352
 31
0.0
  0
LINE
  5
1D9
330
1A
100
AcDbEntity
  8
BRACKET
100
AcDbLine
 10
-15.956746
 20
-8.442648
 30
0.0
 11
23.043254
 21
-8.442648
 31
0.0
  0
LINE
  5
1DA
330
1A
100
AcDbEntity
  8
AXIS
100
AcDbLine
 10
-22.391798
 20
10.557352
 30
0.0
 11
72.54325400000001
 21
10.557352
 31
0.0
  0
ARC
  5
1DB
330
1A
100
AcDbEntity
  8
BRACKET
100
AcDbCircle
 10
39.043254
 20
10.557352
 30
0.0
 40
18.0
100
AcDbArc
 50
204.624318
 51
245.375682
  0
LINE
  5
1DC
330
1A
100
AcDbEntity
  8
BRACKET
  6
HIDDEN
100
AcDbLine
 10
14.606763
 20
17.557352
 30
0.0
 11
63.40112
 21
17.599715
 31
0.0
  0
LINE
  5
1DD
330
1A
100
AcDbEntity
  8
BRACKET
  6
HIDDEN
100
AcDbLine
 10
14.606763
 20
3.557352
 30
0.0
 11
63.40112
 21
3.514988
 31
0.0
  0
LINE
  5
1DE
330
1A
100
AcDbEntity
  8
BRACKET
100
AcDbLine
 10
-2.956746
 20
3.557352
 30
0.0
 11
-2.956746
 21
17.557352
 31
0.0
  0
POLYLINE
  5
1DF
330
1A
100
AcDbEntity
  8
BRACKET
100
AcDb2dPolyline
 66
     1
 10
0.0
 20
0.0
 30
0.0
  0
VERTEX
  5
370
330
1DF
100
AcDbEntity
  8
BRACKET
100
AcDbVertex
100
AcDb2dVertex
 10
-4.956746
 20
5.557352
 30
0.0
  0
VERTEX
  5
371
330
1DF
100
AcDbEntity
  8
BRACKET
100
AcDbVertex
100
AcDb2dVertex
 10
-4.956746
 20
15.557352
 30
0.0
  0
VERTEX
  5
372
330
1DF
100
AcDbEntity
  8
BRACKET
100
AcDbVertex
100
AcDb2dVertex
 10
-2.956746
 20
17.557352
 30
0.0
  0
VERTEX
  5
373
330
1DF
100
AcDbEntity
  8
BRACKET
100
AcDbVertex
100
AcDb2dVertex
 10
14.606763
 20
17.557352
 30
0.0
  0
SEQEND
  5
36F
330
1DF
100
AcDbEntity
  8
BRACKET
  0
POLYLINE
  5
1E5
330
1A
100
AcDbEntity
  8
BRACKET
100
AcDb2dPolyline
 66
     1
 10
0.0
 20
0.0
 30
0.0
  0
VERTEX
  5
375
330
1E5
100
AcDbEntity
  8
BRACKET
100
AcDbVertex
100
AcDb2dVertex
 10
63.40112
 20
17.599715
 30
0.0
  0
VERTEX
  5
376
330
1E5
100
AcDbEntity
  8
BRACKET
100
AcDbVertex
100
AcDb2dVertex
 10
67.04325400000001
 20
17.557352
 30
0.0
  0
VERTEX
  5
377
330
1E5
100
AcDbEntity
  8
BRACKET
100
AcDbVertex
100
AcDb2dVertex
 10
67.04325400000001
 20
3.557352
 30
0.0
  0
VERTEX
  5
378
330
1E5
100
AcDbEntity
  8
BRACKET
100
AcDbVertex
100
AcDb2dVertex
 10
63.40112
 20
3.514988
 30
0.0
  0
SEQEND
  5
374
330
1E5
100
AcDbEntity
  8
BRACKET
  0
POLYLINE
  5
1EB
330
1A
100
AcDbEntity
  8
BRACKET
100
AcDb2dPolyline
 66
     1
 10
0.0
 20
0.0
 30
0.0
  0
VERTEX
  5
37A
330
1EB
100
AcDbEntity
  8
BRACKET
100
AcDbVertex
100
AcDb2dVertex
 10
14.606763
 20
3.557352
 30
0.0
  0
VERTEX
  5
37B
330
1EB
100
AcDbEntity
  8
BRACKET
100
AcDbVertex
100
AcDb2dVertex
 10
-2.956746
 20
3.557352
 30
0.0
  0
VERTEX
  5
37C
330
1EB
100
AcDbEntity
  8
BRACKET
100
AcDbVertex
100
AcDb2dVertex
 10
-4.956746
 20
5.557352
 30
0.0
  0
SEQEND
  5
379
330
1EB
100
AcDbEntity
  8
BRACKET
  0
CIRCLE
  5
1F0
330
1A
100
AcDbEntity
  8
BRACKET
100
AcDbCircle
 10
39.043254
 20
10.557352
 30
0.0
 40
6.5
  0
ARC
  5
1F1
330
1A
100
AcDbEntity
  8
BRACKET
100
AcDbCircle
 10
16.543254
 20
14.057352
 30
0.0
 40
4.0
100
AcDbArc
 50
90.0
 51
180.0
  0
ARC
  5
1F2
330
1A
100
AcDbEntity
  8
BRACKET
100
AcDbCircle
 10
16.543254
 20
7.057352
 30
0.0
 40
4.0
100
AcDbArc
 50
180.0
 51
270.0
  0
ARC
  5
1F3
330
1A
100
AcDbEntity
  8
BRACKET
100
AcDbCircle
 10
35.543254
 20
-11.942648
 30
0.0
 40
4.0
100
AcDbArc
 50
180.0
 51
270.0
  0
ARC
  5
1F4
330
1A
100
AcDbEntity
  8
BRACKET
100
AcDbCircle
 10
42.543254
 20
-11.942648
 30
0.0
 40
4.0
100
AcDbArc
 50
270.0
 51
0.0
  0
ARC
  5
1F5
330
1A
100
AcDbEntity
  8
BRACKET
100
AcDbCircle
 10
61.543254
 20
7.057352
 30
0.0
 40
4.0
100
AcDbArc
 50
270.0
 51
0.0
  0
ARC
  5
1F6
330
1A
100
AcDbEntity
  8
BRACKET
100
AcDbCircle
 10
61.543254
 20
14.057352
 30
0.0
 40
4.0
100
AcDbArc
 50
0.0
 51
90.0
  0
ARC
  5
1F7
330
1A
100
AcDbEntity
  8
BRACKET
100
AcDbCircle
 10
42.543254
 20
33.057352
 30
0.0
 40
4.0
100
AcDbArc
 50
0.0
 51
90.0
  0
ARC
  5
1F8
330
1A
100
AcDbEntity
  8
BRACKET
100
AcDbCircle
 10
35.543254
 20
33.057352
 30
0.0
 40
4.0
100
AcDbArc
 50
90.0
 51
180.0
  0
LINE
  5
1F9
330
1A
100
AcDbEntity
  8
BRACKET
100
AcDbLine
 10
46.543254
 20
-3.264771
 30
0.0
 11
46.543254
 21
-11.942648
 31
0.0
  0
LINE
  5
1FA
330
1A
100
AcDbEntity
  8
BRACKET
100
AcDbLine
 10
31.543254
 20
-3.264772
 30
0.0
 11
31.543254
 21
-11.942648
 31
0.0
  0
LINE
  5
1FB
330
1A
100
AcDbEntity
  8
BRACKET
100
AcDbLine
 10
35.543254
 20
-15.942648
 30
0.0
 11
42.543254
 21
-15.942648
 31
0.0
  0
LINE
  5
1FC
330
1A
100
AcDbEntity
  8
BRACKET
100
AcDbLine
 10
25.221131
 20
3.057352
 30
0.0
 11
16.543254
 21
3.057352
 31
0.0
  0
ARC
  5
1FD
330
1A
100
AcDbEntity
  8
BRACKET
100
AcDbCircle
 10
20.304925
 20
-8.180978
 30
0.0
 40
12.75
100
AcDbArc
 50
34.183982
 51
55.816018
  0
ARC
  5
1FE
330
1A
100
AcDbEntity
  8
BRACKET
100
AcDbCircle
 10
27.543254
 20
-3.264772
 30
0.0
 40
4.0
100
AcDbArc
 50
0.0
 51
34.183982
  0
ARC
  5
1FF
330
1A
100
AcDbEntity
  8
BRACKET
100
AcDbCircle
 10
25.221131
 20
-0.942648
 30
0.0
 40
4.0
100
AcDbArc
 50
55.816018
 51
90.0
  0
ARC
  5
200
330
1A
100
AcDbEntity
  8
BRACKET
100
AcDbCircle
 10
52.865378
 20
-0.942648
 30
0.0
 40
4.0
100
AcDbArc
 50
90.0
 51
124.183982
  0
ARC
  5
201
330
1A
100
AcDbEntity
  8
BRACKET
100
AcDbCircle
 10
50.543254
 20
-3.264772
 30
0.0
 40
4.0
100
AcDbArc
 50
145.816018
 51
180.0
  0
ARC
  5
202
330
1A
100
AcDbEntity
  8
BRACKET
100
AcDbCircle
 10
57.781584
 20
-8.180978
 30
0.0
 40
12.75
100
AcDbArc
 50
124.183982
 51
145.816018
  0
LINE
  5
203
330
1A
100
AcDbEntity
  8
BRACKET
100
AcDbLine
 10
52.865378
 20
3.057352
 30
0.0
 11
61.543254
 21
3.057352
 31
0.0
  0
LINE
  5
204
330
1A
100
AcDbEntity
  8
BRACKET
100
AcDbLine
 10
52.865378
 20
18.057352
 30
0.0
 11
61.543254
 21
18.057352
 31
0.0
  0
ARC
  5
205
330
1A
100
AcDbEntity
  8
BRACKET
100
AcDbCircle
 10
57.781584
 20
29.295681
 30
0.0
 40
12.75
100
AcDbArc
 50
214.183982
 51
235.816018
  0
ARC
  5
206
330
1A
100
AcDbEntity
  8
BRACKET
100
AcDbCircle
 10
50.543254
 20
24.379475
 30
0.0
 40
4.0
100
AcDbArc
 50
180.0
 51
214.183982
  0
ARC
  5
207
330
1A
100
AcDbEntity
  8
BRACKET
100
AcDbCircle
 10
52.865378
 20
22.057352
 30
0.0
 40
4.0
100
AcDbArc
 50
235.816018
 51
270.0
  0
LINE
  5
208
330
1A
100
AcDbEntity
  8
BRACKET
100
AcDbLine
 10
65.54325400000001
 20
14.057352
 30
0.0
 11
65.54325400000001
 21
7.057352
 31
0.0
  0
LINE
  5
209
330
1A
100
AcDbEntity
  8
BRACKET
100
AcDbLine
 10
12.543254
 20
14.057352
 30
0.0
 11
12.543254
 21
7.057352
 31
0.0
  0
ARC
  5
20A
330
1A
100
AcDbEntity
  8
BRACKET
100
AcDbCircle
 10
25.221131
 20
22.057352
 30
0.0
 40
4.0
100
AcDbArc
 50
270.0
 51
304.183982
  0
ARC
  5
20B
330
1A
100
AcDbEntity
  8
BRACKET
100
AcDbCircle
 10
27.543254
 20
24.379475
 30
0.0
 40
4.0
100
AcDbArc
 50
325.816018
 51
0.0
  0
ARC
  5
20C
330
1A
100
AcDbEntity
  8
BRACKET
100
AcDbCircle
 10
20.304925
 20
29.295681
 30
0.0
 40
12.75
100
AcDbArc
 50
304.183982
 51
325.816018
  0
LINE
  5
20D
330
1A
100
AcDbEntity
  8
BRACKET
100
AcDbLine
 10
25.221131
 20
18.057352
 30
0.0
 11
16.543254
 21
18.057352
 31
0.0
  0
LINE
  5
20E
330
1A
100
AcDbEntity
  8
BRACKET
100
AcDbLine
 10
35.543254
 20
37.057352
 30
0.0
 11
42.543254
 21
37.057352
 31
0.0
  0
LINE
  5
20F
330
1A
100
AcDbEntity
  8
BRACKET
100
AcDbLine
 10
31.543254
 20
24.379475
 30
0.0
 11
31.543254
 21
33.057352
 31
0.0
  0
LINE
  5
210
330
1A
100
AcDbEntity
  8
BRACKET
100
AcDbLine
 10
46.543254
 20
24.379475
 30
0.0
 11
46.543254
 21
33.057352
 31
0.0
  0
CIRCLE
  5
211
330
1A
100
AcDbEntity
  8
BRACKET
  6
HIDDEN
100
AcDbCircle
 10
39.043254
 20
10.557352
 30
0.0
 40
13.75
  0
ARC
  5
212
330
1A
100
AcDbEntity
  8
BRACKET
100
AcDbCircle
 10
39.043254
 20
10.557352
 30
0.0
 40
18.0
100
AcDbArc
 50
24.624318
 51
65.375682
  0
ARC
  5
213
330
1A
100
AcDbEntity
  8
BRACKET
100
AcDbCircle
 10
39.043254
 20
10.557352
 30
0.0
 40
18.0
100
AcDbArc
 50
294.624318
 51
335.375682
  0
ARC
  5
214
330
1A
100
AcDbEntity
  8
BRACKET
100
AcDbCircle
 10
39.043254
 20
10.557352
 30
0.0
 40
18.0
100
AcDbArc
 50
114.624318
 51
155.375682
  0
POLYLINE
  5
215
330
1A
100
AcDbEntity
  8
BRACKET
100
AcDb2dPolyline
 66
     1
 10
0.0
 20
0.0
 30
0.0
  0
VERTEX
  5
37E
330
215
100
AcDbEntity
  8
BRACKET
100
AcDbVertex
100
AcDb2dVertex
 10
31.543254
 20
-8.442648
 30
0.0
  0
VERTEX
  5
37F
330
215
100
AcDbEntity
  8
BRACKET
100
AcDbVertex
100
AcDb2dVertex
 10
23.043254
 20
-8.442648
 30
0.0
 42
-0.414214
  0
VERTEX
  5
380
330
215
100
AcDbEntity
  8
BRACKET
100
AcDbVertex
100
AcDb2dVertex
 10
18.043254
 20
-3.442648
 30
0.0
  0
SEQEND
  5
37D
330
215
100
AcDbEntity
  8
BRACKET
  0
POLYLINE
  5
21A
330
1A
100
AcDbEntity
  8
BRACKET
100
AcDb2dPolyline
 66
     1
 10
0.0
 20
0.0
 30
0.0
  0
VERTEX
  5
382
330
21A
100
AcDbEntity
  8
BRACKET
100
AcDbVertex
100
AcDb2dVertex
 10
46.543254
 20
29.557352
 30
0.0
  0
VERTEX
  5
383
330
21A
100
AcDbEntity
  8
BRACKET
100
AcDbVertex
100
AcDb2dVertex
 10
55.043254
 20
29.557352
 30
0.0
 42
-0.414214
  0
VERTEX
  5
384
330
21A
100
AcDbEntity
  8
BRACKET
100
AcDbVertex
100
AcDb2dVertex
 10
60.043254
 20
24.557352
 30
0.0
  0
VERTEX
  5
385
330
21A
100
AcDbEntity
  8
BRACKET
100
AcDbVertex
100
AcDb2dVertex
 10
60.043254
 20
18.057352
 30
0.0
 42
-0.414214
  0
SEQEND
  5
381
330
21A
100
AcDbEntity
  8
BRACKET
  0
POLYLINE
  5
220
330
1A
100
AcDbEntity
  8
BRACKET
100
AcDb2dPolyline
 66
     1
 10
0.0
 20
0.0
 30
0.0
  0
VERTEX
  5
387
330
220
100
AcDbEntity
  8
BRACKET
100
AcDbVertex
100
AcDb2dVertex
 10
60.043254
 20
3.057352
 30
0.0
  0
VERTEX
  5
388
330
220
100
AcDbEntity
  8
BRACKET
100
AcDbVertex
100
AcDb2dVertex
 10
60.043254
 20
-3.442648
 30
0.0
 42
-0.414214
  0
VERTEX
  5
389
330
220
100
AcDbEntity
  8
BRACKET
100
AcDbVertex
100
AcDb2dVertex
 10
55.043254
 20
-8.442648
 30
0.0
  0
VERTEX
  5
38A
330
220
100
AcDbEntity
  8
BRACKET
100
AcDbVertex
100
AcDb2dVertex
 10
46.543254
 20
-8.442648
 30
0.0
 42
-0.414214
  0
SEQEND
  5
386
330
220
100
AcDbEntity
  8
BRACKET
  0
POLYLINE
  5
226
330
1A
100
AcDbEntity
  8
BRACKET
100
AcDb2dPolyline
 66
     1
 10
0.0
 20
0.0
 30
0.0
  0
VERTEX
  5
38C
330
226
100
AcDbEntity
  8
BRACKET
100
AcDbVertex
100
AcDb2dVertex
 10
18.043254
 20
-3.442648
 30
0.0
  0
VERTEX
  5
38D
330
226
100
AcDbEntity
  8
BRACKET
100
AcDbVertex
100
AcDb2dVertex
 10
18.043254
 20
3.057352
 30
0.0
 42
-0.414214
  0
SEQEND
  5
38B
330
226
100
AcDbEntity
  8
BRACKET
  0
POLYLINE
  5
22A
330
1A
100
AcDbEntity
  8
BRACKET
100
AcDb2dPolyline
 66
     1
 10
0.0
 20
0.0
 30
0.0
  0
VERTEX
  5
38F
330
22A
100
AcDbEntity
  8
BRACKET
100
AcDbVertex
100
AcDb2dVertex
 10
18.043254
 20
18.057352
 30
0.0
  0
VERTEX
  5
390
330
22A
100
AcDbEntity
  8
BRACKET
100
AcDbVertex
100
AcDb2dVertex
 10
18.043254
 20
24.557352
 30
0.0
 42
-0.414214
  0
VERTEX
  5
391
330
22A
100
AcDbEntity
  8
BRACKET
100
AcDbVertex
100
AcDb2dVertex
 10
23.043254
 20
29.557352
 30
0.0
  0
VERTEX
  5
392
330
22A
100
AcDbEntity
  8
BRACKET
100
AcDbVertex
100
AcDb2dVertex
 10
31.543254
 20
29.557352
 30
0.0
 42
-0.414214
  0
SEQEND
  5
38E
330
22A
100
AcDbEntity
  8
BRACKET
  0
POLYLINE
  5
230
330
1A
100
AcDbEntity
  8
0
100
AcDb2dPolyline
 66
     1
 10
0.0
 20
0.0
 30
0.0
  0
VERTEX
  5
394
330
230
100
AcDbEntity
  8
0
100
AcDbVertex
100
AcDb2dVertex
 10
172.903101
 20
133.229401
 30
0.0
  0
VERTEX
  5
395
330
230
100
AcDbEntity
  8
0
100
AcDbVertex
100
AcDb2dVertex
 10
172.903101
 20
133.229401
 30
0.0
  0
SEQEND
  5
393
330
230
100
AcDbEntity
  8
0
  0
LINE
  5
233
330
1A
100
AcDbEntity
  8
BRACKET
100
AcDbLine
 10
152.903101
 20
268.229401
 30
0.0
 11
188.903101
 21
268.229401
 31
0.0
  0
CIRCLE
  5
234
330
1A
100
AcDbEntity
  8
BRACKET
100
AcDbCircle
 10
170.903101
 20
288.229401
 30
0.0
 40
7.0
  0
LINE
  5
235
330
1A
100
AcDbEntity
  8
AXIS
 48
10.0
100
AcDbLine
 10
170.903101
 20
272.972405
 30
0.0
 11
170.903101
 21
245.380221
 31
0.0
  0
POLYLINE
  5
236
330
1A
100
AcDbEntity
  8
BRACKET
100
AcDb2dPolyline
 66
     1
 10
0.0
 20
0.0
 30
0.0
 70
     1
  0
VERTEX
  5
397
330
236
100
AcDbEntity
  8
BRACKET
100
AcDbVertex
100
AcDb2dVertex
 10
158.403101
 20
68.229401
 30
0.0
  0
VERTEX
  5
398
330
236
100
AcDbEntity
  8
BRACKET
100
AcDbVertex
100
AcDb2dVertex
 10
158.403101
 20
253.229401
 30
0.0
 42
-0.414214
  0
VERTEX
  5
399
330
236
100
AcDbEntity
  8
BRACKET
100
AcDbVertex
100
AcDb2dVertex
 10
163.403101
 20
258.229401
 30
0.0
  0
VERTEX
  5
39A
330
236
100
AcDbEntity
  8
BRACKET
100
AcDbVertex
100
AcDb2dVertex
 10
178.403101
 20
258.229401
 30
0.0
 42
-0.414214
  0
VERTEX
  5
39B
330
236
100
AcDbEntity
  8
BRACKET
100
AcDbVertex
100
AcDb2dVertex
 10
183.403101
 20
253.229401
 30
0.0
  0
VERTEX
  5
39C
330
236
100
AcDbEntity
  8
BRACKET
100
AcDbVertex
100
AcDb2dVertex
 10
183.403101
 20
68.229401
 30
0.0
  0
SEQEND
  5
396
330
236
100
AcDbEntity
  8
BRACKET
  0
POLYLINE
  5
23E
330
1A
100
AcDbEntity
  8
BRACKET
100
AcDb2dPolyline
 66
     1
 10
0.0
 20
0.0
 30
0.0
 70
     1
  0
VERTEX
  5
39E
330
23E
100
AcDbEntity
  8
BRACKET
100
AcDbVertex
100
AcDb2dVertex
 10
154.153101
 20
68.229401
 30
0.0
  0
VERTEX
  5
39F
330
23E
100
AcDbEntity
  8
BRACKET
100
AcDbVertex
100
AcDb2dVertex
 10
154.153101
 20
253.229401
 30
0.0
 42
-0.414214
  0
VERTEX
  5
3A0
330
23E
100
AcDbEntity
  8
BRACKET
100
AcDbVertex
100
AcDb2dVertex
 10
159.153101
 20
258.229401
 30
0.0
  0
VERTEX
  5
3A1
330
23E
100
AcDbEntity
  8
BRACKET
100
AcDbVertex
100
AcDb2dVertex
 10
182.653101
 20
258.229401
 30
0.0
 42
-0.414214
  0
VERTEX
  5
3A2
330
23E
100
AcDbEntity
  8
BRACKET
100
AcDbVertex
100
AcDb2dVertex
 10
187.653101
 20
253.229401
 30
0.0
  0
VERTEX
  5
3A3
330
23E
100
AcDbEntity
  8
BRACKET
100
AcDbVertex
100
AcDb2dVertex
 10
187.653101
 20
68.229401
 30
0.0
  0
SEQEND
  5
39D
330
23E
100
AcDbEntity
  8
BRACKET
  0
LINE
  5
246
330
1A
100
AcDbEntity
  8
BRACKET
100
AcDbLine
 10
189.903101
 20
204.229401
 30
0.0
 11
191.903101
 21
202.229401
 31
0.0
  0
POLYLINE
  5
247
330
1A
100
AcDbEntity
  8
BRACKET
100
AcDb2dPolyline
 66
     1
 10
0.0
 20
0.0
 30
0.0
  0
VERTEX
  5
3A5
330
247
100
AcDbEntity
  8
BRACKET
100
AcDbVertex
100
AcDb2dVertex
 10
149.903101
 20
68.229401
 30
0.0
  0
VERTEX
  5
3A6
330
247
100
AcDbEntity
  8
BRACKET
100
AcDbVertex
100
AcDb2dVertex
 10
149.903101
 20
202.229401
 30
0.0
  0
SEQEND
  5
3A4
330
247
100
AcDbEntity
  8
BRACKET
  0
POLYLINE
  5
24B
330
1A
100
AcDbEntity
  8
BRACKET
100
AcDb2dPolyline
 66
     1
 10
0.0
 20
0.0
 30
0.0
  0
VERTEX
  5
3A8
330
24B
100
AcDbEntity
  8
BRACKET
100
AcDbVertex
100
AcDb2dVertex
 10
191.903101
 20
202.229401
 30
0.0
  0
VERTEX
  5
3A9
330
24B
100
AcDbEntity
  8
BRACKET
100
AcDbVertex
100
AcDb2dVertex
 10
191.903101
 20
68.229401
 30
0.0
  0
VERTEX
  5
3AA
330
24B
100
AcDbEntity
  8
BRACKET
100
AcDbVertex
100
AcDb2dVertex
 10
149.903101
 20
68.229401
 30
0.0
  0
SEQEND
  5
3A7
330
24B
100
AcDbEntity
  8
BRACKET
  0
LINE
  5
250
330
1A
100
AcDbEntity
  8
BRACKET
100
AcDbLine
 10
151.903101
 20
204.229401
 30
0.0
 11
149.903101
 21
202.229401
 31
0.0
  0
POLYLINE
  5
251
330
1A
100
AcDbEntity
  8
0
100
AcDb2dPolyline
 66
     1
 10
0.0
 20
0.0
 30
0.0
  0
VERTEX
  5
3AC
330
251
100
AcDbEntity
  8
0
100
AcDbVertex
100
AcDb2dVertex
 10
281.502574
 20
170.578067
 30
0.0
  0
VERTEX
  5
3AD
330
251
100
AcDbEntity
  8
0
100
AcDbVertex
100
AcDb2dVertex
 10
281.502574
 20
170.578067
 30
0.0
  0
SEQEND
  5
3AB
330
251
100
AcDbEntity
  8
0
  0
POLYLINE
  5
254
330
1A
100
AcDbEntity
  8
BRACKET
100
AcDb2dPolyline
 66
     1
 10
0.0
 20
0.0
 30
0.0
  0
VERTEX
  5
3AF
330
254
100
AcDbEntity
  8
BRACKET
100
AcDbVertex
100
AcDb2dVertex
 10
151.903101
 20
204.229401
 30
0.0
  0
VERTEX
  5
3B0
330
254
100
AcDbEntity
  8
BRACKET
100
AcDbVertex
100
AcDb2dVertex
 10
151.903101
 20
263.229401
 30
0.0
 42
-0.414214
  0
VERTEX
  5
3B1
330
254
100
AcDbEntity
  8
BRACKET
100
AcDbVertex
100
AcDb2dVertex
 10
156.903101
 20
268.229401
 30
0.0
  0
VERTEX
  5
3B2
330
254
100
AcDbEntity
  8
BRACKET
100
AcDbVertex
100
AcDb2dVertex
 10
184.903101
 20
268.229401
 30
0.0
 42
-0.414214
  0
VERTEX
  5
3B3
330
254
100
AcDbEntity
  8
BRACKET
100
AcDbVertex
100
AcDb2dVertex
 10
189.903101
 20
263.229401
 30
0.0
  0
VERTEX
  5
3B4
330
254
100
AcDbEntity
  8
BRACKET
100
AcDbVertex
100
AcDb2dVertex
 10
189.903101
 20
204.229401
 30
0.0
  0
SEQEND
  5
3AE
330
254
100
AcDbEntity
  8
BRACKET
  0
POLYLINE
  5
25C
330
1A
100
AcDbEntity
  8
BRACKET
100
AcDb2dPolyline
 66
     1
 10
0.0
 20
0.0
 30
0.0
  0
VERTEX
  5
3B6
330
25C
100
AcDbEntity
  8
BRACKET
100
AcDbVertex
100
AcDb2dVertex
 10
189.903101
 20
68.229401
 30
0.0
  0
VERTEX
  5
3B7
330
25C
100
AcDbEntity
  8
BRACKET
100
AcDbVertex
100
AcDb2dVertex
 10
151.903101
 20
68.229401
 30
0.0
  0
SEQEND
  5
3B5
330
25C
100
AcDbEntity
  8
BRACKET
  0
LINE
  5
260
330
1A
100
AcDbEntity
  8
BRACKET
100
AcDbLine
 10
165.653101
 20
83.479401
 30
0.0
 11
165.653101
 21
126.479401
 31
0.0
  0
LINE
  5
261
330
1A
100
AcDbEntity
  8
BRACKET
100
AcDbLine
 10
176.153101
 20
83.479401
 30
0.0
 11
176.153101
 21
126.479401
 31
0.0
  0
LINE
  5
262
330
1A
100
AcDbEntity
  8
BRACKET
100
AcDbLine
 10
165.653101
 20
139.979401
 30
0.0
 11
165.653101
 21
182.979401
 31
0.0
  0
LINE
  5
263
330
1A
100
AcDbEntity
  8
BRACKET
100
AcDbLine
 10
176.153101
 20
139.979401
 30
0.0
 11
176.153101
 21
182.979401
 31
0.0
  0
ARC
  5
264
330
1A
100
AcDbEntity
  8
BRACKET
100
AcDbCircle
 10
170.903101
 20
182.979401
 30
0.0
 40
5.25
100
AcDbArc
 50
0.0
 51
180.0
  0
ARC
  5
265
330
1A
100
AcDbEntity
  8
BRACKET
100
AcDbCircle
 10
170.903101
 20
139.979401
 30
0.0
 40
5.25
100
AcDbArc
 50
180.0
 51
0.0
  0
ARC
  5
266
330
1A
100
AcDbEntity
  8
BRACKET
100
AcDbCircle
 10
170.903101
 20
126.479401
 30
0.0
 40
5.25
100
AcDbArc
 50
0.0
 51
180.0
  0
ARC
  5
267
330
1A
100
AcDbEntity
  8
BRACKET
100
AcDbCircle
 10
170.903101
 20
83.479401
 30
0.0
 40
5.25
100
AcDbArc
 50
180.0
 51
0.0
  0
ARC
  5
268
330
1A
100
AcDbEntity
  8
BRACKET
100
AcDbCircle
 10
170.903101
 20
241.613934
 30
0.0
 40
26.562379
100
AcDbArc
 50
50.906253
 51
129.093747
  0
POLYLINE
  5
269
330
1A
100
AcDbEntity
  8
BRACKET
100
AcDb2dPolyline
 66
     1
 10
0.0
 20
0.0
 30
0.0
 70
     1
  0
VERTEX
  5
3B9
330
269
100
AcDbEntity
  8
BRACKET
100
AcDbVertex
100
AcDb2dVertex
 10
168.403101
 20
252.229401
 30
0.0
  0
VERTEX
  5
3BA
330
269
100
AcDbEntity
  8
BRACKET
100
AcDbVertex
100
AcDb2dVertex
 10
168.403101
 20
256.229401
 30
0.0
  0
VERTEX
  5
3BB
330
269
100
AcDbEntity
  8
BRACKET
100
AcDbVertex
100
AcDb2dVertex
 10
173.403101
 20
256.229401
 30
0.0
  0
VERTEX
  5
3BC
330
269
100
AcDbEntity
  8
BRACKET
100
AcDbVertex
100
AcDb2dVertex
 10
173.403101
 20
252.229401
 30
0.0
  0
SEQEND
  5
3B8
330
269
100
AcDbEntity
  8
BRACKET
  0
POLYLINE
  5
26F
330
1A
100
AcDbEntity
  8
BRACKET
100
AcDb2dPolyline
 66
     1
 10
0.0
 20
0.0
 30
0.0
 70
     1
  0
VERTEX
  5
3BE
330
26F
100
AcDbEntity
  8
BRACKET
100
AcDbVertex
100
AcDb2dVertex
 10
163.403101
 20
256.229401
 30
0.0
  0
VERTEX
  5
3BF
330
26F
100
AcDbEntity
  8
BRACKET
100
AcDbVertex
100
AcDb2dVertex
 10
163.403101
 20
258.229401
 30
0.0
  0
VERTEX
  5
3C0
330
26F
100
AcDbEntity
  8
BRACKET
100
AcDbVertex
100
AcDb2dVertex
 10
178.403101
 20
258.229401
 30
0.0
  0
VERTEX
  5
3C1
330
26F
100
AcDbEntity
  8
BRACKET
100
AcDbVertex
100
AcDb2dVertex
 10
178.403101
 20
256.229401
 30
0.0
  0
SEQEND
  5
3BD
330
26F
100
AcDbEntity
  8
BRACKET
  0
POLYLINE
  5
275
330
1A
100
AcDbEntity
  8
BRACKET
100
AcDb2dPolyline
 66
     1
 10
0.0
 20
0.0
 30
0.0
 70
     1
  0
VERTEX
  5
3C3
330
275
100
AcDbEntity
  8
BRACKET
100
AcDbVertex
100
AcDb2dVertex
 10
164.403101
 20
252.229401
 30
0.0
  0
VERTEX
  5
3C4
330
275
100
AcDbEntity
  8
BRACKET
100
AcDbVertex
100
AcDb2dVertex
 10
164.403101
 20
256.229401
 30
0.0
  0
VERTEX
  5
3C5
330
275
100
AcDbEntity
  8
BRACKET
100
AcDbVertex
100
AcDb2dVertex
 10
177.403101
 20
256.229401
 30
0.0
  0
VERTEX
  5
3C6
330
275
100
AcDbEntity
  8
BRACKET
100
AcDbVertex
100
AcDb2dVertex
 10
177.403101
 20
252.229401
 30
0.0
  0
SEQEND
  5
3C2
330
275
100
AcDbEntity
  8
BRACKET
  0
ARC
  5
27B
330
1A
100
AcDbEntity
  8
BRACKET
100
AcDbCircle
 10
149.036442
 20
328.458133
 30
0.0
 40
16.928903
100
AcDbArc
 50
52.239332
 51
76.64783300000001
  0
LINE
  5
27C
330
1A
100
AcDbEntity
  8
BRACKET
100
AcDbLine
 10
165.903101
 20
359.729408
 30
0.0
 11
148.185523
 21
357.362993
 31
0.0
  0
ARC
  5
27D
330
1A
100
AcDbEntity
  8
BRACKET
100
AcDbCircle
 10
152.857993
 20
336.129808
 30
0.0
 40
21.741208
100
AcDbArc
 50
56.35662
 51
102.410427
  0
LINE
  5
27E
330
1A
100
AcDbEntity
  8
BRACKET
100
AcDbLine
 10
145.903101
 20
350.729408
 30
0.0
 11
152.94593
 21
344.929431
 31
0.0
  0
ARC
  5
27F
330
1A
100
AcDbEntity
  8
BRACKET
100
AcDbCircle
 10
148.392735
 20
355.373757
 30
0.0
 40
2.0
100
AcDbArc
 50
95.94686299999999
 51
161.565051
  0
LINE
  5
280
330
1A
100
AcDbEntity
  8
BRACKET
100
AcDbLine
 10
145.903101
 20
354.229408
 30
0.0
 11
145.903101
 21
350.729408
 31
0.0
  0
LINE
  5
281
330
1A
100
AcDbEntity
  8
BRACKET
100
AcDbLine
 10
146.495369
 20
356.006212
 30
0.0
 11
145.903101
 21
354.229408
 31
0.0
  0
ARC
  5
282
330
1A
100
AcDbEntity
  8
BRACKET
100
AcDbCircle
 10
188.948208
 20
336.129808
 30
0.0
 40
21.741208
100
AcDbArc
 50
77.589573
 51
123.64338
  0
LINE
  5
283
330
1A
100
AcDbEntity
  8
BRACKET
100
AcDbLine
 10
175.903101
 20
359.729408
 30
0.0
 11
193.620678
 21
357.362993
 31
0.0
  0
LINE
  5
284
330
1A
100
AcDbEntity
  8
BRACKET
100
AcDbLine
 10
182.403101
 20
325.124808
 30
0.0
 11
170.903101
 21
325.124808
 31
0.0
  0
ARC
  5
285
330
1A
100
AcDbEntity
  8
BRACKET
100
AcDbCircle
 10
175.653101
 20
319.765433
 30
0.0
 40
6.640625
100
AcDbArc
 50
224.332692
 51
315.667308
  0
ARC
  5
286
330
1A
100
AcDbEntity
  8
BRACKET
100
AcDbCircle
 10
175.653101
 20
318.484183
 30
0.0
 40
6.640625
100
AcDbArc
 50
44.33269200000001
 51
135.667308
  0
ARC
  5
287
330
1A
100
AcDbEntity
  8
BRACKET
100
AcDbCircle
 10
181.547695
 20
347.20283
 30
0.0
 40
5.046449
100
AcDbArc
 50
203.019954
 51
279.759127
  0
LINE
  5
288
330
1A
100
AcDbEntity
  8
BRACKET
100
AcDbLine
 10
159.403101
 20
341.84171
 30
0.0
 11
159.403101
 21
325.124808
 31
0.0
  0
LINE
  5
289
330
1A
100
AcDbEntity
  8
BRACKET
100
AcDbLine
 10
159.403101
 20
325.124808
 30
0.0
 11
170.903101
 21
325.124808
 31
0.0
  0
ARC
  5
28A
330
1A
100
AcDbEntity
  8
BRACKET
100
AcDbCircle
 10
166.153101
 20
319.765433
 30
0.0
 40
6.640625
100
AcDbArc
 50
224.332692
 51
315.667308
  0
ARC
  5
28B
330
1A
100
AcDbEntity
  8
BRACKET
100
AcDbCircle
 10
166.153101
 20
318.484183
 30
0.0
 40
6.640625
100
AcDbArc
 50
44.33269200000001
 51
135.667308
  0
LINE
  5
28C
330
1A
100
AcDbEntity
  8
BRACKET
100
AcDbLine
 10
161.403101
 20
323.124808
 30
0.0
 11
161.403101
 21
315.124808
 31
0.0
  0
LINE
  5
28D
330
1A
100
AcDbEntity
  8
BRACKET
100
AcDbLine
 10
170.903101
 20
323.124808
 30
0.0
 11
170.903101
 21
315.124808
 31
0.0
  0
LINE
  5
28E
330
1A
100
AcDbEntity
  8
BRACKET
100
AcDbLine
 10
166.153101
 20
313.124808
 30
0.0
 11
175.653101
 21
313.124808
 31
0.0
  0
LINE
  5
28F
330
1A
100
AcDbEntity
  8
BRACKET
100
AcDbLine
 10
175.653101
 20
325.124808
 30
0.0
 11
170.903101
 21
325.124808
 31
0.0
  0
LINE
  5
290
330
1A
100
AcDbEntity
  8
BRACKET
100
AcDbLine
 10
170.903101
 20
325.124808
 30
0.0
 11
166.153101
 21
325.124808
 31
0.0
  0
LINE
  5
291
330
1A
100
AcDbEntity
  8
BRACKET
100
AcDbLine
 10
164.903101
 20
345.229408
 30
0.0
 11
170.903101
 21
345.229408
 31
0.0
  0
LINE
  5
292
330
1A
100
AcDbEntity
  8
BRACKET
100
AcDbLine
 10
164.903101
 20
354.229408
 30
0.0
 11
170.903101
 21
354.229408
 31
0.0
  0
ARC
  5
293
330
1A
100
AcDbEntity
  8
BRACKET
100
AcDbCircle
 10
160.258507
 20
347.20283
 30
0.0
 40
5.046449
100
AcDbArc
 50
260.240873
 51
336.980046
  0
LINE
  5
294
330
1A
100
AcDbEntity
  8
BRACKET
100
AcDbLine
 10
164.903101
 20
354.229408
 30
0.0
 11
164.903101
 21
345.229408
 31
0.0
  0
LINE
  5
295
330
1A
100
AcDbEntity
  8
BRACKET
100
AcDbLine
 10
176.903101
 20
354.229408
 30
0.0
 11
176.903101
 21
345.229408
 31
0.0
  0
LINE
  5
296
330
1A
100
AcDbEntity
  8
BRACKET
100
AcDbLine
 10
176.903101
 20
345.229408
 30
0.0
 11
170.903101
 21
345.229408
 31
0.0
  0
LINE
  5
297
330
1A
100
AcDbEntity
  8
BRACKET
100
AcDbLine
 10
175.903101
 20
359.729408
 30
0.0
 11
170.903101
 21
359.729408
 31
0.0
  0
LINE
  5
298
330
1A
100
AcDbEntity
  8
BRACKET
100
AcDbLine
 10
176.903101
 20
354.229408
 30
0.0
 11
170.903101
 21
354.229408
 31
0.0
  0
LINE
  5
299
330
1A
100
AcDbEntity
  8
BRACKET
100
AcDbLine
 10
165.903101
 20
359.729408
 30
0.0
 11
170.903101
 21
359.729408
 31
0.0
  0
LINE
  5
29A
330
1A
100
AcDbEntity
  8
BRACKET
100
AcDbLine
 10
182.403101
 20
341.84171
 30
0.0
 11
182.403101
 21
325.124808
 31
0.0
  0
LINE
  5
29B
330
1A
100
AcDbEntity
  8
BRACKET
100
AcDbLine
 10
180.403101
 20
315.124808
 30
0.0
 11
180.403101
 21
323.124808
 31
0.0
  0
LINE
  5
29C
330
1A
100
AcDbEntity
  8
BRACKET
100
AcDbLine
 10
195.903101
 20
351.341051
 30
0.0
 11
188.860272
 21
345.541074
 31
0.0
  0
ARC
  5
29D
330
1A
100
AcDbEntity
  8
BRACKET
100
AcDbCircle
 10
192.76976
 20
328.458133
 30
0.0
 40
16.928903
100
AcDbArc
 50
103.352167
 51
127.760668
  0
LINE
  5
29E
330
1A
100
AcDbEntity
  8
BRACKET
100
AcDbLine
 10
195.903101
 20
354.841051
 30
0.0
 11
195.903101
 21
351.341051
 31
0.0
  0
LINE
  5
29F
330
1A
100
AcDbEntity
  8
BRACKET
100
AcDbLine
 10
195.310832
 20
356.617855
 30
0.0
 11
195.903101
 21
354.841051
 31
0.0
  0
ARC
  5
2A0
330
1A
100
AcDbEntity
  8
BRACKET
100
AcDbCircle
 10
193.413466
 20
355.373757
 30
0.0
 40
2.0
100
AcDbArc
 50
18.434949
 51
84.05313700000001
  0
LINE
  5
2A1
330
1A
100
AcDbEntity
  8
BRACKET
100
AcDbLine
 10
152.903101
 20
313.124808
 30
0.0
 11
188.903101
 21
313.124808
 31
0.0
  0
POLYLINE
  5
2A2
330
1A
100
AcDbEntity
  8
BRACKET
100
AcDb2dPolyline
 66
     1
 10
0.0
 20
0.0
 30
0.0
  0
VERTEX
  5
3C8
330
2A2
100
AcDbEntity
  8
BRACKET
100
AcDbVertex
100
AcDb2dVertex
 10
152.903101
 20
268.229401
 30
0.0
  0
VERTEX
  5
3C9
330
2A2
100
AcDbEntity
  8
BRACKET
100
AcDbVertex
100
AcDb2dVertex
 10
152.903101
 20
313.124808
 30
0.0
  0
SEQEND
  5
3C7
330
2A2
100
AcDbEntity
  8
BRACKET
  0
POLYLINE
  5
2A6
330
1A
100
AcDbEntity
  8
BRACKET
100
AcDb2dPolyline
 66
     1
 10
0.0
 20
0.0
 30
0.0
  0
VERTEX
  5
3CB
330
2A6
100
AcDbEntity
  8
BRACKET
100
AcDbVertex
100
AcDb2dVertex
 10
188.903101
 20
313.124808
 30
0.0
  0
VERTEX
  5
3CC
330
2A6
100
AcDbEntity
  8
BRACKET
100
AcDbVertex
100
AcDb2dVertex
 10
188.903101
 20
268.229401
 30
0.0
  0
SEQEND
  5
3CA
330
2A6
100
AcDbEntity
  8
BRACKET
  0
ENDSEC
  0
SECTION
  2
OBJECTS
  0
DICTIONARY
  5
C
330
0
100
AcDbDictionary
  3
ACAD_GROUP
350
D
  3
ACAD_LAYOUT
350
2AB
  3
ACAD_MLINESTYLE
350
E
1001
ACAD
1000
TREAT_AS_HARD
1070
     0
  0
DICTIONARY
  5
3CD
330
2AA
100
AcDbDictionary
  3
ACAD_XREC_ROUNDTRIP
360
3CE
  0
DICTIONARY
  5
D
102
{ACAD_REACTORS
330
C
102
}
330
C
100
AcDbDictionary
1001
ACAD
1000
TREAT_AS_HARD
1070
     0
  0
DICTIONARY
  5
2AB
102
{ACAD_REACTORS
330
C
102
}
330
C
100
AcDbDictionary
1001
ACAD
1000
TREAT_AS_HARD
1070
     0
  0
DICTIONARY
  5
E
102
{ACAD_REACTORS
330
C
102
}
330
C
100
AcDbDictionary
  3
STANDARD
350
13
1001
ACAD
1000
TREAT_AS_HARD
1070
     0
  0
XRECORD
  5
3CE
102
{ACAD_REACTORS
330
3CD
102
}
330
3CD
100
AcDbXrecord
102
UCS
 74
     0
 71
     1
 10
0.0
 20
0.0
 30
0.0
 10
1.0
 20
0.0
 30
0.0
 10
0.0
 20
1.0
 30
0.0
146
0.0
 79
     0
102
VIEW
281
     0
  0
MLINESTYLE
  5
13
102
{ACAD_REACTORS
330
E
102
}
330
E
100
AcDbMlineStyle
  2
STANDARD
 70
     0
  3

 62
     0
 51
90.0
 52
90.0
 71
     2
 49
0.5
 62
   256
  6
BYLAYER
 49
-0.5
 62
   256
  6
BYLAYER
  0
ENDSEC
  0
EOF
