  0
SECTION
  2
HEADER
  9
$ACADVER
  1
AC1012
  9
$DWGCODEPAGE
  3
ansi_1252
  9
$INSBASE
 10
0.0
 20
0.0
 30
0.0
  9
$EXTMIN
 10
-42.033363
 20
-46.409233
 30
0.0
  9
$EXTMAX
 10
199.389078
 20
357.729408
 30
0.0
  9
$LIMMIN
 10
0.0
 20
0.0
  9
$LIMMAX
 10
12.0
 20
9.0
  9
$ORTHOMODE
 70
     1
  9
$REGENMODE
 70
     1
  9
$FILLMODE
 70
     1
  9
$QTEXTMODE
 70
     0
  9
$MIRRTEXT
 70
     1
  9
$DRAGMODE
 70
     2
  9
$LTSCALE
 40
1.0
  9
$OSMODE
 70
    37
  9
$ATTMODE
 70
     1
  9
$TEXTSIZE
 40
0.2
  9
$TRACEWID
 40
0.05
  9
$TEXTSTYLE
  7
STANDARD
  9
$CLAYER
  8
0
  9
$CELTYPE
  6
BYLAYER
  9
$CECOLOR
 62
   256
  9
$CELTSCALE
 40
1.0
  9
$DELOBJ
 70
     1
  9
$DISPSILH
 70
     0
  9
$DIMSCALE
 40
1.0
  9
$DIMASZ
 40
0.18
  9
$DIMEXO
 40
0.0625
  9
$DIMDLI
 40
0.38
  9
$DIMRND
 40
0.0
  9
$DIMDLE
 40
0.0
  9
$DIMEXE
 40
0.18
  9
$DIMTP
 40
0.0
  9
$DIMTM
 40
0.0
  9
$DIMTXT
 40
0.18
  9
$DIMCEN
 40
0.09
  9
$DIMTSZ
 40
0.0
  9
$DIMTOL
 70
     0
  9
$DIMLIM
 70
     0
  9
$DIMTIH
 70
     1
  9
$DIMTOH
 70
     1
  9
$DIMSE1
 70
     0
  9
$DIMSE2
 70
     0
  9
$DIMTAD
 70
     0
  9
$DIMZIN
 70
     0
  9
$DIMBLK
  1

  9
$DIMASO
 70
     1
  9
$DIMSHO
 70
     1
  9
$DIMPOST
  1

  9
$DIMAPOST
  1

  9
$DIMALT
 70
     0
  9
$DIMALTD
 70
     2
  9
$DIMALTF
 40
25.4
  9
$DIMLFAC
 40
1.0
  9
$DIMTOFL
 70
     0
  9
$DIMTVP
 40
0.0
  9
$DIMTIX
 70
     0
  9
$DIMSOXD
 70
     0
  9
$DIMSAH
 70
     0
  9
$DIMBLK1
  1

  9
$DIMBLK2
  1

  9
$DIMSTYLE
  2
STANDARD
  9
$DIMCLRD
 70
     0
  9
$DIMCLRE
 70
     0
  9
$DIMCLRT
 70
     0
  9
$DIMTFAC
 40
1.0
  9
$DIMGAP
 40
0.09
  9
$DIMJUST
 70
     0
  9
$DIMSD1
 70
     0
  9
$DIMSD2
 70
     0
  9
$DIMTOLJ
 70
     1
  9
$DIMTZIN
 70
     0
  9
$DIMALTZ
 70
     0
  9
$DIMALTTZ
 70
     0
  9
$DIMFIT
 70
     3
  9
$DIMUPT
 70
     0
  9
$DIMUNIT
 70
     2
  9
$DIMDEC
 70
     4
  9
$DIMTDEC
 70
     4
  9
$DIMALTU
 70
     2
  9
$DIMALTTD
 70
     2
  9
$DIMTXSTY
  7
STANDARD
  9
$DIMAUNIT
 70
     0
  9
$LUNITS
 70
     2
  9
$LUPREC
 70
     4
  9
$SKETCHINC
 40
0.1
  9
$FILLETRAD
 40
0.0
  9
$AUNITS
 70
     0
  9
$AUPREC
 70
     0
  9
$MENU
  1
C:\S-CC-ITA\Menu\CC13it
  9
$ELEVATION
 40
0.0
  9
$PELEVATION
 40
0.0
  9
$THICKNESS
 40
0.0
  9
$LIMCHECK
 70
     0
  9
$CHAMFERA
 40
0.0
  9
$CHAMFERB
 40
0.0
  9
$CHAMFERC
 40
0.0
  9
$CHAMFERD
 40
0.0
  9
$SKPOLY
 70
     0
  9
$TDCREATE
 40
2447893.083333334
  9
$TDUPDATE
 40
2447893.083333334
  9
$TDINDWG
 40
0.0082940972
  9
$TDUSRTIMER
 40
0.0082940972
  9
$USRTIMER
 70
     1
  9
$ANGBASE
 50
0.0
  9
$ANGDIR
 70
     0
  9
$PDMODE
 70
     0
  9
$PDSIZE
 40
0.0
  9
$PLINEWID
 40
0.0
  9
$COORDS
 70
     1
  9
$SPLFRAME
 70
     0
  9
$SPLINETYPE
 70
     6
  9
$SPLINESEGS
 70
     8
  9
$ATTDIA
 70
     0
  9
$ATTREQ
 70
     1
  9
$HANDLING
 70
     1
  9
$HANDSEED
  5
40A
  9
$SURFTAB1
 70
     6
  9
$SURFTAB2
 70
     6
  9
$SURFTYPE
 70
     6
  9
$SURFU
 70
     6
  9
$SURFV
 70
     6
  9
$UCSNAME
  2

  9
$UCSORG
 10
0.0
 20
0.0
 30
0.0
  9
$UCSXDIR
 10
1.0
 20
0.0
 30
0.0
  9
$UCSYDIR
 10
0.0
 20
1.0
 30
0.0
  9
$PUCSNAME
  2

  9
$PUCSORG
 10
0.0
 20
0.0
 30
0.0
  9
$PUCSXDIR
 10
1.0
 20
0.0
 30
0.0
  9
$PUCSYDIR
 10
0.0
 20
1.0
 30
0.0
  9
$USERI1
 70
     0
  9
$USERI2
 70
     0
  9
$USERI3
 70
     0
  9
$USERI4
 70
     0
  9
$USERI5
 70
     0
  9
$USERR1
 40
0.0
  9
$USERR2
 40
0.0
  9
$USERR3
 40
0.0
  9
$USERR4
 40
0.0
  9
$USERR5
 40
0.0
  9
$WORLDVIEW
 70
     1
  9
$SHADEDGE
 70
     3
  9
$SHADEDIF
 70
    70
  9
$TILEMODE
 70
     1
  9
$MAXACTVP
 70
    16
  9
$PINSBASE
 10
0.0
 20
0.0
 30
0.0
  9
$PLIMCHECK
 70
     0
  9
$PEXTMIN
 10
1.000000000000000E+20
 20
1.000000000000000E+20
 30
1.000000000000000E+20
  9
$PEXTMAX
 10
-1.000000000000000E+20
 20
-1.000000000000000E+20
 30
-1.000000000000000E+20
  9
$PLIMMIN
 10
0.0
 20
0.0
  9
$PLIMMAX
 10
12.0
 20
9.0
  9
$UNITMODE
 70
     0
  9
$VISRETAIN
 70
     0
  9
$PLINEGEN
 70
     0
  9
$PSLTSCALE
 70
     1
  9
$TREEDEPTH
 70
  3020
  9
$PICKSTYLE
 70
     1
  9
$CMLSTYLE
  2
STANDARD
  9
$CMLJUST
 70
     0
  9
$CMLSCALE
 40
1.0
  9
$SAVEIMAGES
 70
     1
  0
ENDSEC
  0
SECTION
  2
CLASSES
  0
CLASS
  1
XRECORD
  2
AcDbXrecord
  3
AutoCAD 2000
 90
    32768
280
     0
281
     0
  0
CLASS
  1
LWPOLYLINE
  2
AcDbPolyline
  3
AutoCAD 2000
 90
    32768
280
     0
281
     1
  0
CLASS
  1
HATCH
  2
AcDbHatch
  3
AutoCAD 2000
 90
    32768
280
     0
281
     1
  0
CLASS
  1
ACDBPLACEHOLDER
  2
AcDbPlaceHolder
  3
ObjectDBX Classes
 90
        0
280
     0
281
     0
  0
CLASS
  1
LAYOUT
  2
AcDbLayout
  3
ObjectDBX Classes
 90
        0
280
     0
281
     0
  0
ENDSEC
  0
SECTION
  2
TABLES
  0
TABLE
  2
VPORT
  5
8
330
0
100
AcDbSymbolTable
 70
     1
  0
VPORT
  5
2F3
102
{ACAD_XDICTIONARY
360
408
102
}
330
8
100
AcDbSymbolTableRecord
100
AcDbViewportTableRecord
  2
*ACTIVE
 70
     0
 10
0.0
 20
0.0
 11
1.0
 21
1.0
 12
344.20762
 22
156.074301
 13
0.0
 23
0.0
 14
1.0
 24
1.0
 15
0.0
 25
0.0
 16
0.0
 26
0.0
 36
1.0
 17
0.0
 27
0.0
 37
0.0
 40
403.310214
 41
1.915354
 42
50.0
 43
0.0
 44
0.0
 50
0.0
 51
0.0
 71
     0
 72
   100
 73
     1
 74
     1
 75
     0
 76
     0
 77
     0
 78
     0
  0
ENDTAB
  0
TABLE
  2
LTYPE
  5
5
330
0
100
AcDbSymbolTable
 70
     3
  0
LTYPE
  5
14
330
5
100
AcDbSymbolTableRecord
100
AcDbLinetypeTableRecord
  2
BYBLOCK
 70
     0
  3

 72
    65
 73
     0
 40
0.0
  0
LTYPE
  5
15
330
5
100
AcDbSymbolTableRecord
100
AcDbLinetypeTableRecord
  2
BYLAYER
 70
     0
  3

 72
    65
 73
     0
 40
0.0
  0
LTYPE
  5
16
330
5
100
AcDbSymbolTableRecord
100
AcDbLinetypeTableRecord
  2
CONTINUOUS
 70
     0
  3
Solid line
 72
    65
 73
     0
 40
0.0
  0
LTYPE
  5
28
330
5
100
AcDbSymbolTableRecord
100
AcDbLinetypeTableRecord
  2
DASHDOT
 70
     0
  3
__ . __ . __ . __ . __ . __ . __ . __ . __ . __
 72
    65
 73
     4
 40
1.0
 49
0.5
 74
     0
 49
-0.25
 74
     0
 49
0.0
 74
     0
 49
-0.25
 74
     0
  0
LTYPE
  5
164
330
5
100
AcDbSymbolTableRecord
100
AcDbLinetypeTableRecord
  2
HIDDEN
 70
     0
  3
__ __ __ __ __ __ __ __ __ __ __ __ __ __ __ __
 72
    65
 73
     2
 40
0.375
 49
0.25
 74
     0
 49
-0.125
 74
     0
  0
ENDTAB
  0
TABLE
  2
LAYER
  5
2
330
0
100
AcDbSymbolTable
 70
     3
  0
LAYER
  5
F
330
2
100
AcDbSymbolTableRecord
100
AcDbLayerTableRecord
  2
0
 70
     0
 62
     7
  6
CONTINUOUS
  0
LAYER
  5
29
330
2
100
AcDbSymbolTableRecord
100
AcDbLayerTableRecord
  2
BRACKET
 70
     0
 62
     5
  6
CONTINUOUS
  0
LAYER
  5
2A
330
2
100
AcDbSymbolTableRecord
100
AcDbLayerTableRecord
  2
AXIS
 70
     0
 62
     1
  6
DASHDOT
  0
ENDTAB
  0
TABLE
  2
STYLE
  5
3
330
0
100
AcDbSymbolTable
 70
     1
  0
STYLE
  5
10
330
3
100
AcDbSymbolTableRecord
100
AcDbTextStyleTableRecord
  2
STANDARD
 70
     0
 40
0.0
 41
1.0
 50
0.0
 71
     0
 42
0.2
  3
txt
  4

  0
ENDTAB
  0
TABLE
  2
VIEW
  5
6
330
0
100
AcDbSymbolTable
 70
     0
  0
ENDTAB
  0
TABLE
  2
UCS
  5
7
330
0
100
AcDbSymbolTable
 70
     0
  0
ENDTAB
  0
TABLE
  2
APPID
  5
9
330
0
100
AcDbSymbolTable
 70
     1
  0
APPID
  5
11
330
9
100
AcDbSymbolTableRecord
100
AcDbRegAppTableRecord
  2
ACAD
 70
     0
  0
ENDTAB
  0
TABLE
  2
DIMSTYLE
  5
A
330
0
100
AcDbSymbolTable
 70
     1
  0
DIMSTYLE
105
1D
330
A
100
AcDbSymbolTableRecord
100
AcDbDimStyleTableRecord
  2
STANDARD
 70
     0
  3

  4

  5

  6

  7

 40
1.0
 41
0.18
 42
0.0625
 43
0.38
 44
0.18
 45
0.0
 46
0.0
 47
0.0
 48
0.0
140
0.18
141
0.09
142
0.0
143
25.4
144
1.0
145
0.0
146
1.0
147
0.09
 71
     0
 72
     0
 73
     1
 74
     1
 75
     0
 76
     0
 77
     0
 78
     0
170
     0
171
     2
172
     0
173
     0
174
     0
175
     0
176
     0
177
     0
178
     0
270
     2
271
     4
272
     4
273
     2
274
     2
340
10
275
     0
280
     0
281
     0
282
     0
283
     1
284
     0
285
     0
286
     0
287
     3
288
     0
  0
ENDTAB
  0
TABLE
  2
BLOCK_RECORD
  5
1
330
0
100
AcDbSymbolTable
 70
     0
  0
BLOCK_RECORD
  5
1A
330
1
100
AcDbSymbolTableRecord
100
AcDbBlockTableRecord
  2
*MODEL_SPACE
  0
BLOCK_RECORD
  5
17
330
1
100
AcDbSymbolTableRecord
100
AcDbBlockTableRecord
  2
*PAPER_SPACE
  0
ENDTAB
  0
ENDSEC
  0
SECTION
  2
BLOCKS
  0
BLOCK
  5
1B
330
1A
100
AcDbEntity
  8
0
100
AcDbBlockBegin
  2
*MODEL_SPACE
 70
     0
 71
     0
 10
0.0
 20
0.0
 30
0.0
  3
*MODEL_SPACE
  1

  0
ENDBLK
  5
1C
330
1A
100
AcDbEntity
  8
0
100
AcDbBlockEnd
  0
BLOCK
  5
18
330
17
100
AcDbEntity
 67
     1
  8
0
100
AcDbBlockBegin
  2
*PAPER_SPACE
 70
     0
 71
     0
 10
0.0
 20
0.0
 30
0.0
  3
*PAPER_SPACE
  1

  0
ENDBLK
  5
19
330
17
100
AcDbEntity
 67
     1
  8
0
100
AcDbBlockEnd
  0
ENDSEC
  0
SECTION
  2
ENTITIES
  0
POLYLINE
  5
1C6
330
1A
100
AcDbEntity
  8
BRACKET
100
AcDb2dPolyline
 66
     1
 10
0.0
 20
0.0
 30
0.0
  0
VERTEX
  5
394
330
1C6
100
AcDbEntity
  8
BRACKET
100
AcDbVertex
100
AcDb2dVertex
 10
17.043254
 20
266.229401
 30
0.0
  0
VERTEX
  5
395
330
1C6
100
AcDbEntity
  8
BRACKET
100
AcDbVertex
100
AcDb2dVertex
 10
17.043254
 20
311.117758
 30
0.0
  0
SEQEND
  5
393
330
1C6
100
AcDbEntity
  8
BRACKET
  0
POLYLINE
  5
1CA
330
1A
100
AcDbEntity
  8
BRACKET
100
AcDb2dPolyline
 66
     1
 10
0.0
 20
0.0
 30
0.0
  0
VERTEX
  5
397
330
1CA
100
AcDbEntity
  8
BRACKET
100
AcDbVertex
100
AcDb2dVertex
 10
53.043254
 20
311.117758
 30
0.0
  0
VERTEX
  5
398
330
1CA
100
AcDbEntity
  8
BRACKET
100
AcDbVertex
100
AcDb2dVertex
 10
53.043254
 20
266.229401
 30
0.0
  0
SEQEND
  5
396
330
1CA
100
AcDbEntity
  8
BRACKET
  0
LINE
  5
1CE
330
1A
100
AcDbEntity
  8
AXIS
 48
10.0
100
AcDbLine
 10
-17.642198
 20
286.229401
 30
0.0
 11
73.10342799999999
 21
286.229401
 31
0.0
  0
LINE
  5
1CF
330
1A
100
AcDbEntity
  8
BRACKET
100
AcDbLine
 10
-6.956746
 20
280.229401
 30
0.0
 11
-6.956746
 21
292.229401
 31
0.0
  0
POLYLINE
  5
1D0
330
1A
100
AcDbEntity
  8
BRACKET
100
AcDb2dPolyline
 66
     1
 10
0.0
 20
0.0
 30
0.0
  0
VERTEX
  5
39A
330
1D0
100
AcDbEntity
  8
BRACKET
100
AcDbVertex
100
AcDb2dVertex
 10
53.043254
 20
292.229401
 30
0.0
  0
VERTEX
  5
39B
330
1D0
100
AcDbEntity
  8
BRACKET
100
AcDbVertex
100
AcDb2dVertex
 10
63.043254
 20
292.229401
 30
0.0
  0
VERTEX
  5
39C
330
1D0
100
AcDbEntity
  8
BRACKET
100
AcDbVertex
100
AcDb2dVertex
 10
63.043254
 20
280.229401
 30
0.0
  0
VERTEX
  5
39D
330
1D0
100
AcDbEntity
  8
BRACKET
100
AcDbVertex
100
AcDb2dVertex
 10
53.043254
 20
280.229401
 30
0.0
  0
SEQEND
  5
399
330
1D0
100
AcDbEntity
  8
BRACKET
  0
LINE
  5
1D6
330
1A
100
AcDbEntity
  8
BRACKET
100
AcDbLine
 10
17.043254
 20
266.229401
 30
0.0
 11
53.043254
 21
266.229401
 31
0.0
  0
ARC
  5
1D7
330
1A
100
AcDbEntity
  8
BRACKET
100
AcDbCircle
 10
-17.138292
 20
231.392815
 30
0.0
 40
31.185796
100
AcDbArc
 50
272.171304
 51
359.054167
  0
LINE
  5
1D8
330
1A
100
AcDbEntity
  8
BRACKET
100
AcDbLine
 10
55.782866
 20
194.446834
 30
0.0
 11
15.188171
 21
71.636892
 31
0.0
  0
ARC
  5
1D9
330
1A
100
AcDbEntity
  8
BRACKET
100
AcDbCircle
 10
10.44856
 20
73.229401
 30
0.0
 40
5.0
100
AcDbArc
 50
270.0
 51
341.427651
  0
LINE
  5
1DA
330
1A
100
AcDbEntity
  8
BRACKET
100
AcDbLine
 10
-6.956746
 20
66.229401
 30
0.0
 11
-15.956746
 21
66.229401
 31
0.0
  0
LINE
  5
1DB
330
1A
100
AcDbEntity
  8
BRACKET
100
AcDbLine
 10
14.043254
 20
230.878026
 30
0.0
 11
14.043254
 21
261.229401
 31
0.0
  0
ARC
  5
1DC
330
1A
100
AcDbEntity
  8
BRACKET
100
AcDbCircle
 10
19.043254
 20
261.229401
 30
0.0
 40
5.0
100
AcDbArc
 50
90.0
 51
180.0
  0
LINE
  5
1DD
330
1A
100
AcDbEntity
  8
BRACKET
100
AcDbLine
 10
19.043254
 20
266.229401
 30
0.0
 11
51.043254
 21
266.229401
 31
0.0
  0
ARC
  5
1DE
330
1A
100
AcDbEntity
  8
BRACKET
100
AcDbCircle
 10
51.043254
 20
261.229401
 30
0.0
 40
5.0
100
AcDbArc
 50
0.0
 51
90.0
  0
LINE
  5
1DF
330
1A
100
AcDbEntity
  8
BRACKET
100
AcDbLine
 10
56.043254
 20
261.229401
 30
0.0
 11
56.043254
 21
196.039343
 31
0.0
  0
ARC
  5
1E0
330
1A
100
AcDbEntity
  8
BRACKET
100
AcDbCircle
 10
51.043254
 20
196.039343
 30
0.0
 40
5.0
100
AcDbArc
 50
341.427651
 51
0.0
  0
LINE
  5
1E1
330
1A
100
AcDbEntity
  8
AXIS
 48
10.0
100
AcDbLine
 10
35.043254
 20
240.778499
 30
0.0
 11
35.043254
 21
277.668695
 31
0.0
  0
LINE
  5
1E2
330
1A
100
AcDbEntity
  8
AXIS
 48
10.0
100
AcDbLine
 10
10.119872
 20
81.479401
 30
0.0
 11
-42.033363
 21
81.479401
 31
0.0
  0
LINE
  5
1E3
330
1A
100
AcDbEntity
  8
AXIS
 48
10.0
100
AcDbLine
 10
10.119872
 20
124.479401
 30
0.0
 11
-42.033363
 21
124.479401
 31
0.0
  0
LINE
  5
1E4
330
1A
100
AcDbEntity
  8
AXIS
 48
10.0
100
AcDbLine
 10
10.119872
 20
137.979401
 30
0.0
 11
-42.033363
 21
137.979401
 31
0.0
  0
LINE
  5
1E5
330
1A
100
AcDbEntity
  8
AXIS
 48
10.0
100
AcDbLine
 10
10.119872
 20
180.979401
 30
0.0
 11
-42.033363
 21
180.979401
 31
0.0
  0
LINE
  5
1E6
330
1A
100
AcDbEntity
  8
BRACKET
100
AcDbLine
 10
-6.956746
 20
66.229401
 30
0.0
 11
10.44856
 21
68.229401
 31
0.0
  0
ARC
  5
1E7
330
1A
100
AcDbEntity
  8
BRACKET
100
AcDbCircle
 10
30.293254
 20
317.758383
 30
0.0
 40
6.640625
100
AcDbArc
 50
224.332692
 51
315.667308
  0
ARC
  5
1E8
330
1A
100
AcDbEntity
  8
BRACKET
100
AcDbCircle
 10
39.793254
 20
317.758383
 30
0.0
 40
6.640625
100
AcDbArc
 50
224.332692
 51
315.667308
  0
LINE
  5
1E9
330
1A
100
AcDbEntity
  8
BRACKET
100
AcDbLine
 10
60.043254
 20
352.841001
 30
0.0
 11
60.043254
 21
349.341001
 31
0.0
  0
LINE
  5
1EA
330
1A
100
AcDbEntity
  8
BRACKET
100
AcDbLine
 10
40.043254
 20
357.729358
 30
0.0
 11
35.043254
 21
357.729358
 31
0.0
  0
LINE
  5
1EB
330
1A
100
AcDbEntity
  8
BRACKET
100
AcDbLine
 10
41.043254
 20
352.229358
 30
0.0
 11
35.043254
 21
352.229358
 31
0.0
  0
LINE
  5
1EC
330
1A
100
AcDbEntity
  8
BRACKET
100
AcDbLine
 10
46.543254
 20
323.117758
 30
0.0
 11
35.043254
 21
323.117758
 31
0.0
  0
LINE
  5
1ED
330
1A
100
AcDbEntity
  8
BRACKET
100
AcDbLine
 10
46.543254
 20
339.84166
 30
0.0
 11
46.543254
 21
323.117758
 31
0.0
  0
LINE
  5
1EE
330
1A
100
AcDbEntity
  8
BRACKET
100
AcDbLine
 10
59.450986
 20
354.617805
 30
0.0
 11
60.043254
 21
352.841001
 31
0.0
  0
LINE
  5
1EF
330
1A
100
AcDbEntity
  8
BRACKET
100
AcDbLine
 10
60.043254
 20
349.341001
 30
0.0
 11
53.000425
 21
343.541024
 31
0.0
  0
ARC
  5
1F0
330
1A
100
AcDbEntity
  8
BRACKET
100
AcDbCircle
 10
57.55362
 20
353.373707
 30
0.0
 40
2.0
100
AcDbArc
 50
18.434949
 51
84.05313700000001
  0
ARC
  5
1F1
330
1A
100
AcDbEntity
  8
BRACKET
100
AcDbCircle
 10
56.909913
 20
326.458083
 30
0.0
 40
16.928903
100
AcDbArc
 50
103.352167
 51
127.760668
  0
LINE
  5
1F2
330
1A
100
AcDbEntity
  8
BRACKET
100
AcDbLine
 10
40.043254
 20
357.729358
 30
0.0
 11
57.760832
 21
355.362944
 31
0.0
  0
ARC
  5
1F3
330
1A
100
AcDbEntity
  8
BRACKET
100
AcDbCircle
 10
53.088362
 20
334.129759
 30
0.0
 40
21.741208
100
AcDbArc
 50
77.589573
 51
123.64338
  0
ARC
  5
1F4
330
1A
100
AcDbEntity
  8
BRACKET
100
AcDbCircle
 10
45.687848
 20
345.202781
 30
0.0
 40
5.046449
100
AcDbArc
 50
203.019954
 51
279.759127
  0
LINE
  5
1F5
330
1A
100
AcDbEntity
  8
BRACKET
100
AcDbLine
 10
41.043254
 20
352.229358
 30
0.0
 11
41.043254
 21
343.229358
 31
0.0
  0
LINE
  5
1F6
330
1A
100
AcDbEntity
  8
BRACKET
100
AcDbLine
 10
41.043254
 20
343.229358
 30
0.0
 11
35.043254
 21
343.229358
 31
0.0
  0
LINE
  5
1F7
330
1A
100
AcDbEntity
  8
BRACKET
100
AcDbLine
 10
29.043254
 20
343.229358
 30
0.0
 11
35.043254
 21
343.229358
 31
0.0
  0
LINE
  5
1F8
330
1A
100
AcDbEntity
  8
BRACKET
100
AcDbLine
 10
29.043254
 20
352.229358
 30
0.0
 11
29.043254
 21
343.229358
 31
0.0
  0
ARC
  5
1F9
330
1A
100
AcDbEntity
  8
BRACKET
100
AcDbCircle
 10
24.39866
 20
345.202781
 30
0.0
 40
5.046449
100
AcDbArc
 50
260.240873
 51
336.980046
  0
ARC
  5
1FA
330
1A
100
AcDbEntity
  8
BRACKET
100
AcDbCircle
 10
16.998147
 20
334.129759
 30
0.0
 40
21.741208
100
AcDbArc
 50
56.35662
 51
102.410427
  0
LINE
  5
1FB
330
1A
100
AcDbEntity
  8
BRACKET
100
AcDbLine
 10
30.043254
 20
357.729358
 30
0.0
 11
12.325677
 21
355.362944
 31
0.0
  0
ARC
  5
1FC
330
1A
100
AcDbEntity
  8
BRACKET
100
AcDbCircle
 10
13.176595
 20
326.458083
 30
0.0
 40
16.928903
100
AcDbArc
 50
52.239332
 51
76.64783300000001
  0
ARC
  5
1FD
330
1A
100
AcDbEntity
  8
BRACKET
100
AcDbCircle
 10
12.532889
 20
353.373707
 30
0.0
 40
2.0
100
AcDbArc
 50
95.94686299999999
 51
161.565051
  0
LINE
  5
1FE
330
1A
100
AcDbEntity
  8
BRACKET
100
AcDbLine
 10
10.043254
 20
348.729358
 30
0.0
 11
17.086083
 21
342.929381
 31
0.0
  0
LINE
  5
1FF
330
1A
100
AcDbEntity
  8
BRACKET
100
AcDbLine
 10
10.635523
 20
354.006162
 30
0.0
 11
10.043254
 21
352.229358
 31
0.0
  0
LINE
  5
200
330
1A
100
AcDbEntity
  8
BRACKET
100
AcDbLine
 10
23.543254
 20
339.84166
 30
0.0
 11
23.543254
 21
323.117758
 31
0.0
  0
LINE
  5
201
330
1A
100
AcDbEntity
  8
BRACKET
100
AcDbLine
 10
23.543254
 20
323.117758
 30
0.0
 11
35.043254
 21
323.117758
 31
0.0
  0
LINE
  5
202
330
1A
100
AcDbEntity
  8
BRACKET
100
AcDbLine
 10
29.043254
 20
352.229358
 30
0.0
 11
35.043254
 21
352.229358
 31
0.0
  0
LINE
  5
203
330
1A
100
AcDbEntity
  8
BRACKET
100
AcDbLine
 10
30.043254
 20
357.729358
 30
0.0
 11
35.043254
 21
357.729358
 31
0.0
  0
LINE
  5
204
330
1A
100
AcDbEntity
  8
BRACKET
100
AcDbLine
 10
10.043254
 20
352.229358
 30
0.0
 11
10.043254
 21
348.729358
 31
0.0
  0
LINE
  5
205
330
1A
100
AcDbEntity
  8
BRACKET
100
AcDbLine
 10
25.543254
 20
321.117758
 30
0.0
 11
25.543254
 21
313.117758
 31
0.0
  0
LINE
  5
206
330
1A
100
AcDbEntity
  8
BRACKET
100
AcDbLine
 10
44.543254
 20
313.117758
 30
0.0
 11
44.543254
 21
321.117758
 31
0.0
  0
LINE
  5
207
330
1A
100
AcDbEntity
  8
BRACKET
100
AcDbLine
 10
39.793254
 20
323.117758
 30
0.0
 11
35.043254
 21
323.117758
 31
0.0
  0
LINE
  5
208
330
1A
100
AcDbEntity
  8
BRACKET
100
AcDbLine
 10
35.043254
 20
323.117758
 30
0.0
 11
30.293254
 21
323.117758
 31
0.0
  0
ARC
  5
209
330
1A
100
AcDbEntity
  8
BRACKET
100
AcDbCircle
 10
30.293254
 20
316.477133
 30
0.0
 40
6.640625
100
AcDbArc
 50
44.33269200000001
 51
135.667308
  0
ARC
  5
20A
330
1A
100
AcDbEntity
  8
BRACKET
100
AcDbCircle
 10
39.793254
 20
316.477133
 30
0.0
 40
6.640625
100
AcDbArc
 50
44.33269200000001
 51
135.667308
  0
LINE
  5
20B
330
1A
100
AcDbEntity
  8
BRACKET
100
AcDbLine
 10
35.043254
 20
321.117758
 30
0.0
 11
35.043254
 21
313.117758
 31
0.0
  0
POLYLINE
  5
20C
330
1A
100
AcDbEntity
  8
BRACKET
100
AcDb2dPolyline
 66
     1
 10
0.0
 20
0.0
 30
0.0
  0
VERTEX
  5
39F
330
20C
100
AcDbEntity
  8
BRACKET
100
AcDbVertex
100
AcDb2dVertex
 10
-15.956746
 20
66.229401
 30
0.0
  0
VERTEX
  5
3A0
330
20C
100
AcDbEntity
  8
BRACKET
100
AcDbVertex
100
AcDb2dVertex
 10
-15.956746
 20
200.22941
 30
0.0
  0
SEQEND
  5
39E
330
20C
100
AcDbEntity
  8
BRACKET
  0
LINE
  5
210
330
1A
100
AcDbEntity
  8
BRACKET
100
AcDbLine
 10
17.043254
 20
311.117758
 30
0.0
 11
53.043254
 21
311.117758
 31
0.0
  0
LINE
  5
211
330
1A
100
AcDbEntity
  8
BRACKET
100
AcDbLine
 10
17.043254
 20
311.117758
 30
0.0
 11
53.043254
 21
311.117758
 31
0.0
  0
LINE
  5
212
330
1A
100
AcDbEntity
  8
BRACKET
100
AcDbLine
 10
15.043254
 20
277.729401
 30
0.0
 11
17.043254
 21
277.729401
 31
0.0
  0
LINE
  5
213
330
1A
100
AcDbEntity
  8
BRACKET
100
AcDbLine
 10
15.043254
 20
294.729401
 30
0.0
 11
17.043254
 21
294.729401
 31
0.0
  0
LINE
  5
214
330
1A
100
AcDbEntity
  8
BRACKET
100
AcDbLine
 10
15.043254
 20
294.729401
 30
0.0
 11
15.043254
 21
277.729401
 31
0.0
  0
POLYLINE
  5
215
330
1A
100
AcDbEntity
  8
BRACKET
100
AcDb2dPolyline
 66
     1
 10
0.0
 20
0.0
 30
0.0
  0
VERTEX
  5
3A2
330
215
100
AcDbEntity
  8
BRACKET
100
AcDbVertex
100
AcDb2dVertex
 10
15.043254
 20
280.229401
 30
0.0
  0
VERTEX
  5
3A3
330
215
100
AcDbEntity
  8
BRACKET
100
AcDbVertex
100
AcDb2dVertex
 10
-6.956746
 20
280.229401
 30
0.0
  0
VERTEX
  5
3A4
330
215
100
AcDbEntity
  8
BRACKET
100
AcDbVertex
100
AcDb2dVertex
 10
-8.956746000000001
 20
282.229401
 30
0.0
  0
SEQEND
  5
3A1
330
215
100
AcDbEntity
  8
BRACKET
  0
POLYLINE
  5
21A
330
1A
100
AcDbEntity
  8
BRACKET
100
AcDb2dPolyline
 66
     1
 10
0.0
 20
0.0
 30
0.0
  0
VERTEX
  5
3A6
330
21A
100
AcDbEntity
  8
BRACKET
100
AcDbVertex
100
AcDb2dVertex
 10
-8.956746000000001
 20
282.229401
 30
0.0
  0
VERTEX
  5
3A7
330
21A
100
AcDbEntity
  8
BRACKET
100
AcDbVertex
100
AcDb2dVertex
 10
-8.956746000000001
 20
290.229401
 30
0.0
  0
VERTEX
  5
3A8
330
21A
100
AcDbEntity
  8
BRACKET
100
AcDbVertex
100
AcDb2dVertex
 10
-6.956746
 20
292.229401
 30
0.0
  0
VERTEX
  5
3A9
330
21A
100
AcDbEntity
  8
BRACKET
100
AcDbVertex
100
AcDb2dVertex
 10
15.043254
 20
292.229401
 30
0.0
  0
SEQEND
  5
3A5
330
21A
100
AcDbEntity
  8
BRACKET
  0
LINE
  5
220
330
1A
100
AcDbEntity
  8
BRACKET
100
AcDbLine
 10
-15.956746
 20
-0.080806
 30
0.0
 11
-15.956746
 21
-38.080806
 31
0.0
  0
LINE
  5
221
330
1A
100
AcDbEntity
  8
BRACKET
100
AcDbLine
 10
-15.956746
 20
-0.080806
 30
0.0
 11
19.043254
 21
-0.080806
 31
0.0
  0
LINE
  5
222
330
1A
100
AcDbEntity
  8
BRACKET
100
AcDbLine
 10
-15.956746
 20
-38.080806
 30
0.0
 11
19.043254
 21
-38.080806
 31
0.0
  0
LINE
  5
223
330
1A
100
AcDbEntity
  8
AXIS
100
AcDbLine
 10
-26.391798
 20
-19.080806
 30
0.0
 11
68.54325400000001
 21
-19.080806
 31
0.0
  0
ARC
  5
224
330
1A
100
AcDbEntity
  8
BRACKET
100
AcDbCircle
 10
35.043254
 20
-19.080806
 30
0.0
 40
18.0
100
AcDbArc
 50
204.624318
 51
245.375682
  0
LINE
  5
225
330
1A
100
AcDbEntity
  8
BRACKET
  6
HIDDEN
100
AcDbLine
 10
9.420755
 20
-13.080806
 30
0.0
 11
60.643196
 21
-13.05289
 31
0.0
  0
LINE
  5
226
330
1A
100
AcDbEntity
  8
BRACKET
  6
HIDDEN
100
AcDbLine
 10
9.420755
 20
-25.080806
 30
0.0
 11
60.643196
 21
-25.108722
 31
0.0
  0
LINE
  5
227
330
1A
100
AcDbEntity
  8
BRACKET
100
AcDbLine
 10
-6.956746
 20
-25.080806
 30
0.0
 11
-6.956746
 21
-13.080806
 31
0.0
  0
POLYLINE
  5
228
330
1A
100
AcDbEntity
  8
BRACKET
100
AcDb2dPolyline
 66
     1
 10
0.0
 20
0.0
 30
0.0
  0
VERTEX
  5
3AB
330
228
100
AcDbEntity
  8
BRACKET
100
AcDbVertex
100
AcDb2dVertex
 10
-8.956746000000001
 20
-23.080806
 30
0.0
  0
VERTEX
  5
3AC
330
228
100
AcDbEntity
  8
BRACKET
100
AcDbVertex
100
AcDb2dVertex
 10
-8.956746000000001
 20
-15.080806
 30
0.0
  0
VERTEX
  5
3AD
330
228
100
AcDbEntity
  8
BRACKET
100
AcDbVertex
100
AcDb2dVertex
 10
-6.956746
 20
-13.080806
 30
0.0
  0
VERTEX
  5
3AE
330
228
100
AcDbEntity
  8
BRACKET
100
AcDbVertex
100
AcDb2dVertex
 10
9.420755
 20
-13.080806
 30
0.0
  0
SEQEND
  5
3AA
330
228
100
AcDbEntity
  8
BRACKET
  0
POLYLINE
  5
22E
330
1A
100
AcDbEntity
  8
BRACKET
100
AcDb2dPolyline
 66
     1
 10
0.0
 20
0.0
 30
0.0
  0
VERTEX
  5
3B0
330
22E
100
AcDbEntity
  8
BRACKET
100
AcDbVertex
100
AcDb2dVertex
 10
60.643196
 20
-13.05289
 30
0.0
  0
VERTEX
  5
3B1
330
22E
100
AcDbEntity
  8
BRACKET
100
AcDbVertex
100
AcDb2dVertex
 10
63.043254
 20
-13.080806
 30
0.0
  0
VERTEX
  5
3B2
330
22E
100
AcDbEntity
  8
BRACKET
100
AcDbVertex
100
AcDb2dVertex
 10
63.043254
 20
-25.080806
 30
0.0
  0
VERTEX
  5
3B3
330
22E
100
AcDbEntity
  8
BRACKET
100
AcDbVertex
100
AcDb2dVertex
 10
60.643196
 20
-25.108722
 30
0.0
  0
SEQEND
  5
3AF
330
22E
100
AcDbEntity
  8
BRACKET
  0
POLYLINE
  5
234
330
1A
100
AcDbEntity
  8
BRACKET
100
AcDb2dPolyline
 66
     1
 10
0.0
 20
0.0
 30
0.0
  0
VERTEX
  5
3B5
330
234
100
AcDbEntity
  8
BRACKET
100
AcDbVertex
100
AcDb2dVertex
 10
9.420755
 20
-25.080806
 30
0.0
  0
VERTEX
  5
3B6
330
234
100
AcDbEntity
  8
BRACKET
100
AcDbVertex
100
AcDb2dVertex
 10
-6.956746
 20
-25.080806
 30
0.0
  0
VERTEX
  5
3B7
330
234
100
AcDbEntity
  8
BRACKET
100
AcDbVertex
100
AcDb2dVertex
 10
-8.956746000000001
 20
-23.080806
 30
0.0
  0
SEQEND
  5
3B4
330
234
100
AcDbEntity
  8
BRACKET
  0
CIRCLE
  5
239
330
1A
100
AcDbEntity
  8
BRACKET
100
AcDbCircle
 10
35.043254
 20
-19.080806
 30
0.0
 40
6.5
  0
ARC
  5
23A
330
1A
100
AcDbEntity
  8
BRACKET
100
AcDbCircle
 10
12.543254
 20
-15.580806
 30
0.0
 40
4.0
100
AcDbArc
 50
90.0
 51
180.0
  0
ARC
  5
23B
330
1A
100
AcDbEntity
  8
BRACKET
100
AcDbCircle
 10
12.543254
 20
-22.580806
 30
0.0
 40
4.0
100
AcDbArc
 50
180.0
 51
270.0
  0
ARC
  5
23C
330
1A
100
AcDbEntity
  8
BRACKET
100
AcDbCircle
 10
31.543254
 20
-41.580806
 30
0.0
 40
4.0
100
AcDbArc
 50
180.0
 51
270.0
  0
ARC
  5
23D
330
1A
100
AcDbEntity
  8
BRACKET
100
AcDbCircle
 10
38.543254
 20
-41.580806
 30
0.0
 40
4.0
100
AcDbArc
 50
270.0
 51
0.0
  0
ARC
  5
23E
330
1A
100
AcDbEntity
  8
BRACKET
100
AcDbCircle
 10
57.543254
 20
-22.580806
 30
0.0
 40
4.0
100
AcDbArc
 50
270.0
 51
0.0
  0
ARC
  5
23F
330
1A
100
AcDbEntity
  8
BRACKET
100
AcDbCircle
 10
57.543254
 20
-15.580806
 30
0.0
 40
4.0
100
AcDbArc
 50
0.0
 51
90.0
  0
ARC
  5
240
330
1A
100
AcDbEntity
  8
BRACKET
100
AcDbCircle
 10
38.543254
 20
3.419194
 30
0.0
 40
4.0
100
AcDbArc
 50
0.0
 51
90.0
  0
ARC
  5
241
330
1A
100
AcDbEntity
  8
BRACKET
100
AcDbCircle
 10
31.543254
 20
3.419194
 30
0.0
 40
4.0
100
AcDbArc
 50
90.0
 51
180.0
  0
LINE
  5
242
330
1A
100
AcDbEntity
  8
BRACKET
100
AcDbLine
 10
42.543254
 20
-32.902929
 30
0.0
 11
42.543254
 21
-41.580806
 31
0.0
  0
LINE
  5
243
330
1A
100
AcDbEntity
  8
BRACKET
100
AcDbLine
 10
27.543254
 20
-32.90293
 30
0.0
 11
27.543254
 21
-41.580806
 31
0.0
  0
LINE
  5
244
330
1A
100
AcDbEntity
  8
BRACKET
100
AcDbLine
 10
31.543254
 20
-45.580806
 30
0.0
 11
38.543254
 21
-45.580806
 31
0.0
  0
LINE
  5
245
330
1A
100
AcDbEntity
  8
BRACKET
100
AcDbLine
 10
21.221131
 20
-26.580806
 30
0.0
 11
12.543254
 21
-26.580806
 31
0.0
  0
ARC
  5
246
330
1A
100
AcDbEntity
  8
BRACKET
100
AcDbCircle
 10
16.304925
 20
-37.819136
 30
0.0
 40
12.75
100
AcDbArc
 50
34.183982
 51
55.816018
  0
ARC
  5
247
330
1A
100
AcDbEntity
  8
BRACKET
100
AcDbCircle
 10
23.543254
 20
-32.90293
 30
0.0
 40
4.0
100
AcDbArc
 50
0.0
 51
34.183982
  0
ARC
  5
248
330
1A
100
AcDbEntity
  8
BRACKET
100
AcDbCircle
 10
21.221131
 20
-30.580806
 30
0.0
 40
4.0
100
AcDbArc
 50
55.816018
 51
90.0
  0
ARC
  5
249
330
1A
100
AcDbEntity
  8
BRACKET
100
AcDbCircle
 10
48.865378
 20
-30.580806
 30
0.0
 40
4.0
100
AcDbArc
 50
90.0
 51
124.183982
  0
ARC
  5
24A
330
1A
100
AcDbEntity
  8
BRACKET
100
AcDbCircle
 10
46.543254
 20
-32.90293
 30
0.0
 40
4.0
100
AcDbArc
 50
145.816018
 51
180.0
  0
ARC
  5
24B
330
1A
100
AcDbEntity
  8
BRACKET
100
AcDbCircle
 10
53.781584
 20
-37.819136
 30
0.0
 40
12.75
100
AcDbArc
 50
124.183982
 51
145.816018
  0
LINE
  5
24C
330
1A
100
AcDbEntity
  8
BRACKET
100
AcDbLine
 10
48.865378
 20
-26.580806
 30
0.0
 11
57.543254
 21
-26.580806
 31
0.0
  0
LINE
  5
24D
330
1A
100
AcDbEntity
  8
BRACKET
100
AcDbLine
 10
48.865378
 20
-11.580806
 30
0.0
 11
57.543254
 21
-11.580806
 31
0.0
  0
ARC
  5
24E
330
1A
100
AcDbEntity
  8
BRACKET
100
AcDbCircle
 10
53.781584
 20
-0.342477
 30
0.0
 40
12.75
100
AcDbArc
 50
214.183982
 51
235.816018
  0
ARC
  5
24F
330
1A
100
AcDbEntity
  8
BRACKET
100
AcDbCircle
 10
46.543254
 20
-5.258683
 30
0.0
 40
4.0
100
AcDbArc
 50
180.0
 51
214.183982
  0
ARC
  5
250
330
1A
100
AcDbEntity
  8
BRACKET
100
AcDbCircle
 10
48.865378
 20
-7.580806
 30
0.0
 40
4.0
100
AcDbArc
 50
235.816018
 51
270.0
  0
LINE
  5
251
330
1A
100
AcDbEntity
  8
BRACKET
100
AcDbLine
 10
61.543254
 20
-15.580806
 30
0.0
 11
61.543254
 21
-22.580806
 31
0.0
  0
LINE
  5
252
330
1A
100
AcDbEntity
  8
BRACKET
100
AcDbLine
 10
8.543253999999999
 20
-15.580806
 30
0.0
 11
8.543253999999999
 21
-22.580806
 31
0.0
  0
ARC
  5
253
330
1A
100
AcDbEntity
  8
BRACKET
100
AcDbCircle
 10
21.221131
 20
-7.580806
 30
0.0
 40
4.0
100
AcDbArc
 50
270.0
 51
304.183982
  0
ARC
  5
254
330
1A
100
AcDbEntity
  8
BRACKET
100
AcDbCircle
 10
23.543254
 20
-5.258683
 30
0.0
 40
4.0
100
AcDbArc
 50
325.816018
 51
0.0
  0
ARC
  5
255
330
1A
100
AcDbEntity
  8
BRACKET
100
AcDbCircle
 10
16.304925
 20
-0.342477
 30
0.0
 40
12.75
100
AcDbArc
 50
304.183982
 51
325.816018
  0
LINE
  5
256
330
1A
100
AcDbEntity
  8
BRACKET
100
AcDbLine
 10
21.221131
 20
-11.580806
 30
0.0
 11
12.543254
 21
-11.580806
 31
0.0
  0
LINE
  5
257
330
1A
100
AcDbEntity
  8
BRACKET
100
AcDbLine
 10
31.543254
 20
7.419194
 30
0.0
 11
38.543254
 21
7.419194
 31
0.0
  0
LINE
  5
258
330
1A
100
AcDbEntity
  8
BRACKET
100
AcDbLine
 10
27.543254
 20
-5.258683
 30
0.0
 11
27.543254
 21
3.419194
 31
0.0
  0
LINE
  5
259
330
1A
100
AcDbEntity
  8
BRACKET
100
AcDbLine
 10
42.543254
 20
-5.258683
 30
0.0
 11
42.543254
 21
3.419194
 31
0.0
  0
CIRCLE
  5
25A
330
1A
100
AcDbEntity
  8
BRACKET
  6
HIDDEN
100
AcDbCircle
 10
35.043254
 20
-19.080806
 30
0.0
 40
13.75
  0
ARC
  5
25B
330
1A
100
AcDbEntity
  8
BRACKET
100
AcDbCircle
 10
35.043254
 20
-19.080806
 30
0.0
 40
18.0
100
AcDbArc
 50
24.624318
 51
65.375682
  0
ARC
  5
25C
330
1A
100
AcDbEntity
  8
BRACKET
100
AcDbCircle
 10
35.043254
 20
-19.080806
 30
0.0
 40
18.0
100
AcDbArc
 50
294.624318
 51
335.375682
  0
ARC
  5
25D
330
1A
100
AcDbEntity
  8
BRACKET
100
AcDbCircle
 10
35.043254
 20
-19.080806
 30
0.0
 40
18.0
100
AcDbArc
 50
114.624318
 51
155.375682
  0
POLYLINE
  5
25E
330
1A
100
AcDbEntity
  8
BRACKET
100
AcDb2dPolyline
 66
     1
 10
0.0
 20
0.0
 30
0.0
  0
VERTEX
  5
3B9
330
25E
100
AcDbEntity
  8
BRACKET
100
AcDbVertex
100
AcDb2dVertex
 10
27.543254
 20
-38.080806
 30
0.0
  0
VERTEX
  5
3BA
330
25E
100
AcDbEntity
  8
BRACKET
100
AcDbVertex
100
AcDb2dVertex
 10
19.043254
 20
-38.080806
 30
0.0
 42
-0.414214
  0
VERTEX
  5
3BB
330
25E
100
AcDbEntity
  8
BRACKET
100
AcDbVertex
100
AcDb2dVertex
 10
14.043254
 20
-33.080806
 30
0.0
  0
SEQEND
  5
3B8
330
25E
100
AcDbEntity
  8
BRACKET
  0
POLYLINE
  5
263
330
1A
100
AcDbEntity
  8
BRACKET
100
AcDb2dPolyline
 66
     1
 10
0.0
 20
0.0
 30
0.0
  0
VERTEX
  5
3BD
330
263
100
AcDbEntity
  8
BRACKET
100
AcDbVertex
100
AcDb2dVertex
 10
42.543254
 20
-0.080806
 30
0.0
  0
VERTEX
  5
3BE
330
263
100
AcDbEntity
  8
BRACKET
100
AcDbVertex
100
AcDb2dVertex
 10
51.043254
 20
-0.080806
 30
0.0
 42
-0.414214
  0
VERTEX
  5
3BF
330
263
100
AcDbEntity
  8
BRACKET
100
AcDbVertex
100
AcDb2dVertex
 10
56.043254
 20
-5.080806
 30
0.0
  0
VERTEX
  5
3C0
330
263
100
AcDbEntity
  8
BRACKET
100
AcDbVertex
100
AcDb2dVertex
 10
56.043254
 20
-11.580806
 30
0.0
 42
-0.414214
  0
SEQEND
  5
3BC
330
263
100
AcDbEntity
  8
BRACKET
  0
POLYLINE
  5
269
330
1A
100
AcDbEntity
  8
BRACKET
100
AcDb2dPolyline
 66
     1
 10
0.0
 20
0.0
 30
0.0
  0
VERTEX
  5
3C2
330
269
100
AcDbEntity
  8
BRACKET
100
AcDbVertex
100
AcDb2dVertex
 10
56.043254
 20
-26.580806
 30
0.0
  0
VERTEX
  5
3C3
330
269
100
AcDbEntity
  8
BRACKET
100
AcDbVertex
100
AcDb2dVertex
 10
56.043254
 20
-33.080806
 30
0.0
 42
-0.414214
  0
VERTEX
  5
3C4
330
269
100
AcDbEntity
  8
BRACKET
100
AcDbVertex
100
AcDb2dVertex
 10
51.043254
 20
-38.080806
 30
0.0
  0
VERTEX
  5
3C5
330
269
100
AcDbEntity
  8
BRACKET
100
AcDbVertex
100
AcDb2dVertex
 10
42.543254
 20
-38.080806
 30
0.0
 42
-0.414214
  0
SEQEND
  5
3C1
330
269
100
AcDbEntity
  8
BRACKET
  0
POLYLINE
  5
26F
330
1A
100
AcDbEntity
  8
BRACKET
100
AcDb2dPolyline
 66
     1
 10
0.0
 20
0.0
 30
0.0
  0
VERTEX
  5
3C7
330
26F
100
AcDbEntity
  8
BRACKET
100
AcDbVertex
100
AcDb2dVertex
 10
14.043254
 20
-33.080806
 30
0.0
  0
VERTEX
  5
3C8
330
26F
100
AcDbEntity
  8
BRACKET
100
AcDbVertex
100
AcDb2dVertex
 10
14.043254
 20
-26.580806
 30
0.0
 42
-0.414214
  0
SEQEND
  5
3C6
330
26F
100
AcDbEntity
  8
BRACKET
  0
POLYLINE
  5
273
330
1A
100
AcDbEntity
  8
BRACKET
100
AcDb2dPolyline
 66
     1
 10
0.0
 20
0.0
 30
0.0
  0
VERTEX
  5
3CA
330
273
100
AcDbEntity
  8
BRACKET
100
AcDbVertex
100
AcDb2dVertex
 10
14.043254
 20
-11.580806
 30
0.0
  0
VERTEX
  5
3CB
330
273
100
AcDbEntity
  8
BRACKET
100
AcDbVertex
100
AcDb2dVertex
 10
14.043254
 20
-5.080806
 30
0.0
 42
-0.414214
  0
VERTEX
  5
3CC
330
273
100
AcDbEntity
  8
BRACKET
100
AcDbVertex
100
AcDb2dVertex
 10
19.043254
 20
-0.080806
 30
0.0
  0
VERTEX
  5
3CD
330
273
100
AcDbEntity
  8
BRACKET
100
AcDbVertex
100
AcDb2dVertex
 10
27.543254
 20
-0.080806
 30
0.0
 42
-0.414214
  0
SEQEND
  5
3C9
330
273
100
AcDbEntity
  8
BRACKET
  0
POLYLINE
  5
279
330
1A
100
AcDbEntity
  8
0
100
AcDb2dPolyline
 66
     1
 10
0.0
 20
0.0
 30
0.0
  0
VERTEX
  5
3CF
330
279
100
AcDbEntity
  8
0
100
AcDbVertex
100
AcDb2dVertex
 10
176.389078
 20
131.229401
 30
0.0
  0
VERTEX
  5
3D0
330
279
100
AcDbEntity
  8
0
100
AcDbVertex
100
AcDb2dVertex
 10
176.389078
 20
131.229401
 30
0.0
  0
SEQEND
  5
3CE
330
279
100
AcDbEntity
  8
0
  0
LINE
  5
27C
330
1A
100
AcDbEntity
  8
BRACKET
100
AcDbLine
 10
156.389078
 20
266.229401
 30
0.0
 11
192.389078
 21
266.229401
 31
0.0
  0
CIRCLE
  5
27D
330
1A
100
AcDbEntity
  8
BRACKET
100
AcDbCircle
 10
174.389078
 20
286.229401
 30
0.0
 40
6.0
  0
LINE
  5
27E
330
1A
100
AcDbEntity
  8
AXIS
 48
10.0
100
AcDbLine
 10
174.389078
 20
270.972405
 30
0.0
 11
174.389078
 21
243.380221
 31
0.0
  0
POLYLINE
  5
27F
330
1A
100
AcDbEntity
  8
BRACKET
100
AcDb2dPolyline
 66
     1
 10
0.0
 20
0.0
 30
0.0
 70
     1
  0
VERTEX
  5
3D2
330
27F
100
AcDbEntity
  8
BRACKET
100
AcDbVertex
100
AcDb2dVertex
 10
161.889078
 20
66.229401
 30
0.0
  0
VERTEX
  5
3D3
330
27F
100
AcDbEntity
  8
BRACKET
100
AcDbVertex
100
AcDb2dVertex
 10
161.889078
 20
251.229401
 30
0.0
 42
-0.414214
  0
VERTEX
  5
3D4
330
27F
100
AcDbEntity
  8
BRACKET
100
AcDbVertex
100
AcDb2dVertex
 10
166.889078
 20
256.229401
 30
0.0
  0
VERTEX
  5
3D5
330
27F
100
AcDbEntity
  8
BRACKET
100
AcDbVertex
100
AcDb2dVertex
 10
181.889078
 20
256.229401
 30
0.0
 42
-0.414214
  0
VERTEX
  5
3D6
330
27F
100
AcDbEntity
  8
BRACKET
100
AcDbVertex
100
AcDb2dVertex
 10
186.889078
 20
251.229401
 30
0.0
  0
VERTEX
  5
3D7
330
27F
100
AcDbEntity
  8
BRACKET
100
AcDbVertex
100
AcDb2dVertex
 10
186.889078
 20
66.229401
 30
0.0
  0
SEQEND
  5
3D1
330
27F
100
AcDbEntity
  8
BRACKET
  0
POLYLINE
  5
287
330
1A
100
AcDbEntity
  8
BRACKET
100
AcDb2dPolyline
 66
     1
 10
0.0
 20
0.0
 30
0.0
 70
     1
  0
VERTEX
  5
3D9
330
287
100
AcDbEntity
  8
BRACKET
100
AcDbVertex
100
AcDb2dVertex
 10
157.639078
 20
66.229401
 30
0.0
  0
VERTEX
  5
3DA
330
287
100
AcDbEntity
  8
BRACKET
100
AcDbVertex
100
AcDb2dVertex
 10
157.639078
 20
251.229401
 30
0.0
 42
-0.414214
  0
VERTEX
  5
3DB
330
287
100
AcDbEntity
  8
BRACKET
100
AcDbVertex
100
AcDb2dVertex
 10
162.639078
 20
256.229401
 30
0.0
  0
VERTEX
  5
3DC
330
287
100
AcDbEntity
  8
BRACKET
100
AcDbVertex
100
AcDb2dVertex
 10
186.139078
 20
256.229401
 30
0.0
 42
-0.414214
  0
VERTEX
  5
3DD
330
287
100
AcDbEntity
  8
BRACKET
100
AcDbVertex
100
AcDb2dVertex
 10
191.139078
 20
251.229401
 30
0.0
  0
VERTEX
  5
3DE
330
287
100
AcDbEntity
  8
BRACKET
100
AcDbVertex
100
AcDb2dVertex
 10
191.139078
 20
66.229401
 30
0.0
  0
SEQEND
  5
3D8
330
287
100
AcDbEntity
  8
BRACKET
  0
LINE
  5
28F
330
1A
100
AcDbEntity
  8
BRACKET
100
AcDbLine
 10
193.389078
 20
202.229401
 30
0.0
 11
195.389078
 21
200.229401
 31
0.0
  0
POLYLINE
  5
290
330
1A
100
AcDbEntity
  8
BRACKET
100
AcDb2dPolyline
 66
     1
 10
0.0
 20
0.0
 30
0.0
  0
VERTEX
  5
3E0
330
290
100
AcDbEntity
  8
BRACKET
100
AcDbVertex
100
AcDb2dVertex
 10
153.389078
 20
66.229401
 30
0.0
  0
VERTEX
  5
3E1
330
290
100
AcDbEntity
  8
BRACKET
100
AcDbVertex
100
AcDb2dVertex
 10
153.389078
 20
200.229401
 30
0.0
  0
SEQEND
  5
3DF
330
290
100
AcDbEntity
  8
BRACKET
  0
POLYLINE
  5
294
330
1A
100
AcDbEntity
  8
BRACKET
100
AcDb2dPolyline
 66
     1
 10
0.0
 20
0.0
 30
0.0
  0
VERTEX
  5
3E3
330
294
100
AcDbEntity
  8
BRACKET
100
AcDbVertex
100
AcDb2dVertex
 10
195.389078
 20
200.229401
 30
0.0
  0
VERTEX
  5
3E4
330
294
100
AcDbEntity
  8
BRACKET
100
AcDbVertex
100
AcDb2dVertex
 10
195.389078
 20
66.229401
 30
0.0
  0
VERTEX
  5
3E5
330
294
100
AcDbEntity
  8
BRACKET
100
AcDbVertex
100
AcDb2dVertex
 10
153.389078
 20
66.229401
 30
0.0
  0
SEQEND
  5
3E2
330
294
100
AcDbEntity
  8
BRACKET
  0
LINE
  5
299
330
1A
100
AcDbEntity
  8
BRACKET
100
AcDbLine
 10
155.389078
 20
202.229401
 30
0.0
 11
153.389078
 21
200.229401
 31
0.0
  0
POLYLINE
  5
29A
330
1A
100
AcDbEntity
  8
0
100
AcDb2dPolyline
 66
     1
 10
0.0
 20
0.0
 30
0.0
  0
VERTEX
  5
3E7
330
29A
100
AcDbEntity
  8
0
100
AcDbVertex
100
AcDb2dVertex
 10
284.988551
 20
168.578067
 30
0.0
  0
VERTEX
  5
3E8
330
29A
100
AcDbEntity
  8
0
100
AcDbVertex
100
AcDb2dVertex
 10
284.988551
 20
168.578067
 30
0.0
  0
SEQEND
  5
3E6
330
29A
100
AcDbEntity
  8
0
  0
POLYLINE
  5
29D
330
1A
100
AcDbEntity
  8
BRACKET
100
AcDb2dPolyline
 66
     1
 10
0.0
 20
0.0
 30
0.0
  0
VERTEX
  5
3EA
330
29D
100
AcDbEntity
  8
BRACKET
100
AcDbVertex
100
AcDb2dVertex
 10
155.389078
 20
202.229401
 30
0.0
  0
VERTEX
  5
3EB
330
29D
100
AcDbEntity
  8
BRACKET
100
AcDbVertex
100
AcDb2dVertex
 10
155.389078
 20
261.229401
 30
0.0
 42
-0.414214
  0
VERTEX
  5
3EC
330
29D
100
AcDbEntity
  8
BRACKET
100
AcDbVertex
100
AcDb2dVertex
 10
160.389078
 20
266.229401
 30
0.0
  0
VERTEX
  5
3ED
330
29D
100
AcDbEntity
  8
BRACKET
100
AcDbVertex
100
AcDb2dVertex
 10
188.389078
 20
266.229401
 30
0.0
 42
-0.414214
  0
VERTEX
  5
3EE
330
29D
100
AcDbEntity
  8
BRACKET
100
AcDbVertex
100
AcDb2dVertex
 10
193.389078
 20
261.229401
 30
0.0
  0
VERTEX
  5
3EF
330
29D
100
AcDbEntity
  8
BRACKET
100
AcDbVertex
100
AcDb2dVertex
 10
193.389078
 20
202.229401
 30
0.0
  0
SEQEND
  5
3E9
330
29D
100
AcDbEntity
  8
BRACKET
  0
POLYLINE
  5
2A5
330
1A
100
AcDbEntity
  8
BRACKET
100
AcDb2dPolyline
 66
     1
 10
0.0
 20
0.0
 30
0.0
  0
VERTEX
  5
3F1
330
2A5
100
AcDbEntity
  8
BRACKET
100
AcDbVertex
100
AcDb2dVertex
 10
193.389078
 20
66.229401
 30
0.0
  0
VERTEX
  5
3F2
330
2A5
100
AcDbEntity
  8
BRACKET
100
AcDbVertex
100
AcDb2dVertex
 10
155.389078
 20
66.229401
 30
0.0
  0
SEQEND
  5
3F0
330
2A5
100
AcDbEntity
  8
BRACKET
  0
LINE
  5
2A9
330
1A
100
AcDbEntity
  8
BRACKET
100
AcDbLine
 10
169.139078
 20
81.479401
 30
0.0
 11
169.139078
 21
124.479401
 31
0.0
  0
LINE
  5
2AA
330
1A
100
AcDbEntity
  8
BRACKET
100
AcDbLine
 10
179.639078
 20
81.479401
 30
0.0
 11
179.639078
 21
124.479401
 31
0.0
  0
LINE
  5
2AB
330
1A
100
AcDbEntity
  8
BRACKET
100
AcDbLine
 10
169.139078
 20
137.979401
 30
0.0
 11
169.139078
 21
180.979401
 31
0.0
  0
LINE
  5
2AC
330
1A
100
AcDbEntity
  8
BRACKET
100
AcDbLine
 10
179.639078
 20
137.979401
 30
0.0
 11
179.639078
 21
180.979401
 31
0.0
  0
ARC
  5
2AD
330
1A
100
AcDbEntity
  8
BRACKET
100
AcDbCircle
 10
174.389078
 20
180.979401
 30
0.0
 40
5.25
100
AcDbArc
 50
0.0
 51
180.0
  0
ARC
  5
2AE
330
1A
100
AcDbEntity
  8
BRACKET
100
AcDbCircle
 10
174.389078
 20
137.979401
 30
0.0
 40
5.25
100
AcDbArc
 50
180.0
 51
0.0
  0
ARC
  5
2AF
330
1A
100
AcDbEntity
  8
BRACKET
100
AcDbCircle
 10
174.389078
 20
124.479401
 30
0.0
 40
5.25
100
AcDbArc
 50
0.0
 51
180.0
  0
ARC
  5
2B0
330
1A
100
AcDbEntity
  8
BRACKET
100
AcDbCircle
 10
174.389078
 20
81.479401
 30
0.0
 40
5.25
100
AcDbArc
 50
180.0
 51
0.0
  0
ARC
  5
2B1
330
1A
100
AcDbEntity
  8
BRACKET
100
AcDbCircle
 10
174.389078
 20
239.613934
 30
0.0
 40
26.562379
100
AcDbArc
 50
50.906253
 51
129.093747
  0
POLYLINE
  5
2B2
330
1A
100
AcDbEntity
  8
BRACKET
100
AcDb2dPolyline
 66
     1
 10
0.0
 20
0.0
 30
0.0
 70
     1
  0
VERTEX
  5
3F4
330
2B2
100
AcDbEntity
  8
BRACKET
100
AcDbVertex
100
AcDb2dVertex
 10
171.889078
 20
250.229401
 30
0.0
  0
VERTEX
  5
3F5
330
2B2
100
AcDbEntity
  8
BRACKET
100
AcDbVertex
100
AcDb2dVertex
 10
171.889078
 20
254.229401
 30
0.0
  0
VERTEX
  5
3F6
330
2B2
100
AcDbEntity
  8
BRACKET
100
AcDbVertex
100
AcDb2dVertex
 10
176.889078
 20
254.229401
 30
0.0
  0
VERTEX
  5
3F7
330
2B2
100
AcDbEntity
  8
BRACKET
100
AcDbVertex
100
AcDb2dVertex
 10
176.889078
 20
250.229401
 30
0.0
  0
SEQEND
  5
3F3
330
2B2
100
AcDbEntity
  8
BRACKET
  0
POLYLINE
  5
2B8
330
1A
100
AcDbEntity
  8
BRACKET
100
AcDb2dPolyline
 66
     1
 10
0.0
 20
0.0
 30
0.0
 70
     1
  0
VERTEX
  5
3F9
330
2B8
100
AcDbEntity
  8
BRACKET
100
AcDbVertex
100
AcDb2dVertex
 10
166.889078
 20
254.229401
 30
0.0
  0
VERTEX
  5
3FA
330
2B8
100
AcDbEntity
  8
BRACKET
100
AcDbVertex
100
AcDb2dVertex
 10
166.889078
 20
256.229401
 30
0.0
  0
VERTEX
  5
3FB
330
2B8
100
AcDbEntity
  8
BRACKET
100
AcDbVertex
100
AcDb2dVertex
 10
181.889078
 20
256.229401
 30
0.0
  0
VERTEX
  5
3FC
330
2B8
100
AcDbEntity
  8
BRACKET
100
AcDbVertex
100
AcDb2dVertex
 10
181.889078
 20
254.229401
 30
0.0
  0
SEQEND
  5
3F8
330
2B8
100
AcDbEntity
  8
BRACKET
  0
POLYLINE
  5
2BE
330
1A
100
AcDbEntity
  8
BRACKET
100
AcDb2dPolyline
 66
     1
 10
0.0
 20
0.0
 30
0.0
 70
     1
  0
VERTEX
  5
3FE
330
2BE
100
AcDbEntity
  8
BRACKET
100
AcDbVertex
100
AcDb2dVertex
 10
167.889078
 20
250.229401
 30
0.0
  0
VERTEX
  5
3FF
330
2BE
100
AcDbEntity
  8
BRACKET
100
AcDbVertex
100
AcDb2dVertex
 10
167.889078
 20
254.229401
 30
0.0
  0
VERTEX
  5
400
330
2BE
100
AcDbEntity
  8
BRACKET
100
AcDbVertex
100
AcDb2dVertex
 10
180.889078
 20
254.229401
 30
0.0
  0
VERTEX
  5
401
330
2BE
100
AcDbEntity
  8
BRACKET
100
AcDbVertex
100
AcDb2dVertex
 10
180.889078
 20
250.229401
 30
0.0
  0
SEQEND
  5
3FD
330
2BE
100
AcDbEntity
  8
BRACKET
  0
ARC
  5
2C4
330
1A
100
AcDbEntity
  8
BRACKET
100
AcDbCircle
 10
152.522419
 20
326.458133
 30
0.0
 40
16.928903
100
AcDbArc
 50
52.239332
 51
76.64783300000001
  0
LINE
  5
2C5
330
1A
100
AcDbEntity
  8
BRACKET
100
AcDbLine
 10
169.389078
 20
357.729408
 30
0.0
 11
151.671501
 21
355.362993
 31
0.0
  0
ARC
  5
2C6
330
1A
100
AcDbEntity
  8
BRACKET
100
AcDbCircle
 10
156.343971
 20
334.129808
 30
0.0
 40
21.741208
100
AcDbArc
 50
56.35662
 51
102.410427
  0
LINE
  5
2C7
330
1A
100
AcDbEntity
  8
BRACKET
100
AcDbLine
 10
149.389078
 20
348.729408
 30
0.0
 11
156.431907
 21
342.929431
 31
0.0
  0
ARC
  5
2C8
330
1A
100
AcDbEntity
  8
BRACKET
100
AcDbCircle
 10
151.878713
 20
353.373757
 30
0.0
 40
2.0
100
AcDbArc
 50
95.94686299999999
 51
161.565051
  0
LINE
  5
2C9
330
1A
100
AcDbEntity
  8
BRACKET
100
AcDbLine
 10
149.389078
 20
352.229408
 30
0.0
 11
149.389078
 21
348.729408
 31
0.0
  0
LINE
  5
2CA
330
1A
100
AcDbEntity
  8
BRACKET
100
AcDbLine
 10
149.981347
 20
354.006212
 30
0.0
 11
149.389078
 21
352.229408
 31
0.0
  0
ARC
  5
2CB
330
1A
100
AcDbEntity
  8
BRACKET
100
AcDbCircle
 10
192.434186
 20
334.129808
 30
0.0
 40
21.741208
100
AcDbArc
 50
77.589573
 51
123.64338
  0
LINE
  5
2CC
330
1A
100
AcDbEntity
  8
BRACKET
100
AcDbLine
 10
179.389078
 20
357.729408
 30
0.0
 11
197.106656
 21
355.362993
 31
0.0
  0
LINE
  5
2CD
330
1A
100
AcDbEntity
  8
BRACKET
100
AcDbLine
 10
185.889078
 20
323.124808
 30
0.0
 11
174.389078
 21
323.124808
 31
0.0
  0
ARC
  5
2CE
330
1A
100
AcDbEntity
  8
BRACKET
100
AcDbCircle
 10
179.139078
 20
317.765433
 30
0.0
 40
6.640625
100
AcDbArc
 50
224.332692
 51
315.667308
  0
ARC
  5
2CF
330
1A
100
AcDbEntity
  8
BRACKET
100
AcDbCircle
 10
179.139078
 20
316.484183
 30
0.0
 40
6.640625
100
AcDbArc
 50
44.33269200000001
 51
135.667308
  0
ARC
  5
2D0
330
1A
100
AcDbEntity
  8
BRACKET
100
AcDbCircle
 10
185.033673
 20
345.20283
 30
0.0
 40
5.046449
100
AcDbArc
 50
203.019954
 51
279.759127
  0
LINE
  5
2D1
330
1A
100
AcDbEntity
  8
BRACKET
100
AcDbLine
 10
162.889078
 20
339.84171
 30
0.0
 11
162.889078
 21
323.124808
 31
0.0
  0
LINE
  5
2D2
330
1A
100
AcDbEntity
  8
BRACKET
100
AcDbLine
 10
162.889078
 20
323.124808
 30
0.0
 11
174.389078
 21
323.124808
 31
0.0
  0
ARC
  5
2D3
330
1A
100
AcDbEntity
  8
BRACKET
100
AcDbCircle
 10
169.639078
 20
317.765433
 30
0.0
 40
6.640625
100
AcDbArc
 50
224.332692
 51
315.667308
  0
ARC
  5
2D4
330
1A
100
AcDbEntity
  8
BRACKET
100
AcDbCircle
 10
169.639078
 20
316.484183
 30
0.0
 40
6.640625
100
AcDbArc
 50
44.33269200000001
 51
135.667308
  0
LINE
  5
2D5
330
1A
100
AcDbEntity
  8
BRACKET
100
AcDbLine
 10
164.889078
 20
321.124808
 30
0.0
 11
164.889078
 21
313.124808
 31
0.0
  0
LINE
  5
2D6
330
1A
100
AcDbEntity
  8
BRACKET
100
AcDbLine
 10
174.389078
 20
321.124808
 30
0.0
 11
174.389078
 21
313.124808
 31
0.0
  0
LINE
  5
2D7
330
1A
100
AcDbEntity
  8
BRACKET
100
AcDbLine
 10
169.639078
 20
311.124808
 30
0.0
 11
179.139078
 21
311.124808
 31
0.0
  0
LINE
  5
2D8
330
1A
100
AcDbEntity
  8
BRACKET
100
AcDbLine
 10
179.139078
 20
323.124808
 30
0.0
 11
174.389078
 21
323.124808
 31
0.0
  0
LINE
  5
2D9
330
1A
100
AcDbEntity
  8
BRACKET
100
AcDbLine
 10
174.389078
 20
323.124808
 30
0.0
 11
169.639078
 21
323.124808
 31
0.0
  0
LINE
  5
2DA
330
1A
100
AcDbEntity
  8
BRACKET
100
AcDbLine
 10
168.389078
 20
343.229408
 30
0.0
 11
174.389078
 21
343.229408
 31
0.0
  0
LINE
  5
2DB
330
1A
100
AcDbEntity
  8
BRACKET
100
AcDbLine
 10
168.389078
 20
352.229408
 30
0.0
 11
174.389078
 21
352.229408
 31
0.0
  0
ARC
  5
2DC
330
1A
100
AcDbEntity
  8
BRACKET
100
AcDbCircle
 10
163.744484
 20
345.20283
 30
0.0
 40
5.046449
100
AcDbArc
 50
260.240873
 51
336.980046
  0
LINE
  5
2DD
330
1A
100
AcDbEntity
  8
BRACKET
100
AcDbLine
 10
168.389078
 20
352.229408
 30
0.0
 11
168.389078
 21
343.229408
 31
0.0
  0
LINE
  5
2DE
330
1A
100
AcDbEntity
  8
BRACKET
100
AcDbLine
 10
180.389078
 20
352.229408
 30
0.0
 11
180.389078
 21
343.229408
 31
0.0
  0
LINE
  5
2DF
330
1A
100
AcDbEntity
  8
BRACKET
100
AcDbLine
 10
180.389078
 20
343.229408
 30
0.0
 11
174.389078
 21
343.229408
 31
0.0
  0
LINE
  5
2E0
330
1A
100
AcDbEntity
  8
BRACKET
100
AcDbLine
 10
179.389078
 20
357.729408
 30
0.0
 11
174.389078
 21
357.729408
 31
0.0
  0
LINE
  5
2E1
330
1A
100
AcDbEntity
  8
BRACKET
100
AcDbLine
 10
180.389078
 20
352.229408
 30
0.0
 11
174.389078
 21
352.229408
 31
0.0
  0
LINE
  5
2E2
330
1A
100
AcDbEntity
  8
BRACKET
100
AcDbLine
 10
169.389078
 20
357.729408
 30
0.0
 11
174.389078
 21
357.729408
 31
0.0
  0
LINE
  5
2E3
330
1A
100
AcDbEntity
  8
BRACKET
100
AcDbLine
 10
185.889078
 20
339.84171
 30
0.0
 11
185.889078
 21
323.124808
 31
0.0
  0
LINE
  5
2E4
330
1A
100
AcDbEntity
  8
BRACKET
100
AcDbLine
 10
183.889078
 20
313.124808
 30
0.0
 11
183.889078
 21
321.124808
 31
0.0
  0
LINE
  5
2E5
330
1A
100
AcDbEntity
  8
BRACKET
100
AcDbLine
 10
199.389078
 20
349.341051
 30
0.0
 11
192.346249
 21
343.541074
 31
0.0
  0
ARC
  5
2E6
330
1A
100
AcDbEntity
  8
BRACKET
100
AcDbCircle
 10
196.255737
 20
326.458133
 30
0.0
 40
16.928903
100
AcDbArc
 50
103.352167
 51
127.760668
  0
LINE
  5
2E7
330
1A
100
AcDbEntity
  8
BRACKET
100
AcDbLine
 10
199.389078
 20
352.841051
 30
0.0
 11
199.389078
 21
349.341051
 31
0.0
  0
LINE
  5
2E8
330
1A
100
AcDbEntity
  8
BRACKET
100
AcDbLine
 10
198.79681
 20
354.617855
 30
0.0
 11
199.389078
 21
352.841051
 31
0.0
  0
ARC
  5
2E9
330
1A
100
AcDbEntity
  8
BRACKET
100
AcDbCircle
 10
196.899444
 20
353.373757
 30
0.0
 40
2.0
100
AcDbArc
 50
18.434949
 51
84.05313700000001
  0
LINE
  5
2EA
330
1A
100
AcDbEntity
  8
BRACKET
100
AcDbLine
 10
156.389078
 20
311.124808
 30
0.0
 11
192.389078
 21
311.124808
 31
0.0
  0
POLYLINE
  5
2EB
330
1A
100
AcDbEntity
  8
BRACKET
100
AcDb2dPolyline
 66
     1
 10
0.0
 20
0.0
 30
0.0
  0
VERTEX
  5
403
330
2EB
100
AcDbEntity
  8
BRACKET
100
AcDbVertex
100
AcDb2dVertex
 10
156.389078
 20
266.229401
 30
0.0
  0
VERTEX
  5
404
330
2EB
100
AcDbEntity
  8
BRACKET
100
AcDbVertex
100
AcDb2dVertex
 10
156.389078
 20
311.124808
 30
0.0
  0
SEQEND
  5
402
330
2EB
100
AcDbEntity
  8
BRACKET
  0
POLYLINE
  5
2EF
330
1A
100
AcDbEntity
  8
BRACKET
100
AcDb2dPolyline
 66
     1
 10
0.0
 20
0.0
 30
0.0
  0
VERTEX
  5
406
330
2EF
100
AcDbEntity
  8
BRACKET
100
AcDbVertex
100
AcDb2dVertex
 10
192.389078
 20
311.124808
 30
0.0
  0
VERTEX
  5
407
330
2EF
100
AcDbEntity
  8
BRACKET
100
AcDbVertex
100
AcDb2dVertex
 10
192.389078
 20
266.229401
 30
0.0
  0
SEQEND
  5
405
330
2EF
100
AcDbEntity
  8
BRACKET
  0
ENDSEC
  0
SECTION
  2
OBJECTS
  0
DICTIONARY
  5
C
330
0
100
AcDbDictionary
  3
ACAD_GROUP
350
D
  3
ACAD_LAYOUT
350
2F4
  3
ACAD_MLINESTYLE
350
E
1001
ACAD
1000
TREAT_AS_HARD
1070
     0
  0
DICTIONARY
  5
408
330
2F3
100
AcDbDictionary
  3
ACAD_XREC_ROUNDTRIP
360
409
  0
DICTIONARY
  5
D
102
{ACAD_REACTORS
330
C
102
}
330
C
100
AcDbDictionary
1001
ACAD
1000
TREAT_AS_HARD
1070
     0
  0
DICTIONARY
  5
2F4
102
{ACAD_REACTORS
330
C
102
}
330
C
100
AcDbDictionary
1001
ACAD
1000
TREAT_AS_HARD
1070
     0
  0
DICTIONARY
  5
E
102
{ACAD_REACTORS
330
C
102
}
330
C
100
AcDbDictionary
  3
STANDARD
350
13
1001
ACAD
1000
TREAT_AS_HARD
1070
     0
  0
XRECORD
  5
409
102
{ACAD_REACTORS
330
408
102
}
330
408
100
AcDbXrecord
102
UCS
 74
     0
 71
     1
 10
0.0
 20
0.0
 30
0.0
 10
1.0
 20
0.0
 30
0.0
 10
0.0
 20
1.0
 30
0.0
146
0.0
 79
     0
102
VIEW
281
     0
  0
MLINESTYLE
  5
13
102
{ACAD_REACTORS
330
E
102
}
330
E
100
AcDbMlineStyle
  2
STANDARD
 70
     0
  3

 62
     0
 51
90.0
 52
90.0
 71
     2
 49
0.5
 62
   256
  6
BYLAYER
 49
-0.5
 62
   256
  6
BYLAYER
  0
ENDSEC
  0
EOF
