  0
SECTION
  2
HEADER
  9
$ACADVER
  1
AC1012
  9
$DWGCODEPAGE
  3
ansi_1252
  9
$INSBASE
 10
0.0
 20
0.0
 30
0.0
  9
$EXTMIN
 10
100.796156
 20
-29.599975
 30
0.0
  9
$EXTMAX
 10
372.0
 20
379.228459
 30
0.0
  9
$LIMMIN
 10
0.0
 20
0.0
  9
$LIMMAX
 10
297.0
 20
210.0
  9
$ORTHOMODE
 70
     1
  9
$REGENMODE
 70
     1
  9
$FILLMODE
 70
     1
  9
$QTEXTMODE
 70
     0
  9
$MIRRTEXT
 70
     1
  9
$DRAGMODE
 70
     2
  9
$LTSCALE
 40
10.0
  9
$OSMODE
 70
    37
  9
$ATTMODE
 70
     1
  9
$TEXTSIZE
 40
0.2
  9
$TRACEWID
 40
0.05
  9
$TEXTSTYLE
  7
STANDARD
  9
$CLAYER
  8
0
  9
$CELTYPE
  6
BYLAYER
  9
$CECOLOR
 62
   256
  9
$CELTSCALE
 40
1.0
  9
$DELOBJ
 70
     1
  9
$DISPSILH
 70
     0
  9
$DIMSCALE
 40
1.0
  9
$DIMASZ
 40
0.18
  9
$DIMEXO
 40
0.0625
  9
$DIMDLI
 40
0.38
  9
$DIMRND
 40
0.0
  9
$DIMDLE
 40
0.0
  9
$DIMEXE
 40
0.18
  9
$DIMTP
 40
0.0
  9
$DIMTM
 40
0.0
  9
$DIMTXT
 40
0.18
  9
$DIMCEN
 40
0.09
  9
$DIMTSZ
 40
0.0
  9
$DIMTOL
 70
     0
  9
$DIMLIM
 70
     0
  9
$DIMTIH
 70
     1
  9
$DIMTOH
 70
     1
  9
$DIMSE1
 70
     0
  9
$DIMSE2
 70
     0
  9
$DIMTAD
 70
     0
  9
$DIMZIN
 70
     0
  9
$DIMBLK
  1

  9
$DIMASO
 70
     1
  9
$DIMSHO
 70
     0
  9
$DIMPOST
  1

  9
$DIMAPOST
  1

  9
$DIMALT
 70
     0
  9
$DIMALTD
 70
     2
  9
$DIMALTF
 40
25.4
  9
$DIMLFAC
 40
1.0
  9
$DIMTOFL
 70
     0
  9
$DIMTVP
 40
0.0
  9
$DIMTIX
 70
     0
  9
$DIMSOXD
 70
     0
  9
$DIMSAH
 70
     0
  9
$DIMBLK1
  1

  9
$DIMBLK2
  1

  9
$DIMSTYLE
  2
STANDARD
  9
$DIMCLRD
 70
     0
  9
$DIMCLRE
 70
     0
  9
$DIMCLRT
 70
     0
  9
$DIMTFAC
 40
1.0
  9
$DIMGAP
 40
0.09
  9
$DIMJUST
 70
     0
  9
$DIMSD1
 70
     0
  9
$DIMSD2
 70
     0
  9
$DIMTOLJ
 70
     1
  9
$DIMTZIN
 70
     0
  9
$DIMALTZ
 70
     0
  9
$DIMALTTZ
 70
     0
  9
$DIMFIT
 70
     3
  9
$DIMUPT
 70
     0
  9
$DIMUNIT
 70
     2
  9
$DIMDEC
 70
     4
  9
$DIMTDEC
 70
     4
  9
$DIMALTU
 70
     2
  9
$DIMALTTD
 70
     2
  9
$DIMTXSTY
  7
STANDARD
  9
$DIMAUNIT
 70
     0
  9
$LUNITS
 70
     2
  9
$LUPREC
 70
     4
  9
$SKETCHINC
 40
0.1
  9
$FILLETRAD
 40
0.0
  9
$AUNITS
 70
     0
  9
$AUPREC
 70
     0
  9
$MENU
  1
c:\sitoplas\menu\CCing
  9
$ELEVATION
 40
0.0
  9
$PELEVATION
 40
0.0
  9
$THICKNESS
 40
0.0
  9
$LIMCHECK
 70
     0
  9
$CHAMFERA
 40
0.0
  9
$CHAMFERB
 40
0.0
  9
$CHAMFERC
 40
0.0
  9
$CHAMFERD
 40
0.0
  9
$SKPOLY
 70
     0
  9
$TDCREATE
 40
2447893.083333334
  9
$TDUPDATE
 40
2447893.083333334
  9
$TDINDWG
 40
0.0014342593
  9
$TDUSRTIMER
 40
0.0014342593
  9
$USRTIMER
 70
     1
  9
$ANGBASE
 50
0.0
  9
$ANGDIR
 70
     0
  9
$PDMODE
 70
     0
  9
$PDSIZE
 40
0.0
  9
$PLINEWID
 40
0.0
  9
$COORDS
 70
     1
  9
$SPLFRAME
 70
     0
  9
$SPLINETYPE
 70
     6
  9
$SPLINESEGS
 70
     8
  9
$ATTDIA
 70
     0
  9
$ATTREQ
 70
     1
  9
$HANDLING
 70
     1
  9
$HANDSEED
  5
3BB
  9
$SURFTAB1
 70
     6
  9
$SURFTAB2
 70
     6
  9
$SURFTYPE
 70
     6
  9
$SURFU
 70
     6
  9
$SURFV
 70
     6
  9
$UCSNAME
  2

  9
$UCSORG
 10
0.0
 20
0.0
 30
0.0
  9
$UCSXDIR
 10
1.0
 20
0.0
 30
0.0
  9
$UCSYDIR
 10
0.0
 20
1.0
 30
0.0
  9
$PUCSNAME
  2

  9
$PUCSORG
 10
0.0
 20
0.0
 30
0.0
  9
$PUCSXDIR
 10
1.0
 20
0.0
 30
0.0
  9
$PUCSYDIR
 10
0.0
 20
1.0
 30
0.0
  9
$USERI1
 70
     0
  9
$USERI2
 70
     0
  9
$USERI3
 70
     0
  9
$USERI4
 70
     0
  9
$USERI5
 70
     0
  9
$USERR1
 40
0.0
  9
$USERR2
 40
0.0
  9
$USERR3
 40
0.0
  9
$USERR4
 40
0.0
  9
$USERR5
 40
0.0
  9
$WORLDVIEW
 70
     1
  9
$SHADEDGE
 70
     3
  9
$SHADEDIF
 70
    70
  9
$TILEMODE
 70
     1
  9
$MAXACTVP
 70
    16
  9
$PINSBASE
 10
0.0
 20
0.0
 30
0.0
  9
$PLIMCHECK
 70
     0
  9
$PEXTMIN
 10
1.000000000000000E+20
 20
1.000000000000000E+20
 30
1.000000000000000E+20
  9
$PEXTMAX
 10
-1.000000000000000E+20
 20
-1.000000000000000E+20
 30
-1.000000000000000E+20
  9
$PLIMMIN
 10
0.0
 20
0.0
  9
$PLIMMAX
 10
12.0
 20
9.0
  9
$UNITMODE
 70
     0
  9
$VISRETAIN
 70
     0
  9
$PLINEGEN
 70
     0
  9
$PSLTSCALE
 70
     0
  9
$TREEDEPTH
 70
  3020
  9
$PICKSTYLE
 70
     1
  9
$CMLSTYLE
  2
STANDARD
  9
$CMLJUST
 70
     0
  9
$CMLSCALE
 40
1.0
  9
$SAVEIMAGES
 70
     1
  0
ENDSEC
  0
SECTION
  2
CLASSES
  0
CLASS
  1
XRECORD
  2
AcDbXrecord
  3
AutoCAD 2000
 90
    32768
280
     0
281
     0
  0
CLASS
  1
LWPOLYLINE
  2
AcDbPolyline
  3
AutoCAD 2000
 90
    32768
280
     0
281
     1
  0
CLASS
  1
HATCH
  2
AcDbHatch
  3
AutoCAD 2000
 90
    32768
280
     0
281
     1
  0
CLASS
  1
ACDBPLACEHOLDER
  2
AcDbPlaceHolder
  3
ObjectDBX Classes
 90
        0
280
     0
281
     0
  0
CLASS
  1
LAYOUT
  2
AcDbLayout
  3
ObjectDBX Classes
 90
        0
280
     0
281
     0
  0
ENDSEC
  0
SECTION
  2
TABLES
  0
TABLE
  2
VPORT
  5
8
330
0
100
AcDbSymbolTable
 70
     1
  0
VPORT
  5
2A4
102
{ACAD_XDICTIONARY
360
3B9
102
}
330
8
100
AcDbSymbolTableRecord
100
AcDbViewportTableRecord
  2
*ACTIVE
 70
     0
 10
0.0
 20
0.0
 11
1.0
 21
1.0
 12
390.73229
 22
175.228456
 13
0.0
 23
0.0
 14
0.5
 24
0.5
 15
0.0
 25
0.0
 16
0.0
 26
0.0
 36
1.0
 17
0.0
 27
0.0
 37
0.0
 40
408.000007
 41
1.915354
 42
50.0
 43
0.0
 44
0.0
 50
0.0
 51
0.0
 71
     0
 72
   100
 73
     1
 74
     3
 75
     1
 76
     0
 77
     0
 78
     0
  0
ENDTAB
  0
TABLE
  2
LTYPE
  5
5
330
0
100
AcDbSymbolTable
 70
     3
  0
LTYPE
  5
12
330
5
100
AcDbSymbolTableRecord
100
AcDbLinetypeTableRecord
  2
BYBLOCK
 70
     0
  3

 72
    65
 73
     0
 40
0.0
  0
LTYPE
  5
13
330
5
100
AcDbSymbolTableRecord
100
AcDbLinetypeTableRecord
  2
BYLAYER
 70
     0
  3

 72
    65
 73
     0
 40
0.0
  0
LTYPE
  5
14
330
5
100
AcDbSymbolTableRecord
100
AcDbLinetypeTableRecord
  2
CONTINUOUS
 70
     0
  3
Solid line
 72
    65
 73
     0
 40
0.0
  0
LTYPE
  5
35
330
5
100
AcDbSymbolTableRecord
100
AcDbLinetypeTableRecord
  2
DASHDOT
 70
     0
  3
__ . __ . __ . __ . __ . __ . __ . __ . __ . __
 72
    65
 73
     4
 40
1.0
 49
0.5
 74
     0
 49
-0.25
 74
     0
 49
0.0
 74
     0
 49
-0.25
 74
     0
  0
LTYPE
  5
117
330
5
100
AcDbSymbolTableRecord
100
AcDbLinetypeTableRecord
  2
HIDDEN
 70
     0
  3
__ __ __ __ __ __ __ __ __ __ __ __ __ __ __ __
 72
    65
 73
     2
 40
0.375
 49
0.25
 74
     0
 49
-0.125
 74
     0
  0
ENDTAB
  0
TABLE
  2
LAYER
  5
2
330
0
100
AcDbSymbolTable
 70
     3
  0
LAYER
  5
F
330
2
100
AcDbSymbolTableRecord
100
AcDbLayerTableRecord
  2
0
 70
     0
 62
     7
  6
CONTINUOUS
  0
LAYER
  5
36
330
2
100
AcDbSymbolTableRecord
100
AcDbLayerTableRecord
  2
BRACKET
 70
     0
 62
     5
  6
CONTINUOUS
  0
LAYER
  5
37
330
2
100
AcDbSymbolTableRecord
100
AcDbLayerTableRecord
  2
AXIS
 70
     0
 62
     1
  6
DASHDOT
  0
ENDTAB
  0
TABLE
  2
STYLE
  5
3
330
0
100
AcDbSymbolTable
 70
     1
  0
STYLE
  5
10
330
3
100
AcDbSymbolTableRecord
100
AcDbTextStyleTableRecord
  2
STANDARD
 70
     0
 40
0.0
 41
1.0
 50
0.0
 71
     0
 42
0.2
  3
txt
  4

  0
ENDTAB
  0
TABLE
  2
VIEW
  5
6
330
0
100
AcDbSymbolTable
 70
     0
  0
ENDTAB
  0
TABLE
  2
UCS
  5
7
330
0
100
AcDbSymbolTable
 70
     0
  0
ENDTAB
  0
TABLE
  2
APPID
  5
9
330
0
100
AcDbSymbolTable
 70
     1
  0
APPID
  5
11
330
9
100
AcDbSymbolTableRecord
100
AcDbRegAppTableRecord
  2
ACAD
 70
     0
  0
ENDTAB
  0
TABLE
  2
DIMSTYLE
  5
A
330
0
100
AcDbSymbolTable
 70
     1
  0
DIMSTYLE
105
2D
330
A
100
AcDbSymbolTableRecord
100
AcDbDimStyleTableRecord
  2
STANDARD
 70
     0
  3

  4

  5

  6

  7

 40
1.0
 41
0.18
 42
0.0625
 43
0.38
 44
0.18
 45
0.0
 46
0.0
 47
0.0
 48
0.0
140
0.18
141
0.09
142
0.0
143
25.4
144
1.0
145
0.0
146
1.0
147
0.09
 71
     0
 72
     0
 73
     1
 74
     1
 75
     0
 76
     0
 77
     0
 78
     0
170
     0
171
     2
172
     0
173
     0
174
     0
175
     0
176
     0
177
     0
178
     0
270
     2
271
     4
272
     4
273
     2
274
     2
340
10
275
     0
280
     0
281
     0
282
     0
283
     1
284
     0
285
     0
286
     0
287
     3
288
     0
  0
ENDTAB
  0
TABLE
  2
BLOCK_RECORD
  5
1
330
0
100
AcDbSymbolTable
 70
     0
  0
BLOCK_RECORD
  5
18
330
1
100
AcDbSymbolTableRecord
100
AcDbBlockTableRecord
  2
*MODEL_SPACE
  0
BLOCK_RECORD
  5
15
330
1
100
AcDbSymbolTableRecord
100
AcDbBlockTableRecord
  2
*PAPER_SPACE
  0
ENDTAB
  0
ENDSEC
  0
SECTION
  2
BLOCKS
  0
BLOCK
  5
24
330
18
100
AcDbEntity
  8
0
100
AcDbBlockBegin
  2
*MODEL_SPACE
 70
     0
 71
     0
 10
0.0
 20
0.0
 30
0.0
  3
*MODEL_SPACE
  1

  0
ENDBLK
  5
25
330
18
100
AcDbEntity
  8
0
100
AcDbBlockEnd
  0
BLOCK
  5
22
330
15
100
AcDbEntity
 67
     1
  8
0
100
AcDbBlockBegin
  2
*PAPER_SPACE
 70
     0
 71
     0
 10
0.0
 20
0.0
 30
0.0
  3
*PAPER_SPACE
  1

  0
ENDBLK
  5
23
330
15
100
AcDbEntity
 67
     1
  8
0
100
AcDbBlockEnd
  0
ENDSEC
  0
SECTION
  2
ENTITIES
  0
LINE
  5
178
330
18
100
AcDbEntity
  8
BRACKET
100
AcDbLine
 10
126.872773
 20
16.728453
 30
0.0
 11
126.872773
 21
-21.271547
 31
0.0
  0
LINE
  5
179
330
18
100
AcDbEntity
  8
BRACKET
100
AcDbLine
 10
126.872773
 20
16.728453
 30
0.0
 11
161.872773
 21
16.728453
 31
0.0
  0
LINE
  5
17A
330
18
100
AcDbEntity
  8
BRACKET
100
AcDbLine
 10
126.872773
 20
-21.271547
 30
0.0
 11
161.872773
 21
-21.271547
 31
0.0
  0
LINE
  5
17B
330
18
100
AcDbEntity
  8
AXIS
100
AcDbLine
 10
116.43772
 20
-2.271547
 30
0.0
 11
211.372773
 21
-2.271547
 31
0.0
  0
ARC
  5
17C
330
18
100
AcDbEntity
  8
BRACKET
100
AcDbCircle
 10
177.872773
 20
-2.271547
 30
0.0
 40
18.0
100
AcDbArc
 50
204.624318
 51
245.375682
  0
LINE
  5
17D
330
18
100
AcDbEntity
  8
BRACKET
  6
HIDDEN
100
AcDbLine
 10
165.987141
 20
5.728453
 30
0.0
 11
189.447488
 21
5.919502
 31
0.0
  0
LINE
  5
17E
330
18
100
AcDbEntity
  8
BRACKET
  6
HIDDEN
100
AcDbLine
 10
165.987141
 20
-10.271547
 30
0.0
 11
189.447488
 21
-10.462597
 31
0.0
  0
LINE
  5
17F
330
18
100
AcDbEntity
  8
BRACKET
100
AcDbLine
 10
135.872773
 20
-10.271547
 30
0.0
 11
135.872773
 21
5.728453
 31
0.0
  0
POLYLINE
  5
180
330
18
100
AcDbEntity
  8
BRACKET
100
AcDb2dPolyline
 66
     1
 10
0.0
 20
0.0
 30
0.0
  0
VERTEX
  5
345
330
180
100
AcDbEntity
  8
BRACKET
100
AcDbVertex
100
AcDb2dVertex
 10
133.872773
 20
-8.271547
 30
0.0
  0
VERTEX
  5
346
330
180
100
AcDbEntity
  8
BRACKET
100
AcDbVertex
100
AcDb2dVertex
 10
133.872773
 20
3.728453
 30
0.0
  0
VERTEX
  5
347
330
180
100
AcDbEntity
  8
BRACKET
100
AcDbVertex
100
AcDb2dVertex
 10
135.872773
 20
5.728453
 30
0.0
  0
VERTEX
  5
348
330
180
100
AcDbEntity
  8
BRACKET
100
AcDbVertex
100
AcDb2dVertex
 10
165.987141
 20
5.728453
 30
0.0
  0
SEQEND
  5
344
330
180
100
AcDbEntity
  8
BRACKET
  0
POLYLINE
  5
186
330
18
100
AcDbEntity
  8
BRACKET
100
AcDb2dPolyline
 66
     1
 10
0.0
 20
0.0
 30
0.0
  0
VERTEX
  5
34A
330
186
100
AcDbEntity
  8
BRACKET
100
AcDbVertex
100
AcDb2dVertex
 10
189.447488
 20
5.919502
 30
0.0
  0
VERTEX
  5
34B
330
186
100
AcDbEntity
  8
BRACKET
100
AcDbVertex
100
AcDb2dVertex
 10
205.872773
 20
5.728453
 30
0.0
  0
VERTEX
  5
34C
330
186
100
AcDbEntity
  8
BRACKET
100
AcDbVertex
100
AcDb2dVertex
 10
205.872773
 20
-10.271547
 30
0.0
  0
VERTEX
  5
34D
330
186
100
AcDbEntity
  8
BRACKET
100
AcDbVertex
100
AcDb2dVertex
 10
189.447488
 20
-10.462597
 30
0.0
  0
SEQEND
  5
349
330
186
100
AcDbEntity
  8
BRACKET
  0
POLYLINE
  5
18C
330
18
100
AcDbEntity
  8
BRACKET
100
AcDb2dPolyline
 66
     1
 10
0.0
 20
0.0
 30
0.0
  0
VERTEX
  5
34F
330
18C
100
AcDbEntity
  8
BRACKET
100
AcDbVertex
100
AcDb2dVertex
 10
165.987141
 20
-10.271547
 30
0.0
  0
VERTEX
  5
350
330
18C
100
AcDbEntity
  8
BRACKET
100
AcDbVertex
100
AcDb2dVertex
 10
135.872773
 20
-10.271547
 30
0.0
  0
VERTEX
  5
351
330
18C
100
AcDbEntity
  8
BRACKET
100
AcDbVertex
100
AcDb2dVertex
 10
133.872773
 20
-8.271547
 30
0.0
  0
SEQEND
  5
34E
330
18C
100
AcDbEntity
  8
BRACKET
  0
CIRCLE
  5
191
330
18
100
AcDbEntity
  8
BRACKET
100
AcDbCircle
 10
177.872773
 20
-2.271547
 30
0.0
 40
6.5
  0
ARC
  5
192
330
18
100
AcDbEntity
  8
BRACKET
100
AcDbCircle
 10
155.372773
 20
1.228453
 30
0.0
 40
4.0
100
AcDbArc
 50
90.0
 51
180.0
  0
ARC
  5
193
330
18
100
AcDbEntity
  8
BRACKET
100
AcDbCircle
 10
155.372773
 20
-5.771547
 30
0.0
 40
4.0
100
AcDbArc
 50
180.0
 51
270.0
  0
ARC
  5
194
330
18
100
AcDbEntity
  8
BRACKET
100
AcDbCircle
 10
174.372773
 20
-24.771547
 30
0.0
 40
4.0
100
AcDbArc
 50
180.0
 51
270.0
  0
ARC
  5
195
330
18
100
AcDbEntity
  8
BRACKET
100
AcDbCircle
 10
181.372773
 20
-24.771547
 30
0.0
 40
4.0
100
AcDbArc
 50
270.0
 51
0.0
  0
ARC
  5
196
330
18
100
AcDbEntity
  8
BRACKET
100
AcDbCircle
 10
200.372773
 20
-5.771547
 30
0.0
 40
4.0
100
AcDbArc
 50
270.0
 51
0.0
  0
ARC
  5
197
330
18
100
AcDbEntity
  8
BRACKET
100
AcDbCircle
 10
200.372773
 20
1.228453
 30
0.0
 40
4.0
100
AcDbArc
 50
0.0
 51
90.0
  0
ARC
  5
198
330
18
100
AcDbEntity
  8
BRACKET
100
AcDbCircle
 10
181.372773
 20
20.228453
 30
0.0
 40
4.0
100
AcDbArc
 50
0.0
 51
90.0
  0
ARC
  5
199
330
18
100
AcDbEntity
  8
BRACKET
100
AcDbCircle
 10
174.372773
 20
20.228453
 30
0.0
 40
4.0
100
AcDbArc
 50
90.0
 51
180.0
  0
LINE
  5
19A
330
18
100
AcDbEntity
  8
BRACKET
100
AcDbLine
 10
185.372773
 20
-16.09367
 30
0.0
 11
185.372773
 21
-24.771547
 31
0.0
  0
LINE
  5
19B
330
18
100
AcDbEntity
  8
BRACKET
100
AcDbLine
 10
170.372773
 20
-16.093671
 30
0.0
 11
170.372773
 21
-24.771547
 31
0.0
  0
LINE
  5
19C
330
18
100
AcDbEntity
  8
BRACKET
100
AcDbLine
 10
174.372773
 20
-28.771547
 30
0.0
 11
181.372773
 21
-28.771547
 31
0.0
  0
LINE
  5
19D
330
18
100
AcDbEntity
  8
BRACKET
100
AcDbLine
 10
164.050649
 20
-9.771547
 30
0.0
 11
155.372773
 21
-9.771547
 31
0.0
  0
ARC
  5
19E
330
18
100
AcDbEntity
  8
BRACKET
100
AcDbCircle
 10
159.134443
 20
-21.009877
 30
0.0
 40
12.75
100
AcDbArc
 50
34.183982
 51
55.816018
  0
ARC
  5
19F
330
18
100
AcDbEntity
  8
BRACKET
100
AcDbCircle
 10
166.372773
 20
-16.093671
 30
0.0
 40
4.0
100
AcDbArc
 50
0.0
 51
34.183982
  0
ARC
  5
1A0
330
18
100
AcDbEntity
  8
BRACKET
100
AcDbCircle
 10
164.050649
 20
-13.771547
 30
0.0
 40
4.0
100
AcDbArc
 50
55.816018
 51
90.0
  0
ARC
  5
1A1
330
18
100
AcDbEntity
  8
BRACKET
100
AcDbCircle
 10
191.694897
 20
-13.771547
 30
0.0
 40
4.0
100
AcDbArc
 50
90.0
 51
124.183982
  0
ARC
  5
1A2
330
18
100
AcDbEntity
  8
BRACKET
100
AcDbCircle
 10
189.372773
 20
-16.093671
 30
0.0
 40
4.0
100
AcDbArc
 50
145.816018
 51
180.0
  0
ARC
  5
1A3
330
18
100
AcDbEntity
  8
BRACKET
100
AcDbCircle
 10
196.611103
 20
-21.009877
 30
0.0
 40
12.75
100
AcDbArc
 50
124.183982
 51
145.816018
  0
LINE
  5
1A4
330
18
100
AcDbEntity
  8
BRACKET
100
AcDbLine
 10
191.694897
 20
-9.771547
 30
0.0
 11
200.372773
 21
-9.771547
 31
0.0
  0
LINE
  5
1A5
330
18
100
AcDbEntity
  8
BRACKET
100
AcDbLine
 10
191.694897
 20
5.228453
 30
0.0
 11
200.372773
 21
5.228453
 31
0.0
  0
ARC
  5
1A6
330
18
100
AcDbEntity
  8
BRACKET
100
AcDbCircle
 10
196.611103
 20
16.466782
 30
0.0
 40
12.75
100
AcDbArc
 50
214.183982
 51
235.816018
  0
ARC
  5
1A7
330
18
100
AcDbEntity
  8
BRACKET
100
AcDbCircle
 10
189.372773
 20
11.550576
 30
0.0
 40
4.0
100
AcDbArc
 50
180.0
 51
214.183982
  0
ARC
  5
1A8
330
18
100
AcDbEntity
  8
BRACKET
100
AcDbCircle
 10
191.694897
 20
9.228453
 30
0.0
 40
4.0
100
AcDbArc
 50
235.816018
 51
270.0
  0
LINE
  5
1A9
330
18
100
AcDbEntity
  8
BRACKET
100
AcDbLine
 10
204.372773
 20
1.228453
 30
0.0
 11
204.372773
 21
-5.771547
 31
0.0
  0
LINE
  5
1AA
330
18
100
AcDbEntity
  8
BRACKET
100
AcDbLine
 10
151.372773
 20
1.228453
 30
0.0
 11
151.372773
 21
-5.771547
 31
0.0
  0
ARC
  5
1AB
330
18
100
AcDbEntity
  8
BRACKET
100
AcDbCircle
 10
164.050649
 20
9.228453
 30
0.0
 40
4.0
100
AcDbArc
 50
270.0
 51
304.183982
  0
ARC
  5
1AC
330
18
100
AcDbEntity
  8
BRACKET
100
AcDbCircle
 10
166.372773
 20
11.550576
 30
0.0
 40
4.0
100
AcDbArc
 50
325.816018
 51
0.0
  0
ARC
  5
1AD
330
18
100
AcDbEntity
  8
BRACKET
100
AcDbCircle
 10
159.134443
 20
16.466782
 30
0.0
 40
12.75
100
AcDbArc
 50
304.183982
 51
325.816018
  0
LINE
  5
1AE
330
18
100
AcDbEntity
  8
BRACKET
100
AcDbLine
 10
164.050649
 20
5.228453
 30
0.0
 11
155.372773
 21
5.228453
 31
0.0
  0
LINE
  5
1AF
330
18
100
AcDbEntity
  8
BRACKET
100
AcDbLine
 10
174.372773
 20
24.228453
 30
0.0
 11
181.372773
 21
24.228453
 31
0.0
  0
LINE
  5
1B0
330
18
100
AcDbEntity
  8
BRACKET
100
AcDbLine
 10
170.372773
 20
11.550576
 30
0.0
 11
170.372773
 21
20.228453
 31
0.0
  0
LINE
  5
1B1
330
18
100
AcDbEntity
  8
BRACKET
100
AcDbLine
 10
185.372773
 20
11.550576
 30
0.0
 11
185.372773
 21
20.228453
 31
0.0
  0
CIRCLE
  5
1B2
330
18
100
AcDbEntity
  8
BRACKET
  6
HIDDEN
100
AcDbCircle
 10
177.872773
 20
-2.271547
 30
0.0
 40
13.75
  0
ARC
  5
1B3
330
18
100
AcDbEntity
  8
BRACKET
100
AcDbCircle
 10
177.872773
 20
-2.271547
 30
0.0
 40
18.0
100
AcDbArc
 50
24.624318
 51
65.375682
  0
ARC
  5
1B4
330
18
100
AcDbEntity
  8
BRACKET
100
AcDbCircle
 10
177.872773
 20
-2.271547
 30
0.0
 40
18.0
100
AcDbArc
 50
294.624318
 51
335.375682
  0
ARC
  5
1B5
330
18
100
AcDbEntity
  8
BRACKET
100
AcDbCircle
 10
177.872773
 20
-2.271547
 30
0.0
 40
18.0
100
AcDbArc
 50
114.624318
 51
155.375682
  0
POLYLINE
  5
1B6
330
18
100
AcDbEntity
  8
BRACKET
100
AcDb2dPolyline
 66
     1
 10
0.0
 20
0.0
 30
0.0
  0
VERTEX
  5
353
330
1B6
100
AcDbEntity
  8
BRACKET
100
AcDbVertex
100
AcDb2dVertex
 10
170.372773
 20
-21.271547
 30
0.0
  0
VERTEX
  5
354
330
1B6
100
AcDbEntity
  8
BRACKET
100
AcDbVertex
100
AcDb2dVertex
 10
161.872773
 20
-21.271547
 30
0.0
 42
-0.414214
  0
VERTEX
  5
355
330
1B6
100
AcDbEntity
  8
BRACKET
100
AcDbVertex
100
AcDb2dVertex
 10
156.872773
 20
-16.271547
 30
0.0
  0
SEQEND
  5
352
330
1B6
100
AcDbEntity
  8
BRACKET
  0
POLYLINE
  5
1BB
330
18
100
AcDbEntity
  8
BRACKET
100
AcDb2dPolyline
 66
     1
 10
0.0
 20
0.0
 30
0.0
  0
VERTEX
  5
357
330
1BB
100
AcDbEntity
  8
BRACKET
100
AcDbVertex
100
AcDb2dVertex
 10
185.372773
 20
16.728453
 30
0.0
  0
VERTEX
  5
358
330
1BB
100
AcDbEntity
  8
BRACKET
100
AcDbVertex
100
AcDb2dVertex
 10
193.872773
 20
16.728453
 30
0.0
 42
-0.414214
  0
VERTEX
  5
359
330
1BB
100
AcDbEntity
  8
BRACKET
100
AcDbVertex
100
AcDb2dVertex
 10
198.872773
 20
11.728453
 30
0.0
  0
VERTEX
  5
35A
330
1BB
100
AcDbEntity
  8
BRACKET
100
AcDbVertex
100
AcDb2dVertex
 10
198.872773
 20
5.228453
 30
0.0
 42
-0.414214
  0
SEQEND
  5
356
330
1BB
100
AcDbEntity
  8
BRACKET
  0
POLYLINE
  5
1C1
330
18
100
AcDbEntity
  8
BRACKET
100
AcDb2dPolyline
 66
     1
 10
0.0
 20
0.0
 30
0.0
  0
VERTEX
  5
35C
330
1C1
100
AcDbEntity
  8
BRACKET
100
AcDbVertex
100
AcDb2dVertex
 10
198.872773
 20
-9.771547
 30
0.0
  0
VERTEX
  5
35D
330
1C1
100
AcDbEntity
  8
BRACKET
100
AcDbVertex
100
AcDb2dVertex
 10
198.872773
 20
-16.271547
 30
0.0
 42
-0.414214
  0
VERTEX
  5
35E
330
1C1
100
AcDbEntity
  8
BRACKET
100
AcDbVertex
100
AcDb2dVertex
 10
193.872773
 20
-21.271547
 30
0.0
  0
VERTEX
  5
35F
330
1C1
100
AcDbEntity
  8
BRACKET
100
AcDbVertex
100
AcDb2dVertex
 10
185.372773
 20
-21.271547
 30
0.0
 42
-0.414214
  0
SEQEND
  5
35B
330
1C1
100
AcDbEntity
  8
BRACKET
  0
POLYLINE
  5
1C7
330
18
100
AcDbEntity
  8
BRACKET
100
AcDb2dPolyline
 66
     1
 10
0.0
 20
0.0
 30
0.0
  0
VERTEX
  5
361
330
1C7
100
AcDbEntity
  8
BRACKET
100
AcDbVertex
100
AcDb2dVertex
 10
156.872773
 20
-16.271547
 30
0.0
  0
VERTEX
  5
362
330
1C7
100
AcDbEntity
  8
BRACKET
100
AcDbVertex
100
AcDb2dVertex
 10
156.872773
 20
-9.771547
 30
0.0
 42
-0.414214
  0
SEQEND
  5
360
330
1C7
100
AcDbEntity
  8
BRACKET
  0
POLYLINE
  5
1CB
330
18
100
AcDbEntity
  8
BRACKET
100
AcDb2dPolyline
 66
     1
 10
0.0
 20
0.0
 30
0.0
  0
VERTEX
  5
364
330
1CB
100
AcDbEntity
  8
BRACKET
100
AcDbVertex
100
AcDb2dVertex
 10
156.872773
 20
5.228453
 30
0.0
  0
VERTEX
  5
365
330
1CB
100
AcDbEntity
  8
BRACKET
100
AcDbVertex
100
AcDb2dVertex
 10
156.872773
 20
11.728453
 30
0.0
 42
-0.414214
  0
VERTEX
  5
366
330
1CB
100
AcDbEntity
  8
BRACKET
100
AcDbVertex
100
AcDb2dVertex
 10
161.872773
 20
16.728453
 30
0.0
  0
VERTEX
  5
367
330
1CB
100
AcDbEntity
  8
BRACKET
100
AcDbVertex
100
AcDb2dVertex
 10
170.372773
 20
16.728453
 30
0.0
 42
-0.414214
  0
SEQEND
  5
363
330
1CB
100
AcDbEntity
  8
BRACKET
  0
POLYLINE
  5
1D1
330
18
100
AcDbEntity
  8
BRACKET
100
AcDb2dPolyline
 66
     1
 10
0.0
 20
0.0
 30
0.0
  0
VERTEX
  5
369
330
1D1
100
AcDbEntity
  8
BRACKET
100
AcDbVertex
100
AcDb2dVertex
 10
159.872773
 20
289.228453
 30
0.0
  0
VERTEX
  5
36A
330
1D1
100
AcDbEntity
  8
BRACKET
100
AcDbVertex
100
AcDb2dVertex
 10
159.872773
 20
319.728453
 30
0.0
  0
SEQEND
  5
368
330
1D1
100
AcDbEntity
  8
BRACKET
  0
ARC
  5
1D5
330
18
100
AcDbEntity
  8
BRACKET
100
AcDbCircle
 10
177.872773
 20
314.478453
 30
0.0
 40
18.75
100
AcDbArc
 50
16.260205
 51
75.32514999999999
  0
POLYLINE
  5
1D6
330
18
100
AcDbEntity
  8
BRACKET
100
AcDb2dPolyline
 66
     1
 10
0.0
 20
0.0
 30
0.0
  0
VERTEX
  5
36C
330
1D6
100
AcDbEntity
  8
BRACKET
100
AcDbVertex
100
AcDb2dVertex
 10
195.872773
 20
319.728453
 30
0.0
  0
VERTEX
  5
36D
330
1D6
100
AcDbEntity
  8
BRACKET
100
AcDbVertex
100
AcDb2dVertex
 10
195.872773
 20
289.228453
 30
0.0
  0
SEQEND
  5
36B
330
1D6
100
AcDbEntity
  8
BRACKET
  0
LINE
  5
1DA
330
18
100
AcDbEntity
  8
AXIS
 48
10.0
100
AcDbLine
 10
125.187321
 20
309.228453
 30
0.0
 11
215.932947
 21
309.228453
 31
0.0
  0
LINE
  5
1DB
330
18
100
AcDbEntity
  8
BRACKET
100
AcDbLine
 10
135.872773
 20
302.228453
 30
0.0
 11
135.872773
 21
316.228453
 31
0.0
  0
POLYLINE
  5
1DC
330
18
100
AcDbEntity
  8
BRACKET
100
AcDb2dPolyline
 66
     1
 10
0.0
 20
0.0
 30
0.0
  0
VERTEX
  5
36F
330
1DC
100
AcDbEntity
  8
BRACKET
100
AcDbVertex
100
AcDb2dVertex
 10
133.872773
 20
304.228453
 30
0.0
  0
VERTEX
  5
370
330
1DC
100
AcDbEntity
  8
BRACKET
100
AcDbVertex
100
AcDb2dVertex
 10
133.872773
 20
314.228453
 30
0.0
  0
VERTEX
  5
371
330
1DC
100
AcDbEntity
  8
BRACKET
100
AcDbVertex
100
AcDb2dVertex
 10
135.872773
 20
316.228453
 30
0.0
  0
VERTEX
  5
372
330
1DC
100
AcDbEntity
  8
BRACKET
100
AcDbVertex
100
AcDb2dVertex
 10
159.872773
 20
316.228453
 30
0.0
  0
SEQEND
  5
36E
330
1DC
100
AcDbEntity
  8
BRACKET
  0
POLYLINE
  5
1E2
330
18
100
AcDbEntity
  8
BRACKET
100
AcDb2dPolyline
 66
     1
 10
0.0
 20
0.0
 30
0.0
  0
VERTEX
  5
374
330
1E2
100
AcDbEntity
  8
BRACKET
100
AcDbVertex
100
AcDb2dVertex
 10
195.872773
 20
316.228453
 30
0.0
  0
VERTEX
  5
375
330
1E2
100
AcDbEntity
  8
BRACKET
100
AcDbVertex
100
AcDb2dVertex
 10
205.872773
 20
316.228453
 30
0.0
  0
VERTEX
  5
376
330
1E2
100
AcDbEntity
  8
BRACKET
100
AcDbVertex
100
AcDb2dVertex
 10
205.872773
 20
302.228453
 30
0.0
  0
VERTEX
  5
377
330
1E2
100
AcDbEntity
  8
BRACKET
100
AcDbVertex
100
AcDb2dVertex
 10
195.872773
 20
302.228453
 30
0.0
  0
SEQEND
  5
373
330
1E2
100
AcDbEntity
  8
BRACKET
  0
POLYLINE
  5
1E8
330
18
100
AcDbEntity
  8
BRACKET
100
AcDb2dPolyline
 66
     1
 10
0.0
 20
0.0
 30
0.0
  0
VERTEX
  5
379
330
1E8
100
AcDbEntity
  8
BRACKET
100
AcDbVertex
100
AcDb2dVertex
 10
159.872773
 20
302.228453
 30
0.0
  0
VERTEX
  5
37A
330
1E8
100
AcDbEntity
  8
BRACKET
100
AcDbVertex
100
AcDb2dVertex
 10
135.872773
 20
302.228453
 30
0.0
  0
VERTEX
  5
37B
330
1E8
100
AcDbEntity
  8
BRACKET
100
AcDbVertex
100
AcDb2dVertex
 10
133.872773
 20
304.228453
 30
0.0
  0
SEQEND
  5
378
330
1E8
100
AcDbEntity
  8
BRACKET
  0
LINE
  5
1ED
330
18
100
AcDbEntity
  8
BRACKET
100
AcDbLine
 10
159.872773
 20
289.228453
 30
0.0
 11
195.872773
 21
289.228453
 31
0.0
  0
ARC
  5
1EE
330
18
100
AcDbEntity
  8
BRACKET
100
AcDbCircle
 10
125.691227
 20
254.391866
 30
0.0
 40
31.185796
100
AcDbArc
 50
272.171304
 51
359.054167
  0
LINE
  5
1EF
330
18
100
AcDbEntity
  8
BRACKET
100
AcDbLine
 10
198.612384
 20
217.445886
 30
0.0
 11
158.01769
 21
94.635943
 31
0.0
  0
ARC
  5
1F0
330
18
100
AcDbEntity
  8
BRACKET
100
AcDbCircle
 10
153.278079
 20
96.228453
 30
0.0
 40
5.0
100
AcDbArc
 50
270.0
 51
341.427651
  0
LINE
  5
1F1
330
18
100
AcDbEntity
  8
BRACKET
100
AcDbLine
 10
135.872773
 20
89.228453
 30
0.0
 11
126.872773
 21
89.228453
 31
0.0
  0
LINE
  5
1F2
330
18
100
AcDbEntity
  8
BRACKET
100
AcDbLine
 10
156.872773
 20
253.877078
 30
0.0
 11
156.872773
 21
284.228453
 31
0.0
  0
ARC
  5
1F3
330
18
100
AcDbEntity
  8
BRACKET
100
AcDbCircle
 10
161.872773
 20
284.228453
 30
0.0
 40
5.0
100
AcDbArc
 50
90.0
 51
180.0
  0
LINE
  5
1F4
330
18
100
AcDbEntity
  8
BRACKET
100
AcDbLine
 10
161.872773
 20
289.228453
 30
0.0
 11
193.872773
 21
289.228453
 31
0.0
  0
ARC
  5
1F5
330
18
100
AcDbEntity
  8
BRACKET
100
AcDbCircle
 10
193.872773
 20
284.228453
 30
0.0
 40
5.0
100
AcDbArc
 50
0.0
 51
90.0
  0
LINE
  5
1F6
330
18
100
AcDbEntity
  8
BRACKET
100
AcDbLine
 10
198.872773
 20
284.228453
 30
0.0
 11
198.872773
 21
219.038395
 31
0.0
  0
ARC
  5
1F7
330
18
100
AcDbEntity
  8
BRACKET
100
AcDbCircle
 10
193.872773
 20
219.038395
 30
0.0
 40
5.0
100
AcDbArc
 50
341.427651
 51
0.0
  0
LINE
  5
1F8
330
18
100
AcDbEntity
  8
AXIS
 48
10.0
100
AcDbLine
 10
177.872773
 20
263.777551
 30
0.0
 11
177.872773
 21
299.667747
 31
0.0
  0
LINE
  5
1F9
330
18
100
AcDbEntity
  8
AXIS
 48
10.0
100
AcDbLine
 10
152.94939
 20
104.478453
 30
0.0
 11
100.796156
 21
104.478453
 31
0.0
  0
LINE
  5
1FA
330
18
100
AcDbEntity
  8
AXIS
 48
10.0
100
AcDbLine
 10
152.94939
 20
147.478453
 30
0.0
 11
100.796156
 21
147.478453
 31
0.0
  0
LINE
  5
1FB
330
18
100
AcDbEntity
  8
AXIS
 48
10.0
100
AcDbLine
 10
152.94939
 20
160.978453
 30
0.0
 11
100.796156
 21
160.978453
 31
0.0
  0
LINE
  5
1FC
330
18
100
AcDbEntity
  8
AXIS
 48
10.0
100
AcDbLine
 10
152.94939
 20
203.978453
 30
0.0
 11
100.796156
 21
203.978453
 31
0.0
  0
POLYLINE
  5
1FD
330
18
100
AcDbEntity
  8
BRACKET
100
AcDb2dPolyline
 66
     1
 10
0.0
 20
0.0
 30
0.0
  0
VERTEX
  5
37D
330
1FD
100
AcDbEntity
  8
BRACKET
100
AcDbVertex
100
AcDb2dVertex
 10
126.872773
 20
89.228453
 30
0.0
  0
VERTEX
  5
37E
330
1FD
100
AcDbEntity
  8
BRACKET
100
AcDbVertex
100
AcDb2dVertex
 10
126.872773
 20
223.228462
 30
0.0
  0
SEQEND
  5
37C
330
1FD
100
AcDbEntity
  8
BRACKET
  0
LINE
  5
201
330
18
100
AcDbEntity
  8
BRACKET
100
AcDbLine
 10
135.872773
 20
89.228453
 30
0.0
 11
153.278079
 21
91.228453
 31
0.0
  0
ARC
  5
202
330
18
100
AcDbEntity
  8
BRACKET
100
AcDbCircle
 10
173.122773
 20
339.257435
 30
0.0
 40
6.640625
100
AcDbArc
 50
224.332692
 51
315.667308
  0
ARC
  5
203
330
18
100
AcDbEntity
  8
BRACKET
100
AcDbCircle
 10
182.622773
 20
339.257435
 30
0.0
 40
6.640625
100
AcDbArc
 50
224.332692
 51
315.667308
  0
LINE
  5
204
330
18
100
AcDbEntity
  8
BRACKET
100
AcDbLine
 10
202.872773
 20
374.340053
 30
0.0
 11
202.872773
 21
370.840053
 31
0.0
  0
LINE
  5
205
330
18
100
AcDbEntity
  8
BRACKET
100
AcDbLine
 10
182.872773
 20
379.22841
 30
0.0
 11
177.872773
 21
379.22841
 31
0.0
  0
LINE
  5
206
330
18
100
AcDbEntity
  8
BRACKET
100
AcDbLine
 10
183.872773
 20
373.72841
 30
0.0
 11
177.872773
 21
373.72841
 31
0.0
  0
LINE
  5
207
330
18
100
AcDbEntity
  8
BRACKET
100
AcDbLine
 10
189.372773
 20
344.61681
 30
0.0
 11
177.872773
 21
344.61681
 31
0.0
  0
LINE
  5
208
330
18
100
AcDbEntity
  8
BRACKET
100
AcDbLine
 10
189.372773
 20
361.340712
 30
0.0
 11
189.372773
 21
344.61681
 31
0.0
  0
LINE
  5
209
330
18
100
AcDbEntity
  8
BRACKET
100
AcDbLine
 10
202.280505
 20
376.116857
 30
0.0
 11
202.872773
 21
374.340053
 31
0.0
  0
LINE
  5
20A
330
18
100
AcDbEntity
  8
BRACKET
100
AcDbLine
 10
202.872773
 20
370.840053
 30
0.0
 11
195.829944
 21
365.040076
 31
0.0
  0
ARC
  5
20B
330
18
100
AcDbEntity
  8
BRACKET
100
AcDbCircle
 10
200.383138
 20
374.872759
 30
0.0
 40
2.0
100
AcDbArc
 50
18.434949
 51
84.05313700000001
  0
ARC
  5
20C
330
18
100
AcDbEntity
  8
BRACKET
100
AcDbCircle
 10
199.739432
 20
347.957135
 30
0.0
 40
16.928903
100
AcDbArc
 50
103.352167
 51
127.760668
  0
LINE
  5
20D
330
18
100
AcDbEntity
  8
BRACKET
100
AcDbLine
 10
182.872773
 20
379.22841
 30
0.0
 11
200.59035
 21
376.861995
 31
0.0
  0
ARC
  5
20E
330
18
100
AcDbEntity
  8
BRACKET
100
AcDbCircle
 10
195.917881
 20
355.62881
 30
0.0
 40
21.741208
100
AcDbArc
 50
77.589573
 51
123.64338
  0
ARC
  5
20F
330
18
100
AcDbEntity
  8
BRACKET
100
AcDbCircle
 10
188.517367
 20
366.701832
 30
0.0
 40
5.046449
100
AcDbArc
 50
203.019954
 51
279.759127
  0
LINE
  5
210
330
18
100
AcDbEntity
  8
BRACKET
100
AcDbLine
 10
183.872773
 20
373.72841
 30
0.0
 11
183.872773
 21
364.72841
 31
0.0
  0
LINE
  5
211
330
18
100
AcDbEntity
  8
BRACKET
100
AcDbLine
 10
183.872773
 20
364.72841
 30
0.0
 11
177.872773
 21
364.72841
 31
0.0
  0
LINE
  5
212
330
18
100
AcDbEntity
  8
BRACKET
100
AcDbLine
 10
171.872773
 20
364.72841
 30
0.0
 11
177.872773
 21
364.72841
 31
0.0
  0
LINE
  5
213
330
18
100
AcDbEntity
  8
BRACKET
100
AcDbLine
 10
171.872773
 20
373.72841
 30
0.0
 11
171.872773
 21
364.72841
 31
0.0
  0
ARC
  5
214
330
18
100
AcDbEntity
  8
BRACKET
100
AcDbCircle
 10
167.228179
 20
366.701832
 30
0.0
 40
5.046449
100
AcDbArc
 50
260.240873
 51
336.980046
  0
ARC
  5
215
330
18
100
AcDbEntity
  8
BRACKET
100
AcDbCircle
 10
159.827665
 20
355.62881
 30
0.0
 40
21.741208
100
AcDbArc
 50
56.35662
 51
102.410427
  0
LINE
  5
216
330
18
100
AcDbEntity
  8
BRACKET
100
AcDbLine
 10
172.872773
 20
379.22841
 30
0.0
 11
155.155196
 21
376.861995
 31
0.0
  0
ARC
  5
217
330
18
100
AcDbEntity
  8
BRACKET
100
AcDbCircle
 10
156.006114
 20
347.957135
 30
0.0
 40
16.928903
100
AcDbArc
 50
52.239332
 51
76.64783300000001
  0
ARC
  5
218
330
18
100
AcDbEntity
  8
BRACKET
100
AcDbCircle
 10
155.362408
 20
374.872759
 30
0.0
 40
2.0
100
AcDbArc
 50
95.94686299999999
 51
161.565051
  0
LINE
  5
219
330
18
100
AcDbEntity
  8
BRACKET
100
AcDbLine
 10
152.872773
 20
370.22841
 30
0.0
 11
159.915602
 21
364.428433
 31
0.0
  0
LINE
  5
21A
330
18
100
AcDbEntity
  8
BRACKET
100
AcDbLine
 10
153.465041
 20
375.505214
 30
0.0
 11
152.872773
 21
373.72841
 31
0.0
  0
LINE
  5
21B
330
18
100
AcDbEntity
  8
BRACKET
100
AcDbLine
 10
166.372773
 20
361.340712
 30
0.0
 11
166.372773
 21
344.61681
 31
0.0
  0
LINE
  5
21C
330
18
100
AcDbEntity
  8
BRACKET
100
AcDbLine
 10
166.372773
 20
344.61681
 30
0.0
 11
177.872773
 21
344.61681
 31
0.0
  0
LINE
  5
21D
330
18
100
AcDbEntity
  8
BRACKET
100
AcDbLine
 10
171.872773
 20
373.72841
 30
0.0
 11
177.872773
 21
373.72841
 31
0.0
  0
LINE
  5
21E
330
18
100
AcDbEntity
  8
BRACKET
100
AcDbLine
 10
172.872773
 20
379.22841
 30
0.0
 11
177.872773
 21
379.22841
 31
0.0
  0
LINE
  5
21F
330
18
100
AcDbEntity
  8
BRACKET
100
AcDbLine
 10
152.872773
 20
373.72841
 30
0.0
 11
152.872773
 21
370.22841
 31
0.0
  0
LINE
  5
220
330
18
100
AcDbEntity
  8
BRACKET
100
AcDbLine
 10
168.372773
 20
342.61681
 30
0.0
 11
168.372773
 21
334.61681
 31
0.0
  0
LINE
  5
221
330
18
100
AcDbEntity
  8
BRACKET
100
AcDbLine
 10
187.372773
 20
334.61681
 30
0.0
 11
187.372773
 21
342.61681
 31
0.0
  0
LINE
  5
222
330
18
100
AcDbEntity
  8
BRACKET
100
AcDbLine
 10
182.622773
 20
344.61681
 30
0.0
 11
177.872773
 21
344.61681
 31
0.0
  0
LINE
  5
223
330
18
100
AcDbEntity
  8
BRACKET
100
AcDbLine
 10
177.872773
 20
344.61681
 30
0.0
 11
173.122773
 21
344.61681
 31
0.0
  0
ARC
  5
224
330
18
100
AcDbEntity
  8
BRACKET
100
AcDbCircle
 10
173.122773
 20
337.976185
 30
0.0
 40
6.640625
100
AcDbArc
 50
44.33269200000001
 51
135.667308
  0
ARC
  5
225
330
18
100
AcDbEntity
  8
BRACKET
100
AcDbCircle
 10
182.622773
 20
337.976185
 30
0.0
 40
6.640625
100
AcDbArc
 50
44.33269200000001
 51
135.667308
  0
LINE
  5
226
330
18
100
AcDbEntity
  8
BRACKET
100
AcDbLine
 10
177.872773
 20
342.61681
 30
0.0
 11
177.872773
 21
334.61681
 31
0.0
  0
LINE
  5
227
330
18
100
AcDbEntity
  8
BRACKET
100
AcDbLine
 10
173.122773
 20
332.61681
 30
0.0
 11
182.622773
 21
332.61681
 31
0.0
  0
ARC
  5
228
330
18
100
AcDbEntity
  8
BRACKET
100
AcDbCircle
 10
177.872773
 20
314.478453
 30
0.0
 40
18.75
100
AcDbArc
 50
104.67485
 51
163.739795
  0
POLYLINE
  5
229
330
18
100
AcDbEntity
  8
0
100
AcDb2dPolyline
 66
     1
 10
0.0
 20
0.0
 30
0.0
  0
VERTEX
  5
380
330
229
100
AcDbEntity
  8
0
100
AcDbVertex
100
AcDb2dVertex
 10
349.0
 20
154.228453
 30
0.0
  0
VERTEX
  5
381
330
229
100
AcDbEntity
  8
0
100
AcDbVertex
100
AcDb2dVertex
 10
349.0
 20
154.228453
 30
0.0
  0
SEQEND
  5
37F
330
229
100
AcDbEntity
  8
0
  0
LINE
  5
22C
330
18
100
AcDbEntity
  8
BRACKET
100
AcDbLine
 10
329.0
 20
289.228453
 30
0.0
 11
365.0
 21
289.228453
 31
0.0
  0
POLYLINE
  5
22D
330
18
100
AcDbEntity
  8
BRACKET
100
AcDb2dPolyline
 66
     1
 10
0.0
 20
0.0
 30
0.0
  0
VERTEX
  5
383
330
22D
100
AcDbEntity
  8
BRACKET
100
AcDbVertex
100
AcDb2dVertex
 10
329.0
 20
289.228453
 30
0.0
  0
VERTEX
  5
384
330
22D
100
AcDbEntity
  8
BRACKET
100
AcDbVertex
100
AcDb2dVertex
 10
329.0
 20
320.228453
 30
0.0
  0
SEQEND
  5
382
330
22D
100
AcDbEntity
  8
BRACKET
  0
ARC
  5
231
330
18
100
AcDbEntity
  8
BRACKET
100
AcDbCircle
 10
347.0
 20
314.266914
 30
0.0
 40
18.961538
100
AcDbArc
 50
18.324694
 51
75.49247800000001
  0
POLYLINE
  5
232
330
18
100
AcDbEntity
  8
BRACKET
100
AcDb2dPolyline
 66
     1
 10
0.0
 20
0.0
 30
0.0
  0
VERTEX
  5
386
330
232
100
AcDbEntity
  8
BRACKET
100
AcDbVertex
100
AcDb2dVertex
 10
365.0
 20
320.228453
 30
0.0
  0
VERTEX
  5
387
330
232
100
AcDbEntity
  8
BRACKET
100
AcDbVertex
100
AcDb2dVertex
 10
365.0
 20
289.228453
 30
0.0
  0
SEQEND
  5
385
330
232
100
AcDbEntity
  8
BRACKET
  0
CIRCLE
  5
236
330
18
100
AcDbEntity
  8
BRACKET
100
AcDbCircle
 10
347.0
 20
309.228453
 30
0.0
 40
7.0
  0
LINE
  5
237
330
18
100
AcDbEntity
  8
AXIS
 48
10.0
100
AcDbLine
 10
347.0
 20
293.971457
 30
0.0
 11
347.0
 21
266.379272
 31
0.0
  0
POLYLINE
  5
238
330
18
100
AcDbEntity
  8
BRACKET
100
AcDb2dPolyline
 66
     1
 10
0.0
 20
0.0
 30
0.0
 70
     1
  0
VERTEX
  5
389
330
238
100
AcDbEntity
  8
BRACKET
100
AcDbVertex
100
AcDb2dVertex
 10
334.5
 20
89.228453
 30
0.0
  0
VERTEX
  5
38A
330
238
100
AcDbEntity
  8
BRACKET
100
AcDbVertex
100
AcDb2dVertex
 10
334.5
 20
274.228453
 30
0.0
 42
-0.414214
  0
VERTEX
  5
38B
330
238
100
AcDbEntity
  8
BRACKET
100
AcDbVertex
100
AcDb2dVertex
 10
339.5
 20
279.228453
 30
0.0
  0
VERTEX
  5
38C
330
238
100
AcDbEntity
  8
BRACKET
100
AcDbVertex
100
AcDb2dVertex
 10
354.5
 20
279.228453
 30
0.0
 42
-0.414214
  0
VERTEX
  5
38D
330
238
100
AcDbEntity
  8
BRACKET
100
AcDbVertex
100
AcDb2dVertex
 10
359.5
 20
274.228453
 30
0.0
  0
VERTEX
  5
38E
330
238
100
AcDbEntity
  8
BRACKET
100
AcDbVertex
100
AcDb2dVertex
 10
359.5
 20
89.228453
 30
0.0
  0
SEQEND
  5
388
330
238
100
AcDbEntity
  8
BRACKET
  0
POLYLINE
  5
240
330
18
100
AcDbEntity
  8
BRACKET
100
AcDb2dPolyline
 66
     1
 10
0.0
 20
0.0
 30
0.0
 70
     1
  0
VERTEX
  5
390
330
240
100
AcDbEntity
  8
BRACKET
100
AcDbVertex
100
AcDb2dVertex
 10
330.25
 20
89.228453
 30
0.0
  0
VERTEX
  5
391
330
240
100
AcDbEntity
  8
BRACKET
100
AcDbVertex
100
AcDb2dVertex
 10
330.25
 20
274.228453
 30
0.0
 42
-0.414214
  0
VERTEX
  5
392
330
240
100
AcDbEntity
  8
BRACKET
100
AcDbVertex
100
AcDb2dVertex
 10
335.25
 20
279.228453
 30
0.0
  0
VERTEX
  5
393
330
240
100
AcDbEntity
  8
BRACKET
100
AcDbVertex
100
AcDb2dVertex
 10
358.75
 20
279.228453
 30
0.0
 42
-0.414214
  0
VERTEX
  5
394
330
240
100
AcDbEntity
  8
BRACKET
100
AcDbVertex
100
AcDb2dVertex
 10
363.75
 20
274.228453
 30
0.0
  0
VERTEX
  5
395
330
240
100
AcDbEntity
  8
BRACKET
100
AcDbVertex
100
AcDb2dVertex
 10
363.75
 20
89.228453
 30
0.0
  0
SEQEND
  5
38F
330
240
100
AcDbEntity
  8
BRACKET
  0
LINE
  5
248
330
18
100
AcDbEntity
  8
BRACKET
100
AcDbLine
 10
366.0
 20
225.228453
 30
0.0
 11
368.0
 21
223.228453
 31
0.0
  0
POLYLINE
  5
249
330
18
100
AcDbEntity
  8
BRACKET
100
AcDb2dPolyline
 66
     1
 10
0.0
 20
0.0
 30
0.0
  0
VERTEX
  5
397
330
249
100
AcDbEntity
  8
BRACKET
100
AcDbVertex
100
AcDb2dVertex
 10
326.0
 20
89.228453
 30
0.0
  0
VERTEX
  5
398
330
249
100
AcDbEntity
  8
BRACKET
100
AcDbVertex
100
AcDb2dVertex
 10
326.0
 20
223.228453
 30
0.0
  0
SEQEND
  5
396
330
249
100
AcDbEntity
  8
BRACKET
  0
POLYLINE
  5
24D
330
18
100
AcDbEntity
  8
BRACKET
100
AcDb2dPolyline
 66
     1
 10
0.0
 20
0.0
 30
0.0
  0
VERTEX
  5
39A
330
24D
100
AcDbEntity
  8
BRACKET
100
AcDbVertex
100
AcDb2dVertex
 10
368.0
 20
223.228453
 30
0.0
  0
VERTEX
  5
39B
330
24D
100
AcDbEntity
  8
BRACKET
100
AcDbVertex
100
AcDb2dVertex
 10
368.0
 20
89.228453
 30
0.0
  0
VERTEX
  5
39C
330
24D
100
AcDbEntity
  8
BRACKET
100
AcDbVertex
100
AcDb2dVertex
 10
326.0
 20
89.228453
 30
0.0
  0
SEQEND
  5
399
330
24D
100
AcDbEntity
  8
BRACKET
  0
LINE
  5
252
330
18
100
AcDbEntity
  8
BRACKET
100
AcDbLine
 10
328.0
 20
225.228453
 30
0.0
 11
326.0
 21
223.228453
 31
0.0
  0
POLYLINE
  5
253
330
18
100
AcDbEntity
  8
0
100
AcDb2dPolyline
 66
     1
 10
0.0
 20
0.0
 30
0.0
  0
VERTEX
  5
39E
330
253
100
AcDbEntity
  8
0
100
AcDbVertex
100
AcDb2dVertex
 10
457.599473
 20
191.577119
 30
0.0
  0
VERTEX
  5
39F
330
253
100
AcDbEntity
  8
0
100
AcDbVertex
100
AcDb2dVertex
 10
457.599473
 20
191.577119
 30
0.0
  0
SEQEND
  5
39D
330
253
100
AcDbEntity
  8
0
  0
POLYLINE
  5
256
330
18
100
AcDbEntity
  8
BRACKET
100
AcDb2dPolyline
 66
     1
 10
0.0
 20
0.0
 30
0.0
  0
VERTEX
  5
3A1
330
256
100
AcDbEntity
  8
BRACKET
100
AcDbVertex
100
AcDb2dVertex
 10
328.0
 20
225.228453
 30
0.0
  0
VERTEX
  5
3A2
330
256
100
AcDbEntity
  8
BRACKET
100
AcDbVertex
100
AcDb2dVertex
 10
328.0
 20
284.228453
 30
0.0
 42
-0.414214
  0
VERTEX
  5
3A3
330
256
100
AcDbEntity
  8
BRACKET
100
AcDbVertex
100
AcDb2dVertex
 10
333.0
 20
289.228453
 30
0.0
  0
VERTEX
  5
3A4
330
256
100
AcDbEntity
  8
BRACKET
100
AcDbVertex
100
AcDb2dVertex
 10
361.0
 20
289.228453
 30
0.0
 42
-0.414214
  0
VERTEX
  5
3A5
330
256
100
AcDbEntity
  8
BRACKET
100
AcDbVertex
100
AcDb2dVertex
 10
366.0
 20
284.228453
 30
0.0
  0
VERTEX
  5
3A6
330
256
100
AcDbEntity
  8
BRACKET
100
AcDbVertex
100
AcDb2dVertex
 10
366.0
 20
225.228453
 30
0.0
  0
SEQEND
  5
3A0
330
256
100
AcDbEntity
  8
BRACKET
  0
POLYLINE
  5
25E
330
18
100
AcDbEntity
  8
BRACKET
100
AcDb2dPolyline
 66
     1
 10
0.0
 20
0.0
 30
0.0
  0
VERTEX
  5
3A8
330
25E
100
AcDbEntity
  8
BRACKET
100
AcDbVertex
100
AcDb2dVertex
 10
366.0
 20
89.228453
 30
0.0
  0
VERTEX
  5
3A9
330
25E
100
AcDbEntity
  8
BRACKET
100
AcDbVertex
100
AcDb2dVertex
 10
328.0
 20
89.228453
 30
0.0
  0
SEQEND
  5
3A7
330
25E
100
AcDbEntity
  8
BRACKET
  0
LINE
  5
262
330
18
100
AcDbEntity
  8
BRACKET
100
AcDbLine
 10
341.75
 20
104.478453
 30
0.0
 11
341.75
 21
147.478453
 31
0.0
  0
LINE
  5
263
330
18
100
AcDbEntity
  8
BRACKET
100
AcDbLine
 10
352.25
 20
104.478453
 30
0.0
 11
352.25
 21
147.478453
 31
0.0
  0
LINE
  5
264
330
18
100
AcDbEntity
  8
BRACKET
100
AcDbLine
 10
341.75
 20
160.978453
 30
0.0
 11
341.75
 21
203.978453
 31
0.0
  0
LINE
  5
265
330
18
100
AcDbEntity
  8
BRACKET
100
AcDbLine
 10
352.25
 20
160.978453
 30
0.0
 11
352.25
 21
203.978453
 31
0.0
  0
ARC
  5
266
330
18
100
AcDbEntity
  8
BRACKET
100
AcDbCircle
 10
347.0
 20
203.978453
 30
0.0
 40
5.25
100
AcDbArc
 50
0.0
 51
180.0
  0
ARC
  5
267
330
18
100
AcDbEntity
  8
BRACKET
100
AcDbCircle
 10
347.0
 20
160.978453
 30
0.0
 40
5.25
100
AcDbArc
 50
180.0
 51
0.0
  0
ARC
  5
268
330
18
100
AcDbEntity
  8
BRACKET
100
AcDbCircle
 10
347.0
 20
147.478453
 30
0.0
 40
5.25
100
AcDbArc
 50
0.0
 51
180.0
  0
ARC
  5
269
330
18
100
AcDbEntity
  8
BRACKET
100
AcDbCircle
 10
347.0
 20
104.478453
 30
0.0
 40
5.25
100
AcDbArc
 50
180.0
 51
0.0
  0
ARC
  5
26A
330
18
100
AcDbEntity
  8
BRACKET
100
AcDbCircle
 10
347.0
 20
262.612986
 30
0.0
 40
26.562379
100
AcDbArc
 50
50.906253
 51
129.093747
  0
POLYLINE
  5
26B
330
18
100
AcDbEntity
  8
BRACKET
100
AcDb2dPolyline
 66
     1
 10
0.0
 20
0.0
 30
0.0
 70
     1
  0
VERTEX
  5
3AB
330
26B
100
AcDbEntity
  8
BRACKET
100
AcDbVertex
100
AcDb2dVertex
 10
344.5
 20
273.228453
 30
0.0
  0
VERTEX
  5
3AC
330
26B
100
AcDbEntity
  8
BRACKET
100
AcDbVertex
100
AcDb2dVertex
 10
344.5
 20
277.228453
 30
0.0
  0
VERTEX
  5
3AD
330
26B
100
AcDbEntity
  8
BRACKET
100
AcDbVertex
100
AcDb2dVertex
 10
349.5
 20
277.228453
 30
0.0
  0
VERTEX
  5
3AE
330
26B
100
AcDbEntity
  8
BRACKET
100
AcDbVertex
100
AcDb2dVertex
 10
349.5
 20
273.228453
 30
0.0
  0
SEQEND
  5
3AA
330
26B
100
AcDbEntity
  8
BRACKET
  0
POLYLINE
  5
271
330
18
100
AcDbEntity
  8
BRACKET
100
AcDb2dPolyline
 66
     1
 10
0.0
 20
0.0
 30
0.0
 70
     1
  0
VERTEX
  5
3B0
330
271
100
AcDbEntity
  8
BRACKET
100
AcDbVertex
100
AcDb2dVertex
 10
339.5
 20
277.228453
 30
0.0
  0
VERTEX
  5
3B1
330
271
100
AcDbEntity
  8
BRACKET
100
AcDbVertex
100
AcDb2dVertex
 10
339.5
 20
279.228453
 30
0.0
  0
VERTEX
  5
3B2
330
271
100
AcDbEntity
  8
BRACKET
100
AcDbVertex
100
AcDb2dVertex
 10
354.5
 20
279.228453
 30
0.0
  0
VERTEX
  5
3B3
330
271
100
AcDbEntity
  8
BRACKET
100
AcDbVertex
100
AcDb2dVertex
 10
354.5
 20
277.228453
 30
0.0
  0
SEQEND
  5
3AF
330
271
100
AcDbEntity
  8
BRACKET
  0
POLYLINE
  5
277
330
18
100
AcDbEntity
  8
BRACKET
100
AcDb2dPolyline
 66
     1
 10
0.0
 20
0.0
 30
0.0
 70
     1
  0
VERTEX
  5
3B5
330
277
100
AcDbEntity
  8
BRACKET
100
AcDbVertex
100
AcDb2dVertex
 10
340.5
 20
273.228453
 30
0.0
  0
VERTEX
  5
3B6
330
277
100
AcDbEntity
  8
BRACKET
100
AcDbVertex
100
AcDb2dVertex
 10
340.5
 20
277.228453
 30
0.0
  0
VERTEX
  5
3B7
330
277
100
AcDbEntity
  8
BRACKET
100
AcDbVertex
100
AcDb2dVertex
 10
353.5
 20
277.228453
 30
0.0
  0
VERTEX
  5
3B8
330
277
100
AcDbEntity
  8
BRACKET
100
AcDbVertex
100
AcDb2dVertex
 10
353.5
 20
273.228453
 30
0.0
  0
SEQEND
  5
3B4
330
277
100
AcDbEntity
  8
BRACKET
  0
ARC
  5
27D
330
18
100
AcDbEntity
  8
BRACKET
100
AcDbCircle
 10
325.133341
 20
347.957185
 30
0.0
 40
16.928903
100
AcDbArc
 50
52.239332
 51
76.64783300000001
  0
LINE
  5
27E
330
18
100
AcDbEntity
  8
BRACKET
100
AcDbLine
 10
342.0
 20
379.228459
 30
0.0
 11
324.282423
 21
376.862045
 31
0.0
  0
ARC
  5
27F
330
18
100
AcDbEntity
  8
BRACKET
100
AcDbCircle
 10
328.954892
 20
355.62886
 30
0.0
 40
21.741208
100
AcDbArc
 50
56.35662
 51
102.410427
  0
LINE
  5
280
330
18
100
AcDbEntity
  8
BRACKET
100
AcDbLine
 10
322.0
 20
370.228459
 30
0.0
 11
329.042829
 21
364.428483
 31
0.0
  0
ARC
  5
281
330
18
100
AcDbEntity
  8
BRACKET
100
AcDbCircle
 10
324.489635
 20
374.872808
 30
0.0
 40
2.0
100
AcDbArc
 50
95.94686299999999
 51
161.565051
  0
LINE
  5
282
330
18
100
AcDbEntity
  8
BRACKET
100
AcDbLine
 10
322.0
 20
373.728459
 30
0.0
 11
322.0
 21
370.228459
 31
0.0
  0
LINE
  5
283
330
18
100
AcDbEntity
  8
BRACKET
100
AcDbLine
 10
322.592268
 20
375.505264
 30
0.0
 11
322.0
 21
373.728459
 31
0.0
  0
ARC
  5
284
330
18
100
AcDbEntity
  8
BRACKET
100
AcDbCircle
 10
365.045108
 20
355.62886
 30
0.0
 40
21.741208
100
AcDbArc
 50
77.589573
 51
123.64338
  0
LINE
  5
285
330
18
100
AcDbEntity
  8
BRACKET
100
AcDbLine
 10
352.0
 20
379.228459
 30
0.0
 11
369.717577
 21
376.862045
 31
0.0
  0
LINE
  5
286
330
18
100
AcDbEntity
  8
BRACKET
100
AcDbLine
 10
358.5
 20
344.623859
 30
0.0
 11
347.0
 21
344.623859
 31
0.0
  0
ARC
  5
287
330
18
100
AcDbEntity
  8
BRACKET
100
AcDbCircle
 10
351.75
 20
339.264484
 30
0.0
 40
6.640625
100
AcDbArc
 50
224.332692
 51
315.667308
  0
ARC
  5
288
330
18
100
AcDbEntity
  8
BRACKET
100
AcDbCircle
 10
351.75
 20
337.983234
 30
0.0
 40
6.640625
100
AcDbArc
 50
44.33269200000001
 51
135.667308
  0
ARC
  5
289
330
18
100
AcDbEntity
  8
BRACKET
100
AcDbCircle
 10
357.644594
 20
366.701882
 30
0.0
 40
5.046449
100
AcDbArc
 50
203.019954
 51
279.759127
  0
LINE
  5
28A
330
18
100
AcDbEntity
  8
BRACKET
100
AcDbLine
 10
335.5
 20
361.340762
 30
0.0
 11
335.5
 21
344.623859
 31
0.0
  0
LINE
  5
28B
330
18
100
AcDbEntity
  8
BRACKET
100
AcDbLine
 10
335.5
 20
344.623859
 30
0.0
 11
347.0
 21
344.623859
 31
0.0
  0
ARC
  5
28C
330
18
100
AcDbEntity
  8
BRACKET
100
AcDbCircle
 10
342.25
 20
339.264484
 30
0.0
 40
6.640625
100
AcDbArc
 50
224.332692
 51
315.667308
  0
ARC
  5
28D
330
18
100
AcDbEntity
  8
BRACKET
100
AcDbCircle
 10
342.25
 20
337.983234
 30
0.0
 40
6.640625
100
AcDbArc
 50
44.33269200000001
 51
135.667308
  0
LINE
  5
28E
330
18
100
AcDbEntity
  8
BRACKET
100
AcDbLine
 10
337.5
 20
342.623859
 30
0.0
 11
337.5
 21
334.623859
 31
0.0
  0
LINE
  5
28F
330
18
100
AcDbEntity
  8
BRACKET
100
AcDbLine
 10
347.0
 20
342.623859
 30
0.0
 11
347.0
 21
334.623859
 31
0.0
  0
LINE
  5
290
330
18
100
AcDbEntity
  8
BRACKET
100
AcDbLine
 10
342.25
 20
332.623859
 30
0.0
 11
351.75
 21
332.623859
 31
0.0
  0
LINE
  5
291
330
18
100
AcDbEntity
  8
BRACKET
100
AcDbLine
 10
351.75
 20
344.623859
 30
0.0
 11
347.0
 21
344.623859
 31
0.0
  0
LINE
  5
292
330
18
100
AcDbEntity
  8
BRACKET
100
AcDbLine
 10
347.0
 20
344.623859
 30
0.0
 11
342.25
 21
344.623859
 31
0.0
  0
LINE
  5
293
330
18
100
AcDbEntity
  8
BRACKET
100
AcDbLine
 10
341.0
 20
364.728459
 30
0.0
 11
347.0
 21
364.728459
 31
0.0
  0
LINE
  5
294
330
18
100
AcDbEntity
  8
BRACKET
100
AcDbLine
 10
341.0
 20
373.728459
 30
0.0
 11
347.0
 21
373.728459
 31
0.0
  0
ARC
  5
295
330
18
100
AcDbEntity
  8
BRACKET
100
AcDbCircle
 10
336.355406
 20
366.701882
 30
0.0
 40
5.046449
100
AcDbArc
 50
260.240873
 51
336.980046
  0
LINE
  5
296
330
18
100
AcDbEntity
  8
BRACKET
100
AcDbLine
 10
341.0
 20
373.728459
 30
0.0
 11
341.0
 21
364.728459
 31
0.0
  0
LINE
  5
297
330
18
100
AcDbEntity
  8
BRACKET
100
AcDbLine
 10
353.0
 20
373.728459
 30
0.0
 11
353.0
 21
364.728459
 31
0.0
  0
LINE
  5
298
330
18
100
AcDbEntity
  8
BRACKET
100
AcDbLine
 10
353.0
 20
364.728459
 30
0.0
 11
347.0
 21
364.728459
 31
0.0
  0
LINE
  5
299
330
18
100
AcDbEntity
  8
BRACKET
100
AcDbLine
 10
352.0
 20
379.228459
 30
0.0
 11
347.0
 21
379.228459
 31
0.0
  0
LINE
  5
29A
330
18
100
AcDbEntity
  8
BRACKET
100
AcDbLine
 10
353.0
 20
373.728459
 30
0.0
 11
347.0
 21
373.728459
 31
0.0
  0
LINE
  5
29B
330
18
100
AcDbEntity
  8
BRACKET
100
AcDbLine
 10
342.0
 20
379.228459
 30
0.0
 11
347.0
 21
379.228459
 31
0.0
  0
LINE
  5
29C
330
18
100
AcDbEntity
  8
BRACKET
100
AcDbLine
 10
358.5
 20
361.340762
 30
0.0
 11
358.5
 21
344.623859
 31
0.0
  0
LINE
  5
29D
330
18
100
AcDbEntity
  8
BRACKET
100
AcDbLine
 10
356.5
 20
334.623859
 30
0.0
 11
356.5
 21
342.623859
 31
0.0
  0
LINE
  5
29E
330
18
100
AcDbEntity
  8
BRACKET
100
AcDbLine
 10
372.0
 20
370.840102
 30
0.0
 11
364.957171
 21
365.040125
 31
0.0
  0
ARC
  5
29F
330
18
100
AcDbEntity
  8
BRACKET
100
AcDbCircle
 10
368.866659
 20
347.957185
 30
0.0
 40
16.928903
100
AcDbArc
 50
103.352167
 51
127.760668
  0
LINE
  5
2A0
330
18
100
AcDbEntity
  8
BRACKET
100
AcDbLine
 10
372.0
 20
374.340102
 30
0.0
 11
372.0
 21
370.840102
 31
0.0
  0
LINE
  5
2A1
330
18
100
AcDbEntity
  8
BRACKET
100
AcDbLine
 10
371.407732
 20
376.116907
 30
0.0
 11
372.0
 21
374.340102
 31
0.0
  0
ARC
  5
2A2
330
18
100
AcDbEntity
  8
BRACKET
100
AcDbCircle
 10
369.510365
 20
374.872808
 30
0.0
 40
2.0
100
AcDbArc
 50
18.434949
 51
84.05313700000001
  0
ARC
  5
2A3
330
18
100
AcDbEntity
  8
BRACKET
100
AcDbCircle
 10
347.0
 20
314.266914
 30
0.0
 40
18.961538
100
AcDbArc
 50
104.507522
 51
161.675306
  0
ENDSEC
  0
SECTION
  2
OBJECTS
  0
DICTIONARY
  5
C
330
0
100
AcDbDictionary
  3
ACAD_GROUP
350
D
  3
ACAD_LAYOUT
350
2A5
  3
ACAD_MLINESTYLE
350
E
1001
ACAD
1000
TREAT_AS_HARD
1070
     0
  0
DICTIONARY
  5
3B9
330
2A4
100
AcDbDictionary
  3
ACAD_XREC_ROUNDTRIP
360
3BA
  0
DICTIONARY
  5
D
102
{ACAD_REACTORS
330
C
102
}
330
C
100
AcDbDictionary
1001
ACAD
1000
TREAT_AS_HARD
1070
     0
  0
DICTIONARY
  5
2A5
102
{ACAD_REACTORS
330
C
102
}
330
C
100
AcDbDictionary
1001
ACAD
1000
TREAT_AS_HARD
1070
     0
  0
DICTIONARY
  5
E
102
{ACAD_REACTORS
330
C
102
}
330
C
100
AcDbDictionary
  3
STANDARD
350
1B
1001
ACAD
1000
TREAT_AS_HARD
1070
     0
  0
XRECORD
  5
3BA
102
{ACAD_REACTORS
330
3B9
102
}
330
3B9
100
AcDbXrecord
102
UCS
 74
     0
 71
     1
 10
0.0
 20
0.0
 30
0.0
 10
1.0
 20
0.0
 30
0.0
 10
0.0
 20
1.0
 30
0.0
146
0.0
 79
     0
102
VIEW
281
     0
  0
MLINESTYLE
  5
1B
102
{ACAD_REACTORS
330
E
102
}
330
E
100
AcDbMlineStyle
  2
STANDARD
 70
     0
  3

 62
     0
 51
90.0
 52
90.0
 71
     2
 49
0.5
 62
   256
  6
BYLAYER
 49
-0.5
 62
   256
  6
BYLAYER
  0
ENDSEC
  0
EOF
