  0
SECTION
  2
HEADER
  9
$ACADVER
  1
AC1012
  9
$DWGCODEPAGE
  3
ansi_1252
  9
$INSBASE
 10
0.0
 20
0.0
 30
0.0
  9
$EXTMIN
 10
-26.076617
 20
-157.535538
 30
0.0
  9
$EXTMAX
 10
185.0
 20
194.999995
 30
0.0
  9
$LIMMIN
 10
0.0
 20
0.0
  9
$LIMMAX
 10
297.0
 20
210.0
  9
$ORTHOMODE
 70
     1
  9
$REGENMODE
 70
     1
  9
$FILLMODE
 70
     1
  9
$QTEXTMODE
 70
     0
  9
$MIRRTEXT
 70
     1
  9
$DRAGMODE
 70
     2
  9
$LTSCALE
 40
10.0
  9
$OSMODE
 70
    37
  9
$ATTMODE
 70
     1
  9
$TEXTSIZE
 40
0.2
  9
$TRACEWID
 40
0.05
  9
$TEXTSTYLE
  7
STANDARD
  9
$CLAYER
  8
0
  9
$CELTYPE
  6
BYLAYER
  9
$CECOLOR
 62
   256
  9
$CELTSCALE
 40
1.0
  9
$DELOBJ
 70
     1
  9
$DISPSILH
 70
     0
  9
$DIMSCALE
 40
1.0
  9
$DIMASZ
 40
0.18
  9
$DIMEXO
 40
0.0625
  9
$DIMDLI
 40
0.38
  9
$DIMRND
 40
0.0
  9
$DIMDLE
 40
0.0
  9
$DIMEXE
 40
0.18
  9
$DIMTP
 40
0.0
  9
$DIMTM
 40
0.0
  9
$DIMTXT
 40
0.18
  9
$DIMCEN
 40
0.09
  9
$DIMTSZ
 40
0.0
  9
$DIMTOL
 70
     0
  9
$DIMLIM
 70
     0
  9
$DIMTIH
 70
     1
  9
$DIMTOH
 70
     1
  9
$DIMSE1
 70
     0
  9
$DIMSE2
 70
     0
  9
$DIMTAD
 70
     0
  9
$DIMZIN
 70
     0
  9
$DIMBLK
  1

  9
$DIMASO
 70
     1
  9
$DIMSHO
 70
     0
  9
$DIMPOST
  1

  9
$DIMAPOST
  1

  9
$DIMALT
 70
     0
  9
$DIMALTD
 70
     2
  9
$DIMALTF
 40
25.4
  9
$DIMLFAC
 40
1.0
  9
$DIMTOFL
 70
     0
  9
$DIMTVP
 40
0.0
  9
$DIMTIX
 70
     0
  9
$DIMSOXD
 70
     0
  9
$DIMSAH
 70
     0
  9
$DIMBLK1
  1

  9
$DIMBLK2
  1

  9
$DIMSTYLE
  2
STANDARD
  9
$DIMCLRD
 70
     0
  9
$DIMCLRE
 70
     0
  9
$DIMCLRT
 70
     0
  9
$DIMTFAC
 40
1.0
  9
$DIMGAP
 40
0.09
  9
$DIMJUST
 70
     0
  9
$DIMSD1
 70
     0
  9
$DIMSD2
 70
     0
  9
$DIMTOLJ
 70
     1
  9
$DIMTZIN
 70
     0
  9
$DIMALTZ
 70
     0
  9
$DIMALTTZ
 70
     0
  9
$DIMFIT
 70
     3
  9
$DIMUPT
 70
     0
  9
$DIMUNIT
 70
     2
  9
$DIMDEC
 70
     4
  9
$DIMTDEC
 70
     4
  9
$DIMALTU
 70
     2
  9
$DIMALTTD
 70
     2
  9
$DIMTXSTY
  7
STANDARD
  9
$DIMAUNIT
 70
     0
  9
$LUNITS
 70
     2
  9
$LUPREC
 70
     4
  9
$SKETCHINC
 40
0.1
  9
$FILLETRAD
 40
0.0
  9
$AUNITS
 70
     0
  9
$AUPREC
 70
     0
  9
$MENU
  1
c:\sitoplas\menu\CCing
  9
$ELEVATION
 40
0.0
  9
$PELEVATION
 40
0.0
  9
$THICKNESS
 40
0.0
  9
$LIMCHECK
 70
     0
  9
$CHAMFERA
 40
0.0
  9
$CHAMFERB
 40
0.0
  9
$CHAMFERC
 40
0.0
  9
$CHAMFERD
 40
0.0
  9
$SKPOLY
 70
     0
  9
$TDCREATE
 40
2447893.083333334
  9
$TDUPDATE
 40
2447893.083333334
  9
$TDINDWG
 40
0.0020571759
  9
$TDUSRTIMER
 40
0.0020571759
  9
$USRTIMER
 70
     1
  9
$ANGBASE
 50
0.0
  9
$ANGDIR
 70
     0
  9
$PDMODE
 70
     0
  9
$PDSIZE
 40
0.0
  9
$PLINEWID
 40
0.0
  9
$COORDS
 70
     1
  9
$SPLFRAME
 70
     0
  9
$SPLINETYPE
 70
     6
  9
$SPLINESEGS
 70
     8
  9
$ATTDIA
 70
     0
  9
$ATTREQ
 70
     1
  9
$HANDLING
 70
     1
  9
$HANDSEED
  5
2B7
  9
$SURFTAB1
 70
     6
  9
$SURFTAB2
 70
     6
  9
$SURFTYPE
 70
     6
  9
$SURFU
 70
     6
  9
$SURFV
 70
     6
  9
$UCSNAME
  2

  9
$UCSORG
 10
0.0
 20
0.0
 30
0.0
  9
$UCSXDIR
 10
1.0
 20
0.0
 30
0.0
  9
$UCSYDIR
 10
0.0
 20
1.0
 30
0.0
  9
$PUCSNAME
  2

  9
$PUCSORG
 10
0.0
 20
0.0
 30
0.0
  9
$PUCSXDIR
 10
1.0
 20
0.0
 30
0.0
  9
$PUCSYDIR
 10
0.0
 20
1.0
 30
0.0
  9
$USERI1
 70
     0
  9
$USERI2
 70
     0
  9
$USERI3
 70
     0
  9
$USERI4
 70
     0
  9
$USERI5
 70
     0
  9
$USERR1
 40
0.0
  9
$USERR2
 40
0.0
  9
$USERR3
 40
0.0
  9
$USERR4
 40
0.0
  9
$USERR5
 40
0.0
  9
$WORLDVIEW
 70
     1
  9
$SHADEDGE
 70
     3
  9
$SHADEDIF
 70
    70
  9
$TILEMODE
 70
     1
  9
$MAXACTVP
 70
    16
  9
$PINSBASE
 10
0.0
 20
0.0
 30
0.0
  9
$PLIMCHECK
 70
     0
  9
$PEXTMIN
 10
1.000000000000000E+20
 20
1.000000000000000E+20
 30
1.000000000000000E+20
  9
$PEXTMAX
 10
-1.000000000000000E+20
 20
-1.000000000000000E+20
 30
-1.000000000000000E+20
  9
$PLIMMIN
 10
0.0
 20
0.0
  9
$PLIMMAX
 10
12.0
 20
9.0
  9
$UNITMODE
 70
     0
  9
$VISRETAIN
 70
     0
  9
$PLINEGEN
 70
     0
  9
$PSLTSCALE
 70
     0
  9
$TREEDEPTH
 70
  3020
  9
$PICKSTYLE
 70
     1
  9
$CMLSTYLE
  2
STANDARD
  9
$CMLJUST
 70
     0
  9
$CMLSCALE
 40
1.0
  9
$SAVEIMAGES
 70
     1
  0
ENDSEC
  0
SECTION
  2
CLASSES
  0
CLASS
  1
XRECORD
  2
AcDbXrecord
  3
AutoCAD 2000
 90
    32768
280
     0
281
     0
  0
CLASS
  1
LWPOLYLINE
  2
AcDbPolyline
  3
AutoCAD 2000
 90
    32768
280
     0
281
     1
  0
CLASS
  1
HATCH
  2
AcDbHatch
  3
AutoCAD 2000
 90
    32768
280
     0
281
     1
  0
CLASS
  1
ACDBPLACEHOLDER
  2
AcDbPlaceHolder
  3
ObjectDBX Classes
 90
        0
280
     0
281
     0
  0
CLASS
  1
LAYOUT
  2
AcDbLayout
  3
ObjectDBX Classes
 90
        0
280
     0
281
     0
  0
ENDSEC
  0
SECTION
  2
TABLES
  0
TABLE
  2
VPORT
  5
8
330
0
100
AcDbSymbolTable
 70
     1
  0
VPORT
  5
1B2
102
{ACAD_XDICTIONARY
360
2B5
102
}
330
8
100
AcDbSymbolTableRecord
100
AcDbViewportTableRecord
  2
*ACTIVE
 70
     0
 10
0.0
 20
0.0
 11
1.0
 21
1.0
 12
254.27775
 22
26.232231
 13
0.0
 23
0.0
 14
0.5
 24
0.5
 15
0.0
 25
0.0
 16
0.0
 26
0.0
 36
1.0
 17
0.0
 27
0.0
 37
0.0
 40
367.535538
 41
1.915354
 42
50.0
 43
0.0
 44
0.0
 50
0.0
 51
0.0
 71
     0
 72
   100
 73
     1
 74
     3
 75
     1
 76
     0
 77
     0
 78
     0
  0
ENDTAB
  0
TABLE
  2
LTYPE
  5
5
330
0
100
AcDbSymbolTable
 70
     3
  0
LTYPE
  5
12
330
5
100
AcDbSymbolTableRecord
100
AcDbLinetypeTableRecord
  2
BYBLOCK
 70
     0
  3

 72
    65
 73
     0
 40
0.0
  0
LTYPE
  5
13
330
5
100
AcDbSymbolTableRecord
100
AcDbLinetypeTableRecord
  2
BYLAYER
 70
     0
  3

 72
    65
 73
     0
 40
0.0
  0
LTYPE
  5
14
330
5
100
AcDbSymbolTableRecord
100
AcDbLinetypeTableRecord
  2
CONTINUOUS
 70
     0
  3
Solid line
 72
    65
 73
     0
 40
0.0
  0
LTYPE
  5
35
330
5
100
AcDbSymbolTableRecord
100
AcDbLinetypeTableRecord
  2
DASHDOT
 70
     0
  3
__ . __ . __ . __ . __ . __ . __ . __ . __ . __
 72
    65
 73
     4
 40
1.0
 49
0.5
 74
     0
 49
-0.25
 74
     0
 49
0.0
 74
     0
 49
-0.25
 74
     0
  0
LTYPE
  5
CC
330
5
100
AcDbSymbolTableRecord
100
AcDbLinetypeTableRecord
  2
HIDDEN
 70
     0
  3
__ __ __ __ __ __ __ __ __ __ __ __ __ __ __ __
 72
    65
 73
     2
 40
0.375
 49
0.25
 74
     0
 49
-0.125
 74
     0
  0
ENDTAB
  0
TABLE
  2
LAYER
  5
2
330
0
100
AcDbSymbolTable
 70
     3
  0
LAYER
  5
F
330
2
100
AcDbSymbolTableRecord
100
AcDbLayerTableRecord
  2
0
 70
     0
 62
     7
  6
CONTINUOUS
  0
LAYER
  5
36
330
2
100
AcDbSymbolTableRecord
100
AcDbLayerTableRecord
  2
BRACKET
 70
     0
 62
     5
  6
CONTINUOUS
  0
LAYER
  5
37
330
2
100
AcDbSymbolTableRecord
100
AcDbLayerTableRecord
  2
AXIS
 70
     0
 62
     1
  6
DASHDOT
  0
ENDTAB
  0
TABLE
  2
STYLE
  5
3
330
0
100
AcDbSymbolTable
 70
     1
  0
STYLE
  5
10
330
3
100
AcDbSymbolTableRecord
100
AcDbTextStyleTableRecord
  2
STANDARD
 70
     0
 40
0.0
 41
1.0
 50
0.0
 71
     0
 42
0.2
  3
txt
  4

  0
ENDTAB
  0
TABLE
  2
VIEW
  5
6
330
0
100
AcDbSymbolTable
 70
     0
  0
ENDTAB
  0
TABLE
  2
UCS
  5
7
330
0
100
AcDbSymbolTable
 70
     0
  0
ENDTAB
  0
TABLE
  2
APPID
  5
9
330
0
100
AcDbSymbolTable
 70
     1
  0
APPID
  5
11
330
9
100
AcDbSymbolTableRecord
100
AcDbRegAppTableRecord
  2
ACAD
 70
     0
  0
ENDTAB
  0
TABLE
  2
DIMSTYLE
  5
A
330
0
100
AcDbSymbolTable
 70
     1
  0
DIMSTYLE
105
2D
330
A
100
AcDbSymbolTableRecord
100
AcDbDimStyleTableRecord
  2
STANDARD
 70
     0
  3

  4

  5

  6

  7

 40
1.0
 41
0.18
 42
0.0625
 43
0.38
 44
0.18
 45
0.0
 46
0.0
 47
0.0
 48
0.0
140
0.18
141
0.09
142
0.0
143
25.4
144
1.0
145
0.0
146
1.0
147
0.09
 71
     0
 72
     0
 73
     1
 74
     1
 75
     0
 76
     0
 77
     0
 78
     0
170
     0
171
     2
172
     0
173
     0
174
     0
175
     0
176
     0
177
     0
178
     0
270
     2
271
     4
272
     4
273
     2
274
     2
340
10
275
     0
280
     0
281
     0
282
     0
283
     1
284
     0
285
     0
286
     0
287
     3
288
     0
  0
ENDTAB
  0
TABLE
  2
BLOCK_RECORD
  5
1
330
0
100
AcDbSymbolTable
 70
     0
  0
BLOCK_RECORD
  5
18
330
1
100
AcDbSymbolTableRecord
100
AcDbBlockTableRecord
  2
*MODEL_SPACE
  0
BLOCK_RECORD
  5
15
330
1
100
AcDbSymbolTableRecord
100
AcDbBlockTableRecord
  2
*PAPER_SPACE
  0
ENDTAB
  0
ENDSEC
  0
SECTION
  2
BLOCKS
  0
BLOCK
  5
24
330
18
100
AcDbEntity
  8
0
100
AcDbBlockBegin
  2
*MODEL_SPACE
 70
     0
 71
     0
 10
0.0
 20
0.0
 30
0.0
  3
*MODEL_SPACE
  1

  0
ENDBLK
  5
25
330
18
100
AcDbEntity
  8
0
100
AcDbBlockEnd
  0
BLOCK
  5
22
330
15
100
AcDbEntity
 67
     1
  8
0
100
AcDbBlockBegin
  2
*PAPER_SPACE
 70
     0
 71
     0
 10
0.0
 20
0.0
 30
0.0
  3
*PAPER_SPACE
  1

  0
ENDBLK
  5
23
330
15
100
AcDbEntity
 67
     1
  8
0
100
AcDbBlockEnd
  0
ENDSEC
  0
SECTION
  2
ENTITIES
  0
LINE
  5
FF
330
18
100
AcDbEntity
  8
BRACKET
100
AcDbLine
 10
31.0
 20
181.499995
 30
0.0
 11
31.0
 21
160.499995
 31
0.0
  0
LINE
  5
100
330
18
100
AcDbEntity
  8
BRACKET
100
AcDbLine
 10
31.0
 20
181.499995
 30
0.0
 11
33.0
 21
181.499995
 31
0.0
  0
LINE
  5
101
330
18
100
AcDbEntity
  8
BRACKET
100
AcDbLine
 10
31.0
 20
160.499995
 30
0.0
 11
33.0
 21
160.499995
 31
0.0
  0
POLYLINE
  5
102
330
18
100
AcDbEntity
  8
BRACKET
100
AcDb2dPolyline
 66
     1
 10
0.0
 20
0.0
 30
0.0
  0
VERTEX
  5
24A
330
102
100
AcDbEntity
  8
BRACKET
100
AcDbVertex
100
AcDb2dVertex
 10
33.0
 20
132.999995
 30
0.0
  0
VERTEX
  5
24B
330
102
100
AcDbEntity
  8
BRACKET
100
AcDbVertex
100
AcDb2dVertex
 10
33.0
 20
181.499995
 30
0.0
  0
SEQEND
  5
249
330
102
100
AcDbEntity
  8
BRACKET
  0
ARC
  5
106
330
18
100
AcDbEntity
  8
BRACKET
100
AcDbCircle
 10
51.0
 20
176.249995
 30
0.0
 40
18.75
100
AcDbArc
 50
16.260205
 51
163.739795
  0
POLYLINE
  5
107
330
18
100
AcDbEntity
  8
BRACKET
100
AcDb2dPolyline
 66
     1
 10
0.0
 20
0.0
 30
0.0
  0
VERTEX
  5
24D
330
107
100
AcDbEntity
  8
BRACKET
100
AcDbVertex
100
AcDb2dVertex
 10
69.0
 20
181.499995
 30
0.0
  0
VERTEX
  5
24E
330
107
100
AcDbEntity
  8
BRACKET
100
AcDbVertex
100
AcDb2dVertex
 10
69.0
 20
132.999995
 30
0.0
  0
SEQEND
  5
24C
330
107
100
AcDbEntity
  8
BRACKET
  0
LINE
  5
10B
330
18
100
AcDbEntity
  8
AXIS
 48
10.0
100
AcDbLine
 10
-1.685452
 20
170.999995
 30
0.0
 11
89.060174
 21
170.999995
 31
0.0
  0
LINE
  5
10C
330
18
100
AcDbEntity
  8
BRACKET
100
AcDbLine
 10
9.0
 20
162.999995
 30
0.0
 11
9.0
 21
178.999995
 31
0.0
  0
POLYLINE
  5
10D
330
18
100
AcDbEntity
  8
BRACKET
100
AcDb2dPolyline
 66
     1
 10
0.0
 20
0.0
 30
0.0
  0
VERTEX
  5
250
330
10D
100
AcDbEntity
  8
BRACKET
100
AcDbVertex
100
AcDb2dVertex
 10
7.0
 20
164.999995
 30
0.0
  0
VERTEX
  5
251
330
10D
100
AcDbEntity
  8
BRACKET
100
AcDbVertex
100
AcDb2dVertex
 10
7.0
 20
176.999995
 30
0.0
  0
VERTEX
  5
252
330
10D
100
AcDbEntity
  8
BRACKET
100
AcDbVertex
100
AcDb2dVertex
 10
9.0
 20
178.999995
 30
0.0
  0
VERTEX
  5
253
330
10D
100
AcDbEntity
  8
BRACKET
100
AcDbVertex
100
AcDb2dVertex
 10
31.0
 20
178.999995
 30
0.0
  0
SEQEND
  5
24F
330
10D
100
AcDbEntity
  8
BRACKET
  0
POLYLINE
  5
113
330
18
100
AcDbEntity
  8
BRACKET
100
AcDb2dPolyline
 66
     1
 10
0.0
 20
0.0
 30
0.0
  0
VERTEX
  5
255
330
113
100
AcDbEntity
  8
BRACKET
100
AcDbVertex
100
AcDb2dVertex
 10
69.0
 20
178.999995
 30
0.0
  0
VERTEX
  5
256
330
113
100
AcDbEntity
  8
BRACKET
100
AcDbVertex
100
AcDb2dVertex
 10
79.0
 20
178.999995
 30
0.0
  0
VERTEX
  5
257
330
113
100
AcDbEntity
  8
BRACKET
100
AcDbVertex
100
AcDb2dVertex
 10
79.0
 20
162.999995
 30
0.0
  0
VERTEX
  5
258
330
113
100
AcDbEntity
  8
BRACKET
100
AcDbVertex
100
AcDb2dVertex
 10
69.0
 20
162.999995
 30
0.0
  0
SEQEND
  5
254
330
113
100
AcDbEntity
  8
BRACKET
  0
POLYLINE
  5
119
330
18
100
AcDbEntity
  8
BRACKET
100
AcDb2dPolyline
 66
     1
 10
0.0
 20
0.0
 30
0.0
  0
VERTEX
  5
25A
330
119
100
AcDbEntity
  8
BRACKET
100
AcDbVertex
100
AcDb2dVertex
 10
31.0
 20
162.999995
 30
0.0
  0
VERTEX
  5
25B
330
119
100
AcDbEntity
  8
BRACKET
100
AcDbVertex
100
AcDb2dVertex
 10
9.0
 20
162.999995
 30
0.0
  0
VERTEX
  5
25C
330
119
100
AcDbEntity
  8
BRACKET
100
AcDbVertex
100
AcDb2dVertex
 10
7.0
 20
164.999995
 30
0.0
  0
SEQEND
  5
259
330
119
100
AcDbEntity
  8
BRACKET
  0
LINE
  5
11E
330
18
100
AcDbEntity
  8
BRACKET
100
AcDbLine
 10
33.0
 20
132.999995
 30
0.0
 11
69.0
 21
132.999995
 31
0.0
  0
ARC
  5
11F
330
18
100
AcDbEntity
  8
BRACKET
100
AcDbCircle
 10
-1.181546
 20
98.163409
 30
0.0
 40
31.185796
100
AcDbArc
 50
272.171304
 51
359.054167
  0
LINE
  5
120
330
18
100
AcDbEntity
  8
BRACKET
100
AcDbLine
 10
71.739611
 20
61.217429
 30
0.0
 11
31.144917
 21
-61.592514
 31
0.0
  0
ARC
  5
121
330
18
100
AcDbEntity
  8
BRACKET
100
AcDbCircle
 10
26.405306
 20
-60.000005
 30
0.0
 40
5.0
100
AcDbArc
 50
270.0
 51
341.427651
  0
LINE
  5
122
330
18
100
AcDbEntity
  8
BRACKET
100
AcDbLine
 10
9.0
 20
-67.000005
 30
0.0
 11
0.0
 21
-67.000005
 31
0.0
  0
LINE
  5
123
330
18
100
AcDbEntity
  8
BRACKET
100
AcDbLine
 10
30.0
 20
97.64862100000001
 30
0.0
 11
30.0
 21
127.999995
 31
0.0
  0
ARC
  5
124
330
18
100
AcDbEntity
  8
BRACKET
100
AcDbCircle
 10
35.0
 20
127.999995
 30
0.0
 40
5.0
100
AcDbArc
 50
90.0
 51
180.0
  0
LINE
  5
125
330
18
100
AcDbEntity
  8
BRACKET
100
AcDbLine
 10
35.0
 20
132.999995
 30
0.0
 11
67.0
 21
132.999995
 31
0.0
  0
ARC
  5
126
330
18
100
AcDbEntity
  8
BRACKET
100
AcDbCircle
 10
67.0
 20
127.999995
 30
0.0
 40
5.0
100
AcDbArc
 50
0.0
 51
90.0
  0
LINE
  5
127
330
18
100
AcDbEntity
  8
BRACKET
100
AcDbLine
 10
72.0
 20
127.999995
 30
0.0
 11
72.0
 21
62.809938
 31
0.0
  0
ARC
  5
128
330
18
100
AcDbEntity
  8
BRACKET
100
AcDbCircle
 10
67.0
 20
62.809938
 30
0.0
 40
5.0
100
AcDbArc
 50
341.427651
 51
0.0
  0
LINE
  5
129
330
18
100
AcDbEntity
  8
AXIS
 48
10.0
100
AcDbLine
 10
51.0
 20
107.549094
 30
0.0
 11
51.0
 21
160.43929
 31
0.0
  0
LINE
  5
12A
330
18
100
AcDbEntity
  8
AXIS
 48
10.0
100
AcDbLine
 10
26.076617
 20
-51.750005
 30
0.0
 11
-26.076617
 21
-51.750005
 31
0.0
  0
LINE
  5
12B
330
18
100
AcDbEntity
  8
AXIS
 48
10.0
100
AcDbLine
 10
26.076617
 20
-8.750005
 30
0.0
 11
-26.076617
 21
-8.750005
 31
0.0
  0
LINE
  5
12C
330
18
100
AcDbEntity
  8
AXIS
 48
10.0
100
AcDbLine
 10
26.076617
 20
4.749995
 30
0.0
 11
-26.076617
 21
4.749995
 31
0.0
  0
LINE
  5
12D
330
18
100
AcDbEntity
  8
AXIS
 48
10.0
100
AcDbLine
 10
26.076617
 20
47.749995
 30
0.0
 11
-26.076617
 21
47.749995
 31
0.0
  0
POLYLINE
  5
12E
330
18
100
AcDbEntity
  8
BRACKET
100
AcDb2dPolyline
 66
     1
 10
0.0
 20
0.0
 30
0.0
  0
VERTEX
  5
25E
330
12E
100
AcDbEntity
  8
BRACKET
100
AcDbVertex
100
AcDb2dVertex
 10
0.0
 20
-67.000005
 30
0.0
  0
VERTEX
  5
25F
330
12E
100
AcDbEntity
  8
BRACKET
100
AcDbVertex
100
AcDb2dVertex
 10
0.0
 20
67.000005
 30
0.0
  0
SEQEND
  5
25D
330
12E
100
AcDbEntity
  8
BRACKET
  0
LINE
  5
132
330
18
100
AcDbEntity
  8
BRACKET
100
AcDbLine
 10
9.0
 20
-67.000005
 30
0.0
 11
26.405306
 21
-65.000005
 31
0.0
  0
LINE
  5
133
330
18
100
AcDbEntity
  8
BRACKET
100
AcDbLine
 10
0.0
 20
-118.500005
 30
0.0
 11
0.0
 21
-156.500005
 31
0.0
  0
LINE
  5
134
330
18
100
AcDbEntity
  8
BRACKET
100
AcDbLine
 10
0.0
 20
-118.500005
 30
0.0
 11
39.0
 21
-118.500005
 31
0.0
  0
LINE
  5
135
330
18
100
AcDbEntity
  8
BRACKET
100
AcDbLine
 10
0.0
 20
-156.500005
 30
0.0
 11
39.0
 21
-156.500005
 31
0.0
  0
LINE
  5
136
330
18
100
AcDbEntity
  8
BRACKET
100
AcDbLine
 10
35.0
 20
-128.000005
 30
0.0
 11
35.0
 21
-147.000005
 31
0.0
  0
LINE
  5
137
330
18
100
AcDbEntity
  8
BRACKET
100
AcDbLine
 10
35.0
 20
-128.000005
 30
0.0
 11
39.711115
 21
-128.000005
 31
0.0
  0
LINE
  5
138
330
18
100
AcDbEntity
  8
BRACKET
100
AcDbLine
 10
35.0
 20
-147.000005
 30
0.0
 11
39.711115
 21
-147.000005
 31
0.0
  0
LINE
  5
139
330
18
100
AcDbEntity
  8
AXIS
100
AcDbLine
 10
-14.5
 20
-137.500005
 30
0.0
 11
88.5
 21
-137.500005
 31
0.0
  0
CIRCLE
  5
13A
330
18
100
AcDbEntity
  8
BRACKET
100
AcDbCircle
 10
55.0
 20
-137.500005
 30
0.0
 40
18.0
  0
LINE
  5
13B
330
18
100
AcDbEntity
  8
BRACKET
  6
HIDDEN
100
AcDbLine
 10
35.0
 20
-129.500005
 30
0.0
 11
71.970563
 21
-129.500005
 31
0.0
  0
LINE
  5
13C
330
18
100
AcDbEntity
  8
BRACKET
  6
HIDDEN
100
AcDbLine
 10
35.0
 20
-145.500005
 30
0.0
 11
71.970563
 21
-145.500005
 31
0.0
  0
LINE
  5
13D
330
18
100
AcDbEntity
  8
BRACKET
100
AcDbLine
 10
13.0
 20
-145.500005
 30
0.0
 11
13.0
 21
-129.500005
 31
0.0
  0
POLYLINE
  5
13E
330
18
100
AcDbEntity
  8
BRACKET
100
AcDb2dPolyline
 66
     1
 10
0.0
 20
0.0
 30
0.0
  0
VERTEX
  5
261
330
13E
100
AcDbEntity
  8
BRACKET
100
AcDbVertex
100
AcDb2dVertex
 10
11.0
 20
-143.500005
 30
0.0
  0
VERTEX
  5
262
330
13E
100
AcDbEntity
  8
BRACKET
100
AcDbVertex
100
AcDb2dVertex
 10
11.0
 20
-131.500005
 30
0.0
  0
VERTEX
  5
263
330
13E
100
AcDbEntity
  8
BRACKET
100
AcDbVertex
100
AcDb2dVertex
 10
13.0
 20
-129.500005
 30
0.0
  0
VERTEX
  5
264
330
13E
100
AcDbEntity
  8
BRACKET
100
AcDbVertex
100
AcDb2dVertex
 10
35.0
 20
-129.500005
 30
0.0
  0
SEQEND
  5
260
330
13E
100
AcDbEntity
  8
BRACKET
  0
POLYLINE
  5
144
330
18
100
AcDbEntity
  8
BRACKET
100
AcDb2dPolyline
 66
     1
 10
0.0
 20
0.0
 30
0.0
  0
VERTEX
  5
266
330
144
100
AcDbEntity
  8
BRACKET
100
AcDbVertex
100
AcDb2dVertex
 10
71.970563
 20
-129.500005
 30
0.0
  0
VERTEX
  5
267
330
144
100
AcDbEntity
  8
BRACKET
100
AcDbVertex
100
AcDb2dVertex
 10
83.0
 20
-129.500005
 30
0.0
  0
VERTEX
  5
268
330
144
100
AcDbEntity
  8
BRACKET
100
AcDbVertex
100
AcDb2dVertex
 10
83.0
 20
-145.500005
 30
0.0
  0
VERTEX
  5
269
330
144
100
AcDbEntity
  8
BRACKET
100
AcDbVertex
100
AcDb2dVertex
 10
71.970563
 20
-145.500005
 30
0.0
  0
SEQEND
  5
265
330
144
100
AcDbEntity
  8
BRACKET
  0
POLYLINE
  5
14A
330
18
100
AcDbEntity
  8
BRACKET
100
AcDb2dPolyline
 66
     1
 10
0.0
 20
0.0
 30
0.0
  0
VERTEX
  5
26B
330
14A
100
AcDbEntity
  8
BRACKET
100
AcDbVertex
100
AcDb2dVertex
 10
35.0
 20
-145.500005
 30
0.0
  0
VERTEX
  5
26C
330
14A
100
AcDbEntity
  8
BRACKET
100
AcDbVertex
100
AcDb2dVertex
 10
13.0
 20
-145.500005
 30
0.0
  0
VERTEX
  5
26D
330
14A
100
AcDbEntity
  8
BRACKET
100
AcDbVertex
100
AcDb2dVertex
 10
11.0
 20
-143.500005
 30
0.0
  0
SEQEND
  5
26A
330
14A
100
AcDbEntity
  8
BRACKET
  0
POLYLINE
  5
14F
330
18
100
AcDbEntity
  8
BRACKET
100
AcDb2dPolyline
 66
     1
 10
0.0
 20
0.0
 30
0.0
  0
VERTEX
  5
26F
330
14F
100
AcDbEntity
  8
BRACKET
100
AcDbVertex
100
AcDb2dVertex
 10
34.0
 20
-129.500005
 30
0.0
  0
VERTEX
  5
270
330
14F
100
AcDbEntity
  8
BRACKET
100
AcDbVertex
100
AcDb2dVertex
 10
34.0
 20
-123.500005
 30
0.0
 42
-0.414214
  0
VERTEX
  5
271
330
14F
100
AcDbEntity
  8
BRACKET
100
AcDbVertex
100
AcDb2dVertex
 10
39.0
 20
-118.500005
 30
0.0
  0
VERTEX
  5
272
330
14F
100
AcDbEntity
  8
BRACKET
100
AcDbVertex
100
AcDb2dVertex
 10
71.0
 20
-118.500005
 30
0.0
 42
-0.414214
  0
VERTEX
  5
273
330
14F
100
AcDbEntity
  8
BRACKET
100
AcDbVertex
100
AcDb2dVertex
 10
76.0
 20
-123.500005
 30
0.0
  0
VERTEX
  5
274
330
14F
100
AcDbEntity
  8
BRACKET
100
AcDbVertex
100
AcDb2dVertex
 10
76.0
 20
-151.500005
 30
0.0
 42
-0.414214
  0
VERTEX
  5
275
330
14F
100
AcDbEntity
  8
BRACKET
100
AcDbVertex
100
AcDb2dVertex
 10
71.0
 20
-156.500005
 30
0.0
  0
VERTEX
  5
276
330
14F
100
AcDbEntity
  8
BRACKET
100
AcDbVertex
100
AcDb2dVertex
 10
39.0
 20
-156.500005
 30
0.0
 42
-0.414214
  0
VERTEX
  5
277
330
14F
100
AcDbEntity
  8
BRACKET
100
AcDbVertex
100
AcDb2dVertex
 10
34.0
 20
-151.500005
 30
0.0
  0
SEQEND
  5
26E
330
14F
100
AcDbEntity
  8
BRACKET
  0
POLYLINE
  5
15A
330
18
100
AcDbEntity
  8
BRACKET
100
AcDb2dPolyline
 66
     1
 10
0.0
 20
0.0
 30
0.0
  0
VERTEX
  5
279
330
15A
100
AcDbEntity
  8
BRACKET
100
AcDbVertex
100
AcDb2dVertex
 10
34.0
 20
-151.500005
 30
0.0
  0
VERTEX
  5
27A
330
15A
100
AcDbEntity
  8
BRACKET
100
AcDbVertex
100
AcDb2dVertex
 10
34.0
 20
-145.500005
 30
0.0
 42
-0.552285
  0
SEQEND
  5
278
330
15A
100
AcDbEntity
  8
BRACKET
  0
POLYLINE
  5
15E
330
18
100
AcDbEntity
  8
0
100
AcDb2dPolyline
 66
     1
 10
0.0
 20
0.0
 30
0.0
  0
VERTEX
  5
27C
330
15E
100
AcDbEntity
  8
0
100
AcDbVertex
100
AcDb2dVertex
 10
166.0
 20
-2.000005
 30
0.0
  0
VERTEX
  5
27D
330
15E
100
AcDbEntity
  8
0
100
AcDbVertex
100
AcDb2dVertex
 10
166.0
 20
-2.000005
 30
0.0
  0
SEQEND
  5
27B
330
15E
100
AcDbEntity
  8
0
  0
LINE
  5
161
330
18
100
AcDbEntity
  8
BRACKET
100
AcDbLine
 10
146.0
 20
132.999995
 30
0.0
 11
182.0
 21
132.999995
 31
0.0
  0
POLYLINE
  5
162
330
18
100
AcDbEntity
  8
BRACKET
100
AcDb2dPolyline
 66
     1
 10
0.0
 20
0.0
 30
0.0
  0
VERTEX
  5
27F
330
162
100
AcDbEntity
  8
BRACKET
100
AcDbVertex
100
AcDb2dVertex
 10
146.0
 20
132.999995
 30
0.0
  0
VERTEX
  5
280
330
162
100
AcDbEntity
  8
BRACKET
100
AcDbVertex
100
AcDb2dVertex
 10
146.0
 20
181.999995
 30
0.0
  0
SEQEND
  5
27E
330
162
100
AcDbEntity
  8
BRACKET
  0
ARC
  5
166
330
18
100
AcDbEntity
  8
BRACKET
100
AcDbCircle
 10
164.0
 20
176.038457
 30
0.0
 40
18.961538
100
AcDbArc
 50
18.324694
 51
161.675306
  0
POLYLINE
  5
167
330
18
100
AcDbEntity
  8
BRACKET
100
AcDb2dPolyline
 66
     1
 10
0.0
 20
0.0
 30
0.0
  0
VERTEX
  5
282
330
167
100
AcDbEntity
  8
BRACKET
100
AcDbVertex
100
AcDb2dVertex
 10
182.0
 20
181.999995
 30
0.0
  0
VERTEX
  5
283
330
167
100
AcDbEntity
  8
BRACKET
100
AcDbVertex
100
AcDb2dVertex
 10
182.0
 20
132.999995
 30
0.0
  0
SEQEND
  5
281
330
167
100
AcDbEntity
  8
BRACKET
  0
CIRCLE
  5
16B
330
18
100
AcDbEntity
  8
BRACKET
100
AcDbCircle
 10
164.0
 20
170.999995
 30
0.0
 40
8.0
  0
LINE
  5
16C
330
18
100
AcDbEntity
  8
AXIS
 48
10.0
100
AcDbLine
 10
164.0
 20
155.743
 30
0.0
 11
164.0
 21
110.150815
 31
0.0
  0
POLYLINE
  5
16D
330
18
100
AcDbEntity
  8
BRACKET
100
AcDb2dPolyline
 66
     1
 10
0.0
 20
0.0
 30
0.0
 70
     1
  0
VERTEX
  5
285
330
16D
100
AcDbEntity
  8
BRACKET
100
AcDbVertex
100
AcDb2dVertex
 10
151.5
 20
-67.000005
 30
0.0
  0
VERTEX
  5
286
330
16D
100
AcDbEntity
  8
BRACKET
100
AcDbVertex
100
AcDb2dVertex
 10
151.5
 20
117.999995
 30
0.0
 42
-0.414214
  0
VERTEX
  5
287
330
16D
100
AcDbEntity
  8
BRACKET
100
AcDbVertex
100
AcDb2dVertex
 10
156.5
 20
122.999995
 30
0.0
  0
VERTEX
  5
288
330
16D
100
AcDbEntity
  8
BRACKET
100
AcDbVertex
100
AcDb2dVertex
 10
171.5
 20
122.999995
 30
0.0
 42
-0.414214
  0
VERTEX
  5
289
330
16D
100
AcDbEntity
  8
BRACKET
100
AcDbVertex
100
AcDb2dVertex
 10
176.5
 20
117.999995
 30
0.0
  0
VERTEX
  5
28A
330
16D
100
AcDbEntity
  8
BRACKET
100
AcDbVertex
100
AcDb2dVertex
 10
176.5
 20
-67.000005
 30
0.0
  0
SEQEND
  5
284
330
16D
100
AcDbEntity
  8
BRACKET
  0
POLYLINE
  5
175
330
18
100
AcDbEntity
  8
BRACKET
100
AcDb2dPolyline
 66
     1
 10
0.0
 20
0.0
 30
0.0
 70
     1
  0
VERTEX
  5
28C
330
175
100
AcDbEntity
  8
BRACKET
100
AcDbVertex
100
AcDb2dVertex
 10
147.25
 20
-67.000005
 30
0.0
  0
VERTEX
  5
28D
330
175
100
AcDbEntity
  8
BRACKET
100
AcDbVertex
100
AcDb2dVertex
 10
147.25
 20
117.999995
 30
0.0
 42
-0.414214
  0
VERTEX
  5
28E
330
175
100
AcDbEntity
  8
BRACKET
100
AcDbVertex
100
AcDb2dVertex
 10
152.25
 20
122.999995
 30
0.0
  0
VERTEX
  5
28F
330
175
100
AcDbEntity
  8
BRACKET
100
AcDbVertex
100
AcDb2dVertex
 10
175.75
 20
122.999995
 30
0.0
 42
-0.414214
  0
VERTEX
  5
290
330
175
100
AcDbEntity
  8
BRACKET
100
AcDbVertex
100
AcDb2dVertex
 10
180.75
 20
117.999995
 30
0.0
  0
VERTEX
  5
291
330
175
100
AcDbEntity
  8
BRACKET
100
AcDbVertex
100
AcDb2dVertex
 10
180.75
 20
-67.000005
 30
0.0
  0
SEQEND
  5
28B
330
175
100
AcDbEntity
  8
BRACKET
  0
LINE
  5
17D
330
18
100
AcDbEntity
  8
BRACKET
100
AcDbLine
 10
183.0
 20
68.999995
 30
0.0
 11
185.0
 21
66.999995
 31
0.0
  0
POLYLINE
  5
17E
330
18
100
AcDbEntity
  8
BRACKET
100
AcDb2dPolyline
 66
     1
 10
0.0
 20
0.0
 30
0.0
  0
VERTEX
  5
293
330
17E
100
AcDbEntity
  8
BRACKET
100
AcDbVertex
100
AcDb2dVertex
 10
143.0
 20
-67.000005
 30
0.0
  0
VERTEX
  5
294
330
17E
100
AcDbEntity
  8
BRACKET
100
AcDbVertex
100
AcDb2dVertex
 10
143.0
 20
66.999995
 30
0.0
  0
SEQEND
  5
292
330
17E
100
AcDbEntity
  8
BRACKET
  0
POLYLINE
  5
182
330
18
100
AcDbEntity
  8
BRACKET
100
AcDb2dPolyline
 66
     1
 10
0.0
 20
0.0
 30
0.0
  0
VERTEX
  5
296
330
182
100
AcDbEntity
  8
BRACKET
100
AcDbVertex
100
AcDb2dVertex
 10
185.0
 20
66.999995
 30
0.0
  0
VERTEX
  5
297
330
182
100
AcDbEntity
  8
BRACKET
100
AcDbVertex
100
AcDb2dVertex
 10
185.0
 20
-67.000005
 30
0.0
  0
VERTEX
  5
298
330
182
100
AcDbEntity
  8
BRACKET
100
AcDbVertex
100
AcDb2dVertex
 10
143.0
 20
-67.000005
 30
0.0
  0
SEQEND
  5
295
330
182
100
AcDbEntity
  8
BRACKET
  0
LINE
  5
187
330
18
100
AcDbEntity
  8
BRACKET
100
AcDbLine
 10
145.0
 20
68.999995
 30
0.0
 11
143.0
 21
66.999995
 31
0.0
  0
POLYLINE
  5
188
330
18
100
AcDbEntity
  8
0
100
AcDb2dPolyline
 66
     1
 10
0.0
 20
0.0
 30
0.0
  0
VERTEX
  5
29A
330
188
100
AcDbEntity
  8
0
100
AcDbVertex
100
AcDb2dVertex
 10
274.599473
 20
35.348662
 30
0.0
  0
VERTEX
  5
29B
330
188
100
AcDbEntity
  8
0
100
AcDbVertex
100
AcDb2dVertex
 10
274.599473
 20
35.348662
 30
0.0
  0
SEQEND
  5
299
330
188
100
AcDbEntity
  8
0
  0
POLYLINE
  5
18B
330
18
100
AcDbEntity
  8
BRACKET
100
AcDb2dPolyline
 66
     1
 10
0.0
 20
0.0
 30
0.0
  0
VERTEX
  5
29D
330
18B
100
AcDbEntity
  8
BRACKET
100
AcDbVertex
100
AcDb2dVertex
 10
145.0
 20
68.999995
 30
0.0
  0
VERTEX
  5
29E
330
18B
100
AcDbEntity
  8
BRACKET
100
AcDbVertex
100
AcDb2dVertex
 10
145.0
 20
127.999995
 30
0.0
 42
-0.414214
  0
VERTEX
  5
29F
330
18B
100
AcDbEntity
  8
BRACKET
100
AcDbVertex
100
AcDb2dVertex
 10
150.0
 20
132.999995
 30
0.0
  0
VERTEX
  5
2A0
330
18B
100
AcDbEntity
  8
BRACKET
100
AcDbVertex
100
AcDb2dVertex
 10
178.0
 20
132.999995
 30
0.0
 42
-0.414214
  0
VERTEX
  5
2A1
330
18B
100
AcDbEntity
  8
BRACKET
100
AcDbVertex
100
AcDb2dVertex
 10
183.0
 20
127.999995
 30
0.0
  0
VERTEX
  5
2A2
330
18B
100
AcDbEntity
  8
BRACKET
100
AcDbVertex
100
AcDb2dVertex
 10
183.0
 20
68.999995
 30
0.0
  0
SEQEND
  5
29C
330
18B
100
AcDbEntity
  8
BRACKET
  0
POLYLINE
  5
193
330
18
100
AcDbEntity
  8
BRACKET
100
AcDb2dPolyline
 66
     1
 10
0.0
 20
0.0
 30
0.0
  0
VERTEX
  5
2A4
330
193
100
AcDbEntity
  8
BRACKET
100
AcDbVertex
100
AcDb2dVertex
 10
183.0
 20
-67.000005
 30
0.0
  0
VERTEX
  5
2A5
330
193
100
AcDbEntity
  8
BRACKET
100
AcDbVertex
100
AcDb2dVertex
 10
145.0
 20
-67.000005
 30
0.0
  0
SEQEND
  5
2A3
330
193
100
AcDbEntity
  8
BRACKET
  0
LINE
  5
197
330
18
100
AcDbEntity
  8
BRACKET
100
AcDbLine
 10
158.75
 20
-51.750005
 30
0.0
 11
158.75
 21
-8.750005
 31
0.0
  0
LINE
  5
198
330
18
100
AcDbEntity
  8
BRACKET
100
AcDbLine
 10
169.25
 20
-51.750005
 30
0.0
 11
169.25
 21
-8.750005
 31
0.0
  0
LINE
  5
199
330
18
100
AcDbEntity
  8
BRACKET
100
AcDbLine
 10
158.75
 20
4.749995
 30
0.0
 11
158.75
 21
47.749995
 31
0.0
  0
LINE
  5
19A
330
18
100
AcDbEntity
  8
BRACKET
100
AcDbLine
 10
169.25
 20
4.749995
 30
0.0
 11
169.25
 21
47.749995
 31
0.0
  0
ARC
  5
19B
330
18
100
AcDbEntity
  8
BRACKET
100
AcDbCircle
 10
164.0
 20
47.749995
 30
0.0
 40
5.25
100
AcDbArc
 50
0.0
 51
180.0
  0
ARC
  5
19C
330
18
100
AcDbEntity
  8
BRACKET
100
AcDbCircle
 10
164.0
 20
4.749995
 30
0.0
 40
5.25
100
AcDbArc
 50
180.0
 51
0.0
  0
ARC
  5
19D
330
18
100
AcDbEntity
  8
BRACKET
100
AcDbCircle
 10
164.0
 20
-8.750005
 30
0.0
 40
5.25
100
AcDbArc
 50
0.0
 51
180.0
  0
ARC
  5
19E
330
18
100
AcDbEntity
  8
BRACKET
100
AcDbCircle
 10
164.0
 20
-51.750005
 30
0.0
 40
5.25
100
AcDbArc
 50
180.0
 51
0.0
  0
ARC
  5
19F
330
18
100
AcDbEntity
  8
BRACKET
100
AcDbCircle
 10
164.0
 20
106.384529
 30
0.0
 40
26.562379
100
AcDbArc
 50
50.906253
 51
129.093747
  0
POLYLINE
  5
1A0
330
18
100
AcDbEntity
  8
BRACKET
100
AcDb2dPolyline
 66
     1
 10
0.0
 20
0.0
 30
0.0
 70
     1
  0
VERTEX
  5
2A7
330
1A0
100
AcDbEntity
  8
BRACKET
100
AcDbVertex
100
AcDb2dVertex
 10
157.5
 20
116.999995
 30
0.0
  0
VERTEX
  5
2A8
330
1A0
100
AcDbEntity
  8
BRACKET
100
AcDbVertex
100
AcDb2dVertex
 10
157.5
 20
120.999995
 30
0.0
  0
VERTEX
  5
2A9
330
1A0
100
AcDbEntity
  8
BRACKET
100
AcDbVertex
100
AcDb2dVertex
 10
170.5
 20
120.999995
 30
0.0
  0
VERTEX
  5
2AA
330
1A0
100
AcDbEntity
  8
BRACKET
100
AcDbVertex
100
AcDb2dVertex
 10
170.5
 20
116.999995
 30
0.0
  0
SEQEND
  5
2A6
330
1A0
100
AcDbEntity
  8
BRACKET
  0
POLYLINE
  5
1A6
330
18
100
AcDbEntity
  8
BRACKET
100
AcDb2dPolyline
 66
     1
 10
0.0
 20
0.0
 30
0.0
 70
     1
  0
VERTEX
  5
2AC
330
1A6
100
AcDbEntity
  8
BRACKET
100
AcDbVertex
100
AcDb2dVertex
 10
156.5
 20
120.999995
 30
0.0
  0
VERTEX
  5
2AD
330
1A6
100
AcDbEntity
  8
BRACKET
100
AcDbVertex
100
AcDb2dVertex
 10
156.5
 20
122.999995
 30
0.0
  0
VERTEX
  5
2AE
330
1A6
100
AcDbEntity
  8
BRACKET
100
AcDbVertex
100
AcDb2dVertex
 10
171.5
 20
122.999995
 30
0.0
  0
VERTEX
  5
2AF
330
1A6
100
AcDbEntity
  8
BRACKET
100
AcDbVertex
100
AcDb2dVertex
 10
171.5
 20
120.999995
 30
0.0
  0
SEQEND
  5
2AB
330
1A6
100
AcDbEntity
  8
BRACKET
  0
POLYLINE
  5
1AC
330
18
100
AcDbEntity
  8
BRACKET
100
AcDb2dPolyline
 66
     1
 10
0.0
 20
0.0
 30
0.0
 70
     1
  0
VERTEX
  5
2B1
330
1AC
100
AcDbEntity
  8
BRACKET
100
AcDbVertex
100
AcDb2dVertex
 10
161.5
 20
116.999995
 30
0.0
  0
VERTEX
  5
2B2
330
1AC
100
AcDbEntity
  8
BRACKET
100
AcDbVertex
100
AcDb2dVertex
 10
161.5
 20
120.999995
 30
0.0
  0
VERTEX
  5
2B3
330
1AC
100
AcDbEntity
  8
BRACKET
100
AcDbVertex
100
AcDb2dVertex
 10
166.5
 20
120.999995
 30
0.0
  0
VERTEX
  5
2B4
330
1AC
100
AcDbEntity
  8
BRACKET
100
AcDbVertex
100
AcDb2dVertex
 10
166.5
 20
116.999995
 30
0.0
  0
SEQEND
  5
2B0
330
1AC
100
AcDbEntity
  8
BRACKET
  0
ENDSEC
  0
SECTION
  2
OBJECTS
  0
DICTIONARY
  5
C
330
0
100
AcDbDictionary
  3
ACAD_GROUP
350
D
  3
ACAD_LAYOUT
350
1B3
  3
ACAD_MLINESTYLE
350
E
1001
ACAD
1000
TREAT_AS_HARD
1070
     0
  0
DICTIONARY
  5
2B5
330
1B2
100
AcDbDictionary
  3
ACAD_XREC_ROUNDTRIP
360
2B6
  0
DICTIONARY
  5
D
102
{ACAD_REACTORS
330
C
102
}
330
C
100
AcDbDictionary
1001
ACAD
1000
TREAT_AS_HARD
1070
     0
  0
DICTIONARY
  5
1B3
102
{ACAD_REACTORS
330
C
102
}
330
C
100
AcDbDictionary
1001
ACAD
1000
TREAT_AS_HARD
1070
     0
  0
DICTIONARY
  5
E
102
{ACAD_REACTORS
330
C
102
}
330
C
100
AcDbDictionary
  3
STANDARD
350
1B
1001
ACAD
1000
TREAT_AS_HARD
1070
     0
  0
XRECORD
  5
2B6
102
{ACAD_REACTORS
330
2B5
102
}
330
2B5
100
AcDbXrecord
102
UCS
 74
     0
 71
     1
 10
0.0
 20
0.0
 30
0.0
 10
1.0
 20
0.0
 30
0.0
 10
0.0
 20
1.0
 30
0.0
146
0.0
 79
     0
102
VIEW
281
     0
  0
MLINESTYLE
  5
1B
102
{ACAD_REACTORS
330
E
102
}
330
E
100
AcDbMlineStyle
  2
STANDARD
 70
     0
  3

 62
     0
 51
90.0
 52
90.0
 71
     2
 49
0.5
 62
   256
  6
BYLAYER
 49
-0.5
 62
   256
  6
BYLAYER
  0
ENDSEC
  0
EOF
