  0
SECTION
  2
HEADER
  9
$ACADVER
  1
AC1012
  9
$DWGCODEPAGE
  3
ansi_1252
  9
$INSBASE
 10
0.0
 20
0.0
 30
0.0
  9
$EXTMIN
 10
-14.231141
 20
-52.629996
 30
0.0
  9
$EXTMAX
 10
207.0
 20
276.852432
 30
0.0
  9
$LIMMIN
 10
0.0
 20
0.0
  9
$LIMMAX
 10
297.0
 20
210.0
  9
$ORTHOMODE
 70
     1
  9
$REGENMODE
 70
     1
  9
$FILLMODE
 70
     1
  9
$QTEXTMODE
 70
     0
  9
$MIRRTEXT
 70
     1
  9
$DRAGMODE
 70
     2
  9
$LTSCALE
 40
10.0
  9
$OSMODE
 70
    37
  9
$ATTMODE
 70
     1
  9
$TEXTSIZE
 40
0.2
  9
$TRACEWID
 40
0.05
  9
$TEXTSTYLE
  7
STANDARD
  9
$CLAYER
  8
0
  9
$CELTYPE
  6
BYLAYER
  9
$CECOLOR
 62
   256
  9
$CELTSCALE
 40
1.0
  9
$DELOBJ
 70
     1
  9
$DISPSILH
 70
     0
  9
$DIMSCALE
 40
1.0
  9
$DIMASZ
 40
0.18
  9
$DIMEXO
 40
0.0625
  9
$DIMDLI
 40
0.38
  9
$DIMRND
 40
0.0
  9
$DIMDLE
 40
0.0
  9
$DIMEXE
 40
0.18
  9
$DIMTP
 40
0.0
  9
$DIMTM
 40
0.0
  9
$DIMTXT
 40
0.18
  9
$DIMCEN
 40
0.09
  9
$DIMTSZ
 40
0.0
  9
$DIMTOL
 70
     0
  9
$DIMLIM
 70
     0
  9
$DIMTIH
 70
     1
  9
$DIMTOH
 70
     1
  9
$DIMSE1
 70
     0
  9
$DIMSE2
 70
     0
  9
$DIMTAD
 70
     0
  9
$DIMZIN
 70
     0
  9
$DIMBLK
  1

  9
$DIMASO
 70
     1
  9
$DIMSHO
 70
     0
  9
$DIMPOST
  1

  9
$DIMAPOST
  1

  9
$DIMALT
 70
     0
  9
$DIMALTD
 70
     2
  9
$DIMALTF
 40
25.4
  9
$DIMLFAC
 40
1.0
  9
$DIMTOFL
 70
     0
  9
$DIMTVP
 40
0.0
  9
$DIMTIX
 70
     0
  9
$DIMSOXD
 70
     0
  9
$DIMSAH
 70
     0
  9
$DIMBLK1
  1

  9
$DIMBLK2
  1

  9
$DIMSTYLE
  2
STANDARD
  9
$DIMCLRD
 70
     0
  9
$DIMCLRE
 70
     0
  9
$DIMCLRT
 70
     0
  9
$DIMTFAC
 40
1.0
  9
$DIMGAP
 40
0.09
  9
$DIMJUST
 70
     0
  9
$DIMSD1
 70
     0
  9
$DIMSD2
 70
     0
  9
$DIMTOLJ
 70
     1
  9
$DIMTZIN
 70
     0
  9
$DIMALTZ
 70
     0
  9
$DIMALTTZ
 70
     0
  9
$DIMFIT
 70
     3
  9
$DIMUPT
 70
     0
  9
$DIMUNIT
 70
     2
  9
$DIMDEC
 70
     4
  9
$DIMTDEC
 70
     4
  9
$DIMALTU
 70
     2
  9
$DIMALTTD
 70
     2
  9
$DIMTXSTY
  7
STANDARD
  9
$DIMAUNIT
 70
     0
  9
$LUNITS
 70
     2
  9
$LUPREC
 70
     4
  9
$SKETCHINC
 40
0.1
  9
$FILLETRAD
 40
0.0
  9
$AUNITS
 70
     0
  9
$AUPREC
 70
     0
  9
$MENU
  1
c:\sitoplas\menu\CCing
  9
$ELEVATION
 40
0.0
  9
$PELEVATION
 40
0.0
  9
$THICKNESS
 40
0.0
  9
$LIMCHECK
 70
     0
  9
$CHAMFERA
 40
0.0
  9
$CHAMFERB
 40
0.0
  9
$CHAMFERC
 40
0.0
  9
$CHAMFERD
 40
0.0
  9
$SKPOLY
 70
     0
  9
$TDCREATE
 40
2447893.083333334
  9
$TDUPDATE
 40
2447893.083333334
  9
$TDINDWG
 40
0.0048581019
  9
$TDUSRTIMER
 40
0.0048581019
  9
$USRTIMER
 70
     1
  9
$ANGBASE
 50
0.0
  9
$ANGDIR
 70
     0
  9
$PDMODE
 70
     0
  9
$PDSIZE
 40
0.0
  9
$PLINEWID
 40
0.0
  9
$COORDS
 70
     1
  9
$SPLFRAME
 70
     0
  9
$SPLINETYPE
 70
     6
  9
$SPLINESEGS
 70
     8
  9
$ATTDIA
 70
     0
  9
$ATTREQ
 70
     1
  9
$HANDLING
 70
     1
  9
$HANDSEED
  5
187
  9
$SURFTAB1
 70
     6
  9
$SURFTAB2
 70
     6
  9
$SURFTYPE
 70
     6
  9
$SURFU
 70
     6
  9
$SURFV
 70
     6
  9
$UCSNAME
  2

  9
$UCSORG
 10
0.0
 20
0.0
 30
0.0
  9
$UCSXDIR
 10
1.0
 20
0.0
 30
0.0
  9
$UCSYDIR
 10
0.0
 20
1.0
 30
0.0
  9
$PUCSNAME
  2

  9
$PUCSORG
 10
0.0
 20
0.0
 30
0.0
  9
$PUCSXDIR
 10
1.0
 20
0.0
 30
0.0
  9
$PUCSYDIR
 10
0.0
 20
1.0
 30
0.0
  9
$USERI1
 70
     0
  9
$USERI2
 70
     0
  9
$USERI3
 70
     0
  9
$USERI4
 70
     0
  9
$USERI5
 70
     0
  9
$USERR1
 40
0.0
  9
$USERR2
 40
0.0
  9
$USERR3
 40
0.0
  9
$USERR4
 40
0.0
  9
$USERR5
 40
0.0
  9
$WORLDVIEW
 70
     1
  9
$SHADEDGE
 70
     3
  9
$SHADEDIF
 70
    70
  9
$TILEMODE
 70
     1
  9
$MAXACTVP
 70
    16
  9
$PINSBASE
 10
0.0
 20
0.0
 30
0.0
  9
$PLIMCHECK
 70
     0
  9
$PEXTMIN
 10
1.000000000000000E+20
 20
1.000000000000000E+20
 30
1.000000000000000E+20
  9
$PEXTMAX
 10
-1.000000000000000E+20
 20
-1.000000000000000E+20
 30
-1.000000000000000E+20
  9
$PLIMMIN
 10
0.0
 20
0.0
  9
$PLIMMAX
 10
12.0
 20
9.0
  9
$UNITMODE
 70
     0
  9
$VISRETAIN
 70
     0
  9
$PLINEGEN
 70
     0
  9
$PSLTSCALE
 70
     0
  9
$TREEDEPTH
 70
  3020
  9
$PICKSTYLE
 70
     1
  9
$CMLSTYLE
  2
STANDARD
  9
$CMLJUST
 70
     0
  9
$CMLSCALE
 40
1.0
  9
$SAVEIMAGES
 70
     1
  0
ENDSEC
  0
SECTION
  2
CLASSES
  0
CLASS
  1
XRECORD
  2
AcDbXrecord
  3
AutoCAD 2000
 90
    32768
280
     0
281
     0
  0
CLASS
  1
LWPOLYLINE
  2
AcDbPolyline
  3
AutoCAD 2000
 90
    32768
280
     0
281
     1
  0
CLASS
  1
HATCH
  2
AcDbHatch
  3
AutoCAD 2000
 90
    32768
280
     0
281
     1
  0
CLASS
  1
ACDBPLACEHOLDER
  2
AcDbPlaceHolder
  3
ObjectDBX Classes
 90
        0
280
     0
281
     0
  0
CLASS
  1
LAYOUT
  2
AcDbLayout
  3
ObjectDBX Classes
 90
        0
280
     0
281
     0
  0
ENDSEC
  0
SECTION
  2
TABLES
  0
TABLE
  2
VPORT
  5
8
330
0
100
AcDbSymbolTable
 70
     1
  0
VPORT
  5
FE
102
{ACAD_XDICTIONARY
360
185
102
}
330
8
100
AcDbSymbolTableRecord
100
AcDbViewportTableRecord
  2
*ACTIVE
 70
     0
 10
0.0
 20
0.0
 11
1.0
 21
1.0
 12
300.314949
 22
112.628985
 13
0.0
 23
0.0
 14
0.5
 24
0.5
 15
0.0
 25
0.0
 16
0.0
 26
0.0
 36
1.0
 17
0.0
 27
0.0
 37
0.0
 40
328.446894
 41
1.915354
 42
50.0
 43
0.0
 44
0.0
 50
0.0
 51
0.0
 71
     0
 72
   100
 73
     1
 74
     3
 75
     1
 76
     0
 77
     0
 78
     0
  0
ENDTAB
  0
TABLE
  2
LTYPE
  5
5
330
0
100
AcDbSymbolTable
 70
     2
  0
LTYPE
  5
12
330
5
100
AcDbSymbolTableRecord
100
AcDbLinetypeTableRecord
  2
BYBLOCK
 70
     0
  3

 72
    65
 73
     0
 40
0.0
  0
LTYPE
  5
13
330
5
100
AcDbSymbolTableRecord
100
AcDbLinetypeTableRecord
  2
BYLAYER
 70
     0
  3

 72
    65
 73
     0
 40
0.0
  0
LTYPE
  5
14
330
5
100
AcDbSymbolTableRecord
100
AcDbLinetypeTableRecord
  2
CONTINUOUS
 70
     0
  3
Solid line
 72
    65
 73
     0
 40
0.0
  0
LTYPE
  5
35
330
5
100
AcDbSymbolTableRecord
100
AcDbLinetypeTableRecord
  2
DASHDOT
 70
     0
  3
__ . __ . __ . __ . __ . __ . __ . __ . __ . __
 72
    65
 73
     4
 40
1.0
 49
0.5
 74
     0
 49
-0.25
 74
     0
 49
0.0
 74
     0
 49
-0.25
 74
     0
  0
ENDTAB
  0
TABLE
  2
LAYER
  5
2
330
0
100
AcDbSymbolTable
 70
     3
  0
LAYER
  5
F
330
2
100
AcDbSymbolTableRecord
100
AcDbLayerTableRecord
  2
0
 70
     0
 62
     7
  6
CONTINUOUS
  0
LAYER
  5
36
330
2
100
AcDbSymbolTableRecord
100
AcDbLayerTableRecord
  2
BRACKET
 70
     0
 62
     5
  6
CONTINUOUS
  0
LAYER
  5
37
330
2
100
AcDbSymbolTableRecord
100
AcDbLayerTableRecord
  2
AXIS
 70
     0
 62
     1
  6
DASHDOT
  0
ENDTAB
  0
TABLE
  2
STYLE
  5
3
330
0
100
AcDbSymbolTable
 70
     1
  0
STYLE
  5
10
330
3
100
AcDbSymbolTableRecord
100
AcDbTextStyleTableRecord
  2
STANDARD
 70
     0
 40
0.0
 41
1.0
 50
0.0
 71
     0
 42
0.2
  3
txt
  4

  0
ENDTAB
  0
TABLE
  2
VIEW
  5
6
330
0
100
AcDbSymbolTable
 70
     0
  0
ENDTAB
  0
TABLE
  2
UCS
  5
7
330
0
100
AcDbSymbolTable
 70
     0
  0
ENDTAB
  0
TABLE
  2
APPID
  5
9
330
0
100
AcDbSymbolTable
 70
     1
  0
APPID
  5
11
330
9
100
AcDbSymbolTableRecord
100
AcDbRegAppTableRecord
  2
ACAD
 70
     0
  0
ENDTAB
  0
TABLE
  2
DIMSTYLE
  5
A
330
0
100
AcDbSymbolTable
 70
     1
  0
DIMSTYLE
105
2D
330
A
100
AcDbSymbolTableRecord
100
AcDbDimStyleTableRecord
  2
STANDARD
 70
     0
  3

  4

  5

  6

  7

 40
1.0
 41
0.18
 42
0.0625
 43
0.38
 44
0.18
 45
0.0
 46
0.0
 47
0.0
 48
0.0
140
0.18
141
0.09
142
0.0
143
25.4
144
1.0
145
0.0
146
1.0
147
0.09
 71
     0
 72
     0
 73
     1
 74
     1
 75
     0
 76
     0
 77
     0
 78
     0
170
     0
171
     2
172
     0
173
     0
174
     0
175
     0
176
     0
177
     0
178
     0
270
     2
271
     4
272
     4
273
     2
274
     2
340
10
275
     0
280
     0
281
     0
282
     0
283
     1
284
     0
285
     0
286
     0
287
     3
288
     0
  0
ENDTAB
  0
TABLE
  2
BLOCK_RECORD
  5
1
330
0
100
AcDbSymbolTable
 70
     0
  0
BLOCK_RECORD
  5
18
330
1
100
AcDbSymbolTableRecord
100
AcDbBlockTableRecord
  2
*MODEL_SPACE
  0
BLOCK_RECORD
  5
15
330
1
100
AcDbSymbolTableRecord
100
AcDbBlockTableRecord
  2
*PAPER_SPACE
  0
ENDTAB
  0
ENDSEC
  0
SECTION
  2
BLOCKS
  0
BLOCK
  5
24
330
18
100
AcDbEntity
  8
0
100
AcDbBlockBegin
  2
*MODEL_SPACE
 70
     0
 71
     0
 10
0.0
 20
0.0
 30
0.0
  3
*MODEL_SPACE
  1

  0
ENDBLK
  5
25
330
18
100
AcDbEntity
  8
0
100
AcDbBlockEnd
  0
BLOCK
  5
22
330
15
100
AcDbEntity
 67
     1
  8
0
100
AcDbBlockBegin
  2
*PAPER_SPACE
 70
     0
 71
     0
 10
0.0
 20
0.0
 30
0.0
  3
*PAPER_SPACE
  1

  0
ENDBLK
  5
23
330
15
100
AcDbEntity
 67
     1
  8
0
100
AcDbBlockEnd
  0
ENDSEC
  0
SECTION
  2
ENTITIES
  0
ARC
  5
A5
330
18
100
AcDbEntity
  8
BRACKET
100
AcDbCircle
 10
10.66393
 20
218.568952
 30
0.0
 40
31.185796
100
AcDbArc
 50
272.171304
 51
359.054167
  0
LINE
  5
A6
330
18
100
AcDbEntity
  8
BRACKET
100
AcDbLine
 10
83.585087
 20
181.622971
 30
0.0
 11
42.990393
 21
58.813029
 31
0.0
  0
ARC
  5
A7
330
18
100
AcDbEntity
  8
BRACKET
100
AcDbCircle
 10
38.250782
 20
60.405538
 30
0.0
 40
5.0
100
AcDbArc
 50
270.0
 51
341.427651
  0
LINE
  5
A8
330
18
100
AcDbEntity
  8
BRACKET
100
AcDbLine
 10
20.845476
 20
53.405538
 30
0.0
 11
11.845476
 21
53.405538
 31
0.0
  0
LINE
  5
A9
330
18
100
AcDbEntity
  8
BRACKET
100
AcDbLine
 10
41.845476
 20
218.054163
 30
0.0
 11
41.845476
 21
248.405538
 31
0.0
  0
ARC
  5
AA
330
18
100
AcDbEntity
  8
BRACKET
100
AcDbCircle
 10
46.845476
 20
248.405538
 30
0.0
 40
5.0
100
AcDbArc
 50
90.0
 51
180.0
  0
LINE
  5
AB
330
18
100
AcDbEntity
  8
BRACKET
100
AcDbLine
 10
46.845476
 20
253.405538
 30
0.0
 11
78.84547600000001
 21
253.405538
 31
0.0
  0
ARC
  5
AC
330
18
100
AcDbEntity
  8
BRACKET
100
AcDbCircle
 10
78.84547600000001
 20
248.405538
 30
0.0
 40
5.0
100
AcDbArc
 50
0.0
 51
90.0
  0
LINE
  5
AD
330
18
100
AcDbEntity
  8
BRACKET
100
AcDbLine
 10
83.84547600000001
 20
248.405538
 30
0.0
 11
83.84547600000001
 21
183.215481
 31
0.0
  0
ARC
  5
AE
330
18
100
AcDbEntity
  8
BRACKET
100
AcDbCircle
 10
78.84547600000001
 20
183.215481
 30
0.0
 40
5.0
100
AcDbArc
 50
341.427651
 51
0.0
  0
LINE
  5
AF
330
18
100
AcDbEntity
  8
AXIS
 48
10.0
100
AcDbLine
 10
62.845476
 20
227.954636
 30
0.0
 11
62.845476
 21
276.852432
 31
0.0
  0
LINE
  5
B0
330
18
100
AcDbEntity
  8
AXIS
 48
10.0
100
AcDbLine
 10
37.922094
 20
68.65553800000001
 30
0.0
 11
-14.231141
 21
68.65553800000001
 31
0.0
  0
LINE
  5
B1
330
18
100
AcDbEntity
  8
AXIS
 48
10.0
100
AcDbLine
 10
37.922094
 20
111.655538
 30
0.0
 11
-14.231141
 21
111.655538
 31
0.0
  0
LINE
  5
B2
330
18
100
AcDbEntity
  8
AXIS
 48
10.0
100
AcDbLine
 10
37.922094
 20
125.155538
 30
0.0
 11
-14.231141
 21
125.155538
 31
0.0
  0
LINE
  5
B3
330
18
100
AcDbEntity
  8
AXIS
 48
10.0
100
AcDbLine
 10
37.922094
 20
168.155538
 30
0.0
 11
-14.231141
 21
168.155538
 31
0.0
  0
POLYLINE
  5
B4
330
18
100
AcDbEntity
  8
BRACKET
100
AcDb2dPolyline
 66
     1
 10
0.0
 20
0.0
 30
0.0
  0
VERTEX
  5
158
330
B4
100
AcDbEntity
  8
BRACKET
100
AcDbVertex
100
AcDb2dVertex
 10
11.845476
 20
53.405538
 30
0.0
  0
VERTEX
  5
159
330
B4
100
AcDbEntity
  8
BRACKET
100
AcDbVertex
100
AcDb2dVertex
 10
11.845476
 20
187.405547
 30
0.0
  0
SEQEND
  5
157
330
B4
100
AcDbEntity
  8
BRACKET
  0
LINE
  5
B8
330
18
100
AcDbEntity
  8
BRACKET
100
AcDbLine
 10
20.845476
 20
53.405538
 30
0.0
 11
38.250782
 21
55.405538
 31
0.0
  0
POLYLINE
  5
B9
330
18
100
AcDbEntity
  8
BRACKET
100
AcDb2dPolyline
 66
     1
 10
0.0
 20
0.0
 30
0.0
 70
     1
  0
VERTEX
  5
15B
330
B9
100
AcDbEntity
  8
BRACKET
100
AcDbVertex
100
AcDb2dVertex
 10
41.845476
 20
-46.594462
 30
0.0
  0
VERTEX
  5
15C
330
B9
100
AcDbEntity
  8
BRACKET
100
AcDbVertex
100
AcDb2dVertex
 10
41.845476
 20
-18.594462
 30
0.0
 42
-0.414214
  0
VERTEX
  5
15D
330
B9
100
AcDbEntity
  8
BRACKET
100
AcDbVertex
100
AcDb2dVertex
 10
46.845476
 20
-13.594462
 30
0.0
  0
VERTEX
  5
15E
330
B9
100
AcDbEntity
  8
BRACKET
100
AcDbVertex
100
AcDb2dVertex
 10
78.84547600000001
 20
-13.594462
 30
0.0
 42
-0.414214
  0
VERTEX
  5
15F
330
B9
100
AcDbEntity
  8
BRACKET
100
AcDbVertex
100
AcDb2dVertex
 10
83.84547600000001
 20
-18.594462
 30
0.0
  0
VERTEX
  5
160
330
B9
100
AcDbEntity
  8
BRACKET
100
AcDbVertex
100
AcDb2dVertex
 10
83.84547600000001
 20
-46.594462
 30
0.0
 42
-0.414214
  0
VERTEX
  5
161
330
B9
100
AcDbEntity
  8
BRACKET
100
AcDbVertex
100
AcDb2dVertex
 10
78.84547600000001
 20
-51.594462
 30
0.0
  0
VERTEX
  5
162
330
B9
100
AcDbEntity
  8
BRACKET
100
AcDbVertex
100
AcDb2dVertex
 10
46.845476
 20
-51.594462
 30
0.0
 42
-0.414214
  0
SEQEND
  5
15A
330
B9
100
AcDbEntity
  8
BRACKET
  0
LINE
  5
C3
330
18
100
AcDbEntity
  8
BRACKET
100
AcDbLine
 10
11.845476
 20
-13.594462
 30
0.0
 11
11.845476
 21
-51.594462
 31
0.0
  0
LINE
  5
C4
330
18
100
AcDbEntity
  8
BRACKET
100
AcDbLine
 10
11.845476
 20
-13.594462
 30
0.0
 11
46.845476
 21
-13.594462
 31
0.0
  0
LINE
  5
C5
330
18
100
AcDbEntity
  8
BRACKET
100
AcDbLine
 10
11.845476
 20
-51.594462
 30
0.0
 11
46.845476
 21
-51.594462
 31
0.0
  0
LINE
  5
C6
330
18
100
AcDbEntity
  8
AXIS
100
AcDbLine
 10
62.845476
 20
-15.594462
 30
0.0
 11
62.845476
 21
-49.594462
 31
0.0
  0
LINE
  5
C7
330
18
100
AcDbEntity
  8
AXIS
100
AcDbLine
 10
81.84547600000001
 20
-32.594462
 30
0.0
 11
43.845476
 21
-32.594462
 31
0.0
  0
CIRCLE
  5
C8
330
18
100
AcDbEntity
  8
BRACKET
100
AcDbCircle
 10
62.845476
 20
-32.594462
 30
0.0
 40
15.0
  0
CIRCLE
  5
C9
330
18
100
AcDbEntity
  8
BRACKET
100
AcDbCircle
 10
62.845476
 20
-32.594462
 30
0.0
 40
5.0
  0
LINE
  5
CA
330
18
100
AcDbEntity
  8
AXIS
100
AcDbLine
 10
30.845476
 20
-32.594462
 30
0.0
 11
-7.154524
 21
-32.594462
 31
0.0
  0
POLYLINE
  5
CB
330
18
100
AcDbEntity
  8
BRACKET
100
AcDb2dPolyline
 66
     1
 10
0.0
 20
0.0
 30
0.0
 70
     1
  0
VERTEX
  5
164
330
CB
100
AcDbEntity
  8
BRACKET
100
AcDbVertex
100
AcDb2dVertex
 10
173.5
 20
53.405538
 30
0.0
  0
VERTEX
  5
165
330
CB
100
AcDbEntity
  8
BRACKET
100
AcDbVertex
100
AcDb2dVertex
 10
173.5
 20
238.405538
 30
0.0
 42
-0.414214
  0
VERTEX
  5
166
330
CB
100
AcDbEntity
  8
BRACKET
100
AcDbVertex
100
AcDb2dVertex
 10
178.5
 20
243.405538
 30
0.0
  0
VERTEX
  5
167
330
CB
100
AcDbEntity
  8
BRACKET
100
AcDbVertex
100
AcDb2dVertex
 10
193.5
 20
243.405538
 30
0.0
 42
-0.414214
  0
VERTEX
  5
168
330
CB
100
AcDbEntity
  8
BRACKET
100
AcDbVertex
100
AcDb2dVertex
 10
198.5
 20
238.405538
 30
0.0
  0
VERTEX
  5
169
330
CB
100
AcDbEntity
  8
BRACKET
100
AcDbVertex
100
AcDb2dVertex
 10
198.5
 20
53.405538
 30
0.0
  0
SEQEND
  5
163
330
CB
100
AcDbEntity
  8
BRACKET
  0
POLYLINE
  5
D3
330
18
100
AcDbEntity
  8
BRACKET
100
AcDb2dPolyline
 66
     1
 10
0.0
 20
0.0
 30
0.0
 70
     1
  0
VERTEX
  5
16B
330
D3
100
AcDbEntity
  8
BRACKET
100
AcDbVertex
100
AcDb2dVertex
 10
169.25
 20
53.405538
 30
0.0
  0
VERTEX
  5
16C
330
D3
100
AcDbEntity
  8
BRACKET
100
AcDbVertex
100
AcDb2dVertex
 10
169.25
 20
238.405538
 30
0.0
 42
-0.414214
  0
VERTEX
  5
16D
330
D3
100
AcDbEntity
  8
BRACKET
100
AcDbVertex
100
AcDb2dVertex
 10
174.25
 20
243.405538
 30
0.0
  0
VERTEX
  5
16E
330
D3
100
AcDbEntity
  8
BRACKET
100
AcDbVertex
100
AcDb2dVertex
 10
197.75
 20
243.405538
 30
0.0
 42
-0.414214
  0
VERTEX
  5
16F
330
D3
100
AcDbEntity
  8
BRACKET
100
AcDbVertex
100
AcDb2dVertex
 10
202.75
 20
238.405538
 30
0.0
  0
VERTEX
  5
170
330
D3
100
AcDbEntity
  8
BRACKET
100
AcDbVertex
100
AcDb2dVertex
 10
202.75
 20
53.405538
 30
0.0
  0
SEQEND
  5
16A
330
D3
100
AcDbEntity
  8
BRACKET
  0
LINE
  5
DB
330
18
100
AcDbEntity
  8
BRACKET
100
AcDbLine
 10
205.0
 20
189.405538
 30
0.0
 11
207.0
 21
187.405538
 31
0.0
  0
POLYLINE
  5
DC
330
18
100
AcDbEntity
  8
BRACKET
100
AcDb2dPolyline
 66
     1
 10
0.0
 20
0.0
 30
0.0
  0
VERTEX
  5
172
330
DC
100
AcDbEntity
  8
BRACKET
100
AcDbVertex
100
AcDb2dVertex
 10
165.0
 20
53.405538
 30
0.0
  0
VERTEX
  5
173
330
DC
100
AcDbEntity
  8
BRACKET
100
AcDbVertex
100
AcDb2dVertex
 10
165.0
 20
187.405538
 30
0.0
  0
SEQEND
  5
171
330
DC
100
AcDbEntity
  8
BRACKET
  0
POLYLINE
  5
E0
330
18
100
AcDbEntity
  8
BRACKET
100
AcDb2dPolyline
 66
     1
 10
0.0
 20
0.0
 30
0.0
  0
VERTEX
  5
175
330
E0
100
AcDbEntity
  8
BRACKET
100
AcDbVertex
100
AcDb2dVertex
 10
207.0
 20
187.405538
 30
0.0
  0
VERTEX
  5
176
330
E0
100
AcDbEntity
  8
BRACKET
100
AcDbVertex
100
AcDb2dVertex
 10
207.0
 20
53.405538
 30
0.0
  0
VERTEX
  5
177
330
E0
100
AcDbEntity
  8
BRACKET
100
AcDbVertex
100
AcDb2dVertex
 10
165.0
 20
53.405538
 30
0.0
  0
SEQEND
  5
174
330
E0
100
AcDbEntity
  8
BRACKET
  0
LINE
  5
E5
330
18
100
AcDbEntity
  8
BRACKET
100
AcDbLine
 10
167.0
 20
189.405538
 30
0.0
 11
165.0
 21
187.405538
 31
0.0
  0
POLYLINE
  5
E6
330
18
100
AcDbEntity
  8
0
100
AcDb2dPolyline
 66
     1
 10
0.0
 20
0.0
 30
0.0
  0
VERTEX
  5
179
330
E6
100
AcDbEntity
  8
0
100
AcDbVertex
100
AcDb2dVertex
 10
188.0
 20
118.405538
 30
0.0
  0
VERTEX
  5
17A
330
E6
100
AcDbEntity
  8
0
100
AcDbVertex
100
AcDb2dVertex
 10
188.0
 20
118.405538
 30
0.0
  0
SEQEND
  5
178
330
E6
100
AcDbEntity
  8
0
  0
POLYLINE
  5
E9
330
18
100
AcDbEntity
  8
BRACKET
100
AcDb2dPolyline
 66
     1
 10
0.0
 20
0.0
 30
0.0
  0
VERTEX
  5
17C
330
E9
100
AcDbEntity
  8
BRACKET
100
AcDbVertex
100
AcDb2dVertex
 10
167.0
 20
189.405538
 30
0.0
  0
VERTEX
  5
17D
330
E9
100
AcDbEntity
  8
BRACKET
100
AcDbVertex
100
AcDb2dVertex
 10
167.0
 20
248.405538
 30
0.0
 42
-0.414214
  0
VERTEX
  5
17E
330
E9
100
AcDbEntity
  8
BRACKET
100
AcDbVertex
100
AcDb2dVertex
 10
172.0
 20
253.405538
 30
0.0
  0
VERTEX
  5
17F
330
E9
100
AcDbEntity
  8
BRACKET
100
AcDbVertex
100
AcDb2dVertex
 10
200.0
 20
253.405538
 30
0.0
 42
-0.414214
  0
VERTEX
  5
180
330
E9
100
AcDbEntity
  8
BRACKET
100
AcDbVertex
100
AcDb2dVertex
 10
205.0
 20
248.405538
 30
0.0
  0
VERTEX
  5
181
330
E9
100
AcDbEntity
  8
BRACKET
100
AcDbVertex
100
AcDb2dVertex
 10
205.0
 20
189.405538
 30
0.0
  0
SEQEND
  5
17B
330
E9
100
AcDbEntity
  8
BRACKET
  0
POLYLINE
  5
F1
330
18
100
AcDbEntity
  8
BRACKET
100
AcDb2dPolyline
 66
     1
 10
0.0
 20
0.0
 30
0.0
  0
VERTEX
  5
183
330
F1
100
AcDbEntity
  8
BRACKET
100
AcDbVertex
100
AcDb2dVertex
 10
205.0
 20
53.405538
 30
0.0
  0
VERTEX
  5
184
330
F1
100
AcDbEntity
  8
BRACKET
100
AcDbVertex
100
AcDb2dVertex
 10
167.0
 20
53.405538
 30
0.0
  0
SEQEND
  5
182
330
F1
100
AcDbEntity
  8
BRACKET
  0
LINE
  5
F5
330
18
100
AcDbEntity
  8
BRACKET
100
AcDbLine
 10
180.75
 20
68.65553800000001
 30
0.0
 11
180.75
 21
111.655538
 31
0.0
  0
LINE
  5
F6
330
18
100
AcDbEntity
  8
BRACKET
100
AcDbLine
 10
191.25
 20
68.65553800000001
 30
0.0
 11
191.25
 21
111.655538
 31
0.0
  0
LINE
  5
F7
330
18
100
AcDbEntity
  8
BRACKET
100
AcDbLine
 10
180.75
 20
125.155538
 30
0.0
 11
180.75
 21
168.155538
 31
0.0
  0
LINE
  5
F8
330
18
100
AcDbEntity
  8
BRACKET
100
AcDbLine
 10
191.25
 20
125.155538
 30
0.0
 11
191.25
 21
168.155538
 31
0.0
  0
ARC
  5
F9
330
18
100
AcDbEntity
  8
BRACKET
100
AcDbCircle
 10
186.0
 20
168.155538
 30
0.0
 40
5.25
100
AcDbArc
 50
0.0
 51
180.0
  0
ARC
  5
FA
330
18
100
AcDbEntity
  8
BRACKET
100
AcDbCircle
 10
186.0
 20
125.155538
 30
0.0
 40
5.25
100
AcDbArc
 50
180.0
 51
0.0
  0
ARC
  5
FB
330
18
100
AcDbEntity
  8
BRACKET
100
AcDbCircle
 10
186.0
 20
111.655538
 30
0.0
 40
5.25
100
AcDbArc
 50
0.0
 51
180.0
  0
ARC
  5
FC
330
18
100
AcDbEntity
  8
BRACKET
100
AcDbCircle
 10
186.0
 20
68.65553800000001
 30
0.0
 40
5.25
100
AcDbArc
 50
180.0
 51
0.0
  0
ARC
  5
FD
330
18
100
AcDbEntity
  8
BRACKET
100
AcDbCircle
 10
186.0
 20
226.790071
 30
0.0
 40
26.562379
100
AcDbArc
 50
50.906253
 51
129.093747
  0
ENDSEC
  0
SECTION
  2
OBJECTS
  0
DICTIONARY
  5
C
330
0
100
AcDbDictionary
  3
ACAD_GROUP
350
D
  3
ACAD_LAYOUT
350
FF
  3
ACAD_MLINESTYLE
350
E
1001
ACAD
1000
TREAT_AS_HARD
1070
     0
  0
DICTIONARY
  5
185
330
FE
100
AcDbDictionary
  3
ACAD_XREC_ROUNDTRIP
360
186
  0
DICTIONARY
  5
D
102
{ACAD_REACTORS
330
C
102
}
330
C
100
AcDbDictionary
1001
ACAD
1000
TREAT_AS_HARD
1070
     0
  0
DICTIONARY
  5
FF
102
{ACAD_REACTORS
330
C
102
}
330
C
100
AcDbDictionary
1001
ACAD
1000
TREAT_AS_HARD
1070
     0
  0
DICTIONARY
  5
E
102
{ACAD_REACTORS
330
C
102
}
330
C
100
AcDbDictionary
  3
STANDARD
350
1B
1001
ACAD
1000
TREAT_AS_HARD
1070
     0
  0
XRECORD
  5
186
102
{ACAD_REACTORS
330
185
102
}
330
185
100
AcDbXrecord
102
UCS
 74
     0
 71
     1
 10
0.0
 20
0.0
 30
0.0
 10
1.0
 20
0.0
 30
0.0
 10
0.0
 20
1.0
 30
0.0
146
0.0
 79
     0
102
VIEW
281
     0
  0
MLINESTYLE
  5
1B
102
{ACAD_REACTORS
330
E
102
}
330
E
100
AcDbMlineStyle
  2
STANDARD
 70
     0
  3

 62
     0
 51
90.0
 52
90.0
 71
     2
 49
0.5
 62
   256
  6
BYLAYER
 49
-0.5
 62
   256
  6
BYLAYER
  0
ENDSEC
  0
EOF
