  0
SECTION
  2
HEADER
  9
$ACADVER
  1
AC1012
  9
$DWGCODEPAGE
  3
ansi_1252
  9
$INSBASE
 10
0.0
 20
0.0
 30
0.0
  9
$EXTMIN
 10
-126.0
 20
-121.261523
 30
0.0
  9
$EXTMAX
 10
10.3908
 20
-36.87868
 30
0.0
  9
$LIMMIN
 10
0.0
 20
0.0
  9
$LIMMAX
 10
12.0
 20
9.0
  9
$ORTHOMODE
 70
     1
  9
$REGENMODE
 70
     1
  9
$FILLMODE
 70
     1
  9
$QTEXTMODE
 70
     0
  9
$MIRRTEXT
 70
     1
  9
$DRAGMODE
 70
     2
  9
$LTSCALE
 40
1.0
  9
$OSMODE
 70
    37
  9
$ATTMODE
 70
     1
  9
$TEXTSIZE
 40
0.2
  9
$TRACEWID
 40
0.05
  9
$TEXTSTYLE
  7
STANDARD
  9
$CLAYER
  8
0
  9
$CELTYPE
  6
BYLAYER
  9
$CECOLOR
 62
   256
  9
$CELTSCALE
 40
1.0
  9
$DELOBJ
 70
     1
  9
$DISPSILH
 70
     0
  9
$DIMSCALE
 40
1.0
  9
$DIMASZ
 40
0.18
  9
$DIMEXO
 40
0.0625
  9
$DIMDLI
 40
0.38
  9
$DIMRND
 40
0.0
  9
$DIMDLE
 40
0.0
  9
$DIMEXE
 40
0.18
  9
$DIMTP
 40
0.0
  9
$DIMTM
 40
0.0
  9
$DIMTXT
 40
0.18
  9
$DIMCEN
 40
0.09
  9
$DIMTSZ
 40
0.0
  9
$DIMTOL
 70
     0
  9
$DIMLIM
 70
     0
  9
$DIMTIH
 70
     1
  9
$DIMTOH
 70
     1
  9
$DIMSE1
 70
     0
  9
$DIMSE2
 70
     0
  9
$DIMTAD
 70
     0
  9
$DIMZIN
 70
     0
  9
$DIMBLK
  1

  9
$DIMASO
 70
     1
  9
$DIMSHO
 70
     1
  9
$DIMPOST
  1

  9
$DIMAPOST
  1

  9
$DIMALT
 70
     0
  9
$DIMALTD
 70
     2
  9
$DIMALTF
 40
25.4
  9
$DIMLFAC
 40
1.0
  9
$DIMTOFL
 70
     0
  9
$DIMTVP
 40
0.0
  9
$DIMTIX
 70
     0
  9
$DIMSOXD
 70
     0
  9
$DIMSAH
 70
     0
  9
$DIMBLK1
  1

  9
$DIMBLK2
  1

  9
$DIMSTYLE
  2
STANDARD
  9
$DIMCLRD
 70
     0
  9
$DIMCLRE
 70
     0
  9
$DIMCLRT
 70
     0
  9
$DIMTFAC
 40
1.0
  9
$DIMGAP
 40
0.09
  9
$DIMJUST
 70
     0
  9
$DIMSD1
 70
     0
  9
$DIMSD2
 70
     0
  9
$DIMTOLJ
 70
     1
  9
$DIMTZIN
 70
     0
  9
$DIMALTZ
 70
     0
  9
$DIMALTTZ
 70
     0
  9
$DIMFIT
 70
     3
  9
$DIMUPT
 70
     0
  9
$DIMUNIT
 70
     2
  9
$DIMDEC
 70
     4
  9
$DIMTDEC
 70
     4
  9
$DIMALTU
 70
     2
  9
$DIMALTTD
 70
     2
  9
$DIMTXSTY
  7
STANDARD
  9
$DIMAUNIT
 70
     0
  9
$LUNITS
 70
     2
  9
$LUPREC
 70
     4
  9
$SKETCHINC
 40
0.1
  9
$FILLETRAD
 40
0.0
  9
$AUNITS
 70
     0
  9
$AUPREC
 70
     0
  9
$MENU
  1
acad
  9
$ELEVATION
 40
0.0
  9
$PELEVATION
 40
0.0
  9
$THICKNESS
 40
0.0
  9
$LIMCHECK
 70
     0
  9
$CHAMFERA
 40
0.0
  9
$CHAMFERB
 40
0.0
  9
$CHAMFERC
 40
0.0
  9
$CHAMFERD
 40
0.0
  9
$SKPOLY
 70
     0
  9
$TDCREATE
 40
2447893.083333334
  9
$TDUPDATE
 40
2447893.083333334
  9
$TDINDWG
 40
0.0025194444
  9
$TDUSRTIMER
 40
0.0025194444
  9
$USRTIMER
 70
     1
  9
$ANGBASE
 50
0.0
  9
$ANGDIR
 70
     0
  9
$PDMODE
 70
     0
  9
$PDSIZE
 40
0.0
  9
$PLINEWID
 40
0.0
  9
$COORDS
 70
     1
  9
$SPLFRAME
 70
     0
  9
$SPLINETYPE
 70
     6
  9
$SPLINESEGS
 70
     8
  9
$ATTDIA
 70
     0
  9
$ATTREQ
 70
     1
  9
$HANDLING
 70
     1
  9
$HANDSEED
  5
194
  9
$SURFTAB1
 70
     6
  9
$SURFTAB2
 70
     6
  9
$SURFTYPE
 70
     6
  9
$SURFU
 70
     6
  9
$SURFV
 70
     6
  9
$UCSNAME
  2

  9
$UCSORG
 10
0.0
 20
0.0
 30
0.0
  9
$UCSXDIR
 10
1.0
 20
0.0
 30
0.0
  9
$UCSYDIR
 10
0.0
 20
1.0
 30
0.0
  9
$PUCSNAME
  2

  9
$PUCSORG
 10
0.0
 20
0.0
 30
0.0
  9
$PUCSXDIR
 10
1.0
 20
0.0
 30
0.0
  9
$PUCSYDIR
 10
0.0
 20
1.0
 30
0.0
  9
$USERI1
 70
     0
  9
$USERI2
 70
     0
  9
$USERI3
 70
     0
  9
$USERI4
 70
     0
  9
$USERI5
 70
     0
  9
$USERR1
 40
0.0
  9
$USERR2
 40
0.0
  9
$USERR3
 40
0.0
  9
$USERR4
 40
0.0
  9
$USERR5
 40
0.0
  9
$WORLDVIEW
 70
     1
  9
$SHADEDGE
 70
     3
  9
$SHADEDIF
 70
    70
  9
$TILEMODE
 70
     1
  9
$MAXACTVP
 70
    16
  9
$PINSBASE
 10
0.0
 20
0.0
 30
0.0
  9
$PLIMCHECK
 70
     0
  9
$PEXTMIN
 10
1.000000000000000E+20
 20
1.000000000000000E+20
 30
1.000000000000000E+20
  9
$PEXTMAX
 10
-1.000000000000000E+20
 20
-1.000000000000000E+20
 30
-1.000000000000000E+20
  9
$PLIMMIN
 10
0.0
 20
0.0
  9
$PLIMMAX
 10
12.0
 20
9.0
  9
$UNITMODE
 70
     0
  9
$VISRETAIN
 70
     0
  9
$PLINEGEN
 70
     0
  9
$PSLTSCALE
 70
     1
  9
$TREEDEPTH
 70
  3020
  9
$PICKSTYLE
 70
     1
  9
$CMLSTYLE
  2
STANDARD
  9
$CMLJUST
 70
     0
  9
$CMLSCALE
 40
1.0
  9
$SAVEIMAGES
 70
     1
  0
ENDSEC
  0
SECTION
  2
CLASSES
  0
CLASS
  1
XRECORD
  2
AcDbXrecord
  3
AutoCAD 2000
 90
    32768
280
     0
281
     0
  0
CLASS
  1
LWPOLYLINE
  2
AcDbPolyline
  3
AutoCAD 2000
 90
    32768
280
     0
281
     1
  0
CLASS
  1
HATCH
  2
AcDbHatch
  3
AutoCAD 2000
 90
    32768
280
     0
281
     1
  0
CLASS
  1
ACDBPLACEHOLDER
  2
AcDbPlaceHolder
  3
ObjectDBX Classes
 90
        0
280
     0
281
     0
  0
CLASS
  1
LAYOUT
  2
AcDbLayout
  3
ObjectDBX Classes
 90
        0
280
     0
281
     0
  0
ENDSEC
  0
SECTION
  2
TABLES
  0
TABLE
  2
VPORT
  5
8
330
0
100
AcDbSymbolTable
 70
     1
  0
VPORT
  5
12F
102
{ACAD_XDICTIONARY
360
192
102
}
330
8
100
AcDbSymbolTableRecord
100
AcDbViewportTableRecord
  2
*ACTIVE
 70
     0
 10
0.0
 20
0.0
 11
1.0
 21
1.0
 12
1.122691
 22
-54.891197
 13
0.0
 23
0.0
 14
1.0
 24
1.0
 15
0.0
 25
0.0
 16
0.0
 26
0.0
 36
1.0
 17
0.0
 27
0.0
 37
0.0
 40
132.740652
 41
1.915354
 42
50.0
 43
0.0
 44
0.0
 50
0.0
 51
0.0
 71
     0
 72
   100
 73
     1
 74
     1
 75
     0
 76
     0
 77
     0
 78
     0
  0
ENDTAB
  0
TABLE
  2
LTYPE
  5
5
330
0
100
AcDbSymbolTable
 70
     2
  0
LTYPE
  5
14
330
5
100
AcDbSymbolTableRecord
100
AcDbLinetypeTableRecord
  2
BYBLOCK
 70
     0
  3

 72
    65
 73
     0
 40
0.0
  0
LTYPE
  5
15
330
5
100
AcDbSymbolTableRecord
100
AcDbLinetypeTableRecord
  2
BYLAYER
 70
     0
  3

 72
    65
 73
     0
 40
0.0
  0
LTYPE
  5
16
330
5
100
AcDbSymbolTableRecord
100
AcDbLinetypeTableRecord
  2
CONTINUOUS
 70
     0
  3
Solid line
 72
    65
 73
     0
 40
0.0
  0
LTYPE
  5
28
330
5
100
AcDbSymbolTableRecord
100
AcDbLinetypeTableRecord
  2
DASHDOT
 70
     0
  3
__ . __ . __ . __ . __ . __ . __ . __ . __ . __
 72
    65
 73
     4
 40
1.0
 49
0.5
 74
     0
 49
-0.25
 74
     0
 49
0.0
 74
     0
 49
-0.25
 74
     0
  0
ENDTAB
  0
TABLE
  2
LAYER
  5
2
330
0
100
AcDbSymbolTable
 70
     3
  0
LAYER
  5
F
330
2
100
AcDbSymbolTableRecord
100
AcDbLayerTableRecord
  2
0
 70
     0
 62
     7
  6
CONTINUOUS
  0
LAYER
  5
29
330
2
100
AcDbSymbolTableRecord
100
AcDbLayerTableRecord
  2
RETURN
 70
     0
 62
     3
  6
CONTINUOUS
  0
LAYER
  5
2A
330
2
100
AcDbSymbolTableRecord
100
AcDbLayerTableRecord
  2
AXIS
 70
     0
 62
     1
  6
DASHDOT
  0
ENDTAB
  0
TABLE
  2
STYLE
  5
3
330
0
100
AcDbSymbolTable
 70
     1
  0
STYLE
  5
10
330
3
100
AcDbSymbolTableRecord
100
AcDbTextStyleTableRecord
  2
STANDARD
 70
     0
 40
0.0
 41
1.0
 50
0.0
 71
     0
 42
0.2
  3
txt
  4

  0
ENDTAB
  0
TABLE
  2
VIEW
  5
6
330
0
100
AcDbSymbolTable
 70
     0
  0
ENDTAB
  0
TABLE
  2
UCS
  5
7
330
0
100
AcDbSymbolTable
 70
     0
  0
ENDTAB
  0
TABLE
  2
APPID
  5
9
330
0
100
AcDbSymbolTable
 70
     1
  0
APPID
  5
11
330
9
100
AcDbSymbolTableRecord
100
AcDbRegAppTableRecord
  2
ACAD
 70
     0
  0
ENDTAB
  0
TABLE
  2
DIMSTYLE
  5
A
330
0
100
AcDbSymbolTable
 70
     1
  0
DIMSTYLE
105
1D
330
A
100
AcDbSymbolTableRecord
100
AcDbDimStyleTableRecord
  2
STANDARD
 70
     0
  3

  4

  5

  6

  7

 40
1.0
 41
0.18
 42
0.0625
 43
0.38
 44
0.18
 45
0.0
 46
0.0
 47
0.0
 48
0.0
140
0.18
141
0.09
142
0.0
143
25.4
144
1.0
145
0.0
146
1.0
147
0.09
 71
     0
 72
     0
 73
     1
 74
     1
 75
     0
 76
     0
 77
     0
 78
     0
170
     0
171
     2
172
     0
173
     0
174
     0
175
     0
176
     0
177
     0
178
     0
270
     2
271
     4
272
     4
273
     2
274
     2
340
10
275
     0
280
     0
281
     0
282
     0
283
     1
284
     0
285
     0
286
     0
287
     3
288
     0
  0
ENDTAB
  0
TABLE
  2
BLOCK_RECORD
  5
1
330
0
100
AcDbSymbolTable
 70
     0
  0
BLOCK_RECORD
  5
1A
330
1
100
AcDbSymbolTableRecord
100
AcDbBlockTableRecord
  2
*MODEL_SPACE
  0
BLOCK_RECORD
  5
17
330
1
100
AcDbSymbolTableRecord
100
AcDbBlockTableRecord
  2
*PAPER_SPACE
  0
ENDTAB
  0
ENDSEC
  0
SECTION
  2
BLOCKS
  0
BLOCK
  5
1B
330
1A
100
AcDbEntity
  8
0
100
AcDbBlockBegin
  2
*MODEL_SPACE
 70
     0
 71
     0
 10
0.0
 20
0.0
 30
0.0
  3
*MODEL_SPACE
  1

  0
ENDBLK
  5
1C
330
1A
100
AcDbEntity
  8
0
100
AcDbBlockEnd
  0
BLOCK
  5
18
330
17
100
AcDbEntity
 67
     1
  8
0
100
AcDbBlockBegin
  2
*PAPER_SPACE
 70
     0
 71
     0
 10
0.0
 20
0.0
 30
0.0
  3
*PAPER_SPACE
  1

  0
ENDBLK
  5
19
330
17
100
AcDbEntity
 67
     1
  8
0
100
AcDbBlockEnd
  0
ENDSEC
  0
SECTION
  2
ENTITIES
  0
LINE
  5
B6
330
1A
100
AcDbEntity
  8
RETURN
100
AcDbLine
 10
-118.5
 20
-95.261523
 30
0.0
 11
-34.5
 21
-95.261523
 31
0.0
  0
LINE
  5
B7
330
1A
100
AcDbEntity
  8
RETURN
100
AcDbLine
 10
-118.5
 20
-121.261523
 30
0.0
 11
-34.5
 21
-121.261523
 31
0.0
  0
LINE
  5
B8
330
1A
100
AcDbEntity
  8
RETURN
100
AcDbLine
 10
-118.5
 20
-95.261523
 30
0.0
 11
-118.5
 21
-121.261523
 31
0.0
  0
LINE
  5
B9
330
1A
100
AcDbEntity
  8
RETURN
100
AcDbLine
 10
-113.5
 20
-95.261523
 30
0.0
 11
-113.5
 21
-121.261523
 31
0.0
  0
LINE
  5
BA
330
1A
100
AcDbEntity
  8
RETURN
100
AcDbLine
 10
-108.5
 20
-95.261523
 30
0.0
 11
-108.5
 21
-121.261523
 31
0.0
  0
LINE
  5
BB
330
1A
100
AcDbEntity
  8
RETURN
100
AcDbLine
 10
-103.0
 20
-95.261523
 30
0.0
 11
-103.0
 21
-121.261523
 31
0.0
  0
LINE
  5
BC
330
1A
100
AcDbEntity
  8
RETURN
100
AcDbLine
 10
-92.0
 20
-95.261523
 30
0.0
 11
-92.0
 21
-121.261523
 31
0.0
  0
LINE
  5
BD
330
1A
100
AcDbEntity
  8
RETURN
100
AcDbLine
 10
-86.5
 20
-95.261523
 30
0.0
 11
-86.5
 21
-121.261523
 31
0.0
  0
LINE
  5
BE
330
1A
100
AcDbEntity
  8
RETURN
100
AcDbLine
 10
-81.5
 20
-95.261523
 30
0.0
 11
-81.5
 21
-121.261523
 31
0.0
  0
LINE
  5
BF
330
1A
100
AcDbEntity
  8
RETURN
100
AcDbLine
 10
-71.5
 20
-95.261523
 30
0.0
 11
-71.5
 21
-121.261523
 31
0.0
  0
LINE
  5
C0
330
1A
100
AcDbEntity
  8
RETURN
100
AcDbLine
 10
-66.5
 20
-95.261523
 30
0.0
 11
-66.5
 21
-121.261523
 31
0.0
  0
LINE
  5
C1
330
1A
100
AcDbEntity
  8
RETURN
100
AcDbLine
 10
-61.0
 20
-95.261523
 30
0.0
 11
-61.0
 21
-121.261523
 31
0.0
  0
LINE
  5
C2
330
1A
100
AcDbEntity
  8
RETURN
100
AcDbLine
 10
-50.0
 20
-95.261523
 30
0.0
 11
-50.0
 21
-121.261523
 31
0.0
  0
LINE
  5
C3
330
1A
100
AcDbEntity
  8
RETURN
100
AcDbLine
 10
-44.5
 20
-95.261523
 30
0.0
 11
-44.5
 21
-121.261523
 31
0.0
  0
LINE
  5
C4
330
1A
100
AcDbEntity
  8
RETURN
100
AcDbLine
 10
-39.5
 20
-95.261523
 30
0.0
 11
-39.5
 21
-121.261523
 31
0.0
  0
LINE
  5
C5
330
1A
100
AcDbEntity
  8
RETURN
100
AcDbLine
 10
-34.5
 20
-95.261523
 30
0.0
 11
-34.5
 21
-121.261523
 31
0.0
  0
LINE
  5
C6
330
1A
100
AcDbEntity
  8
AXIS
100
AcDbLine
 10
-125.0
 20
-108.261523
 30
0.0
 11
-29.0
 21
-108.261523
 31
0.0
  0
LINE
  5
C7
330
1A
100
AcDbEntity
  8
RETURN
100
AcDbLine
 10
-61.0
 20
-49.5
 30
0.0
 11
-50.0
 21
-49.5
 31
0.0
  0
LINE
  5
C8
330
1A
100
AcDbEntity
  8
RETURN
100
AcDbLine
 10
-103.0
 20
-49.5
 30
0.0
 11
-92.0
 21
-49.5
 31
0.0
  0
LINE
  5
C9
330
1A
100
AcDbEntity
  8
RETURN
100
AcDbLine
 10
-39.0
 20
-37.5
 30
0.0
 11
-34.5
 21
-37.5
 31
0.0
  0
LINE
  5
CA
330
1A
100
AcDbEntity
  8
RETURN
100
AcDbLine
 10
-50.0
 20
-37.5
 30
0.0
 11
-45.0
 21
-37.5
 31
0.0
  0
LINE
  5
CB
330
1A
100
AcDbEntity
  8
RETURN
100
AcDbLine
 10
-66.0
 20
-37.5
 30
0.0
 11
-61.0
 21
-37.5
 31
0.0
  0
LINE
  5
CC
330
1A
100
AcDbEntity
  8
RETURN
100
AcDbLine
 10
-81.0
 20
-37.5
 30
0.0
 11
-72.0
 21
-37.5
 31
0.0
  0
LINE
  5
CD
330
1A
100
AcDbEntity
  8
RETURN
100
AcDbLine
 10
-92.0
 20
-37.5
 30
0.0
 11
-87.0
 21
-37.5
 31
0.0
  0
LINE
  5
CE
330
1A
100
AcDbEntity
  8
RETURN
100
AcDbLine
 10
-108.0
 20
-37.5
 30
0.0
 11
-103.0
 21
-37.5
 31
0.0
  0
LINE
  5
CF
330
1A
100
AcDbEntity
  8
RETURN
100
AcDbLine
 10
-50.0
 20
-37.5
 30
0.0
 11
-50.0
 21
-52.5
 31
0.0
  0
LINE
  5
D0
330
1A
100
AcDbEntity
  8
RETURN
100
AcDbLine
 10
-61.0
 20
-37.5
 30
0.0
 11
-61.0
 21
-52.5
 31
0.0
  0
LINE
  5
D1
330
1A
100
AcDbEntity
  8
RETURN
100
AcDbLine
 10
-92.0
 20
-37.5
 30
0.0
 11
-92.0
 21
-52.5
 31
0.0
  0
LINE
  5
D2
330
1A
100
AcDbEntity
  8
RETURN
100
AcDbLine
 10
-103.0
 20
-37.5
 30
0.0
 11
-103.0
 21
-52.5
 31
0.0
  0
LINE
  5
D3
330
1A
100
AcDbEntity
  8
RETURN
100
AcDbLine
 10
-118.5
 20
-37.5
 30
0.0
 11
-114.0
 21
-37.5
 31
0.0
  0
LINE
  5
D4
330
1A
100
AcDbEntity
  8
RETURN
100
AcDbLine
 10
-34.5
 20
-37.5
 30
0.0
 11
-34.5
 21
-75.5
 31
0.0
  0
LINE
  5
D5
330
1A
100
AcDbEntity
  8
RETURN
100
AcDbLine
 10
-118.5
 20
-75.5
 30
0.0
 11
-34.5
 21
-75.5
 31
0.0
  0
LINE
  5
D6
330
1A
100
AcDbEntity
  8
RETURN
100
AcDbLine
 10
-118.5
 20
-37.5
 30
0.0
 11
-118.5
 21
-75.5
 31
0.0
  0
LINE
  5
D7
330
1A
100
AcDbEntity
  8
AXIS
 48
2.0
100
AcDbLine
 10
-31.0
 20
-60.0
 30
0.0
 11
-126.0
 21
-60.0
 31
0.0
  0
LINE
  5
D8
330
1A
100
AcDbEntity
  8
RETURN
100
AcDbLine
 10
-39.5
 20
-46.5
 30
0.0
 11
-39.5
 21
-38.0
 31
0.0
  0
LINE
  5
D9
330
1A
100
AcDbEntity
  8
RETURN
100
AcDbLine
 10
-38.9
 20
-37.4
 30
0.0
 11
-38.9
 21
-37.4
 31
0.0
  0
LINE
  5
DA
330
1A
100
AcDbEntity
  8
RETURN
100
AcDbLine
 10
-45.1
 20
-47.1
 30
0.0
 11
-45.1
 21
-47.1
 31
0.0
  0
LINE
  5
DB
330
1A
100
AcDbEntity
  8
RETURN
100
AcDbLine
 10
-44.5
 20
-46.5
 30
0.0
 11
-44.5
 21
-38.0
 31
0.0
  0
POLYLINE
  5
DC
330
1A
100
AcDbEntity
  8
RETURN
100
AcDb2dPolyline
 66
     1
 10
0.0
 20
0.0
 30
0.0
  0
VERTEX
  5
177
330
DC
100
AcDbEntity
  8
RETURN
100
AcDbVertex
100
AcDb2dVertex
 10
-45.1
 20
-52.5
 30
0.0
  0
VERTEX
  5
178
330
DC
100
AcDbEntity
  8
RETURN
100
AcDbVertex
100
AcDb2dVertex
 10
-45.1
 20
-47.1
 30
0.0
  0
SEQEND
  5
176
330
DC
100
AcDbEntity
  8
RETURN
  0
POLYLINE
  5
E0
330
1A
100
AcDbEntity
  8
RETURN
100
AcDb2dPolyline
 66
     1
 10
0.0
 20
0.0
 30
0.0
  0
VERTEX
  5
17A
330
E0
100
AcDbEntity
  8
RETURN
100
AcDbVertex
100
AcDb2dVertex
 10
-38.9
 20
-47.1
 30
0.0
  0
VERTEX
  5
17B
330
E0
100
AcDbEntity
  8
RETURN
100
AcDbVertex
100
AcDb2dVertex
 10
-38.9
 20
-52.5
 30
0.0
  0
VERTEX
  5
17C
330
E0
100
AcDbEntity
  8
RETURN
100
AcDbVertex
100
AcDb2dVertex
 10
-45.1
 20
-52.5
 30
0.0
  0
SEQEND
  5
179
330
E0
100
AcDbEntity
  8
RETURN
  0
LINE
  5
E5
330
1A
100
AcDbEntity
  8
RETURN
100
AcDbLine
 10
-38.9
 20
-47.1
 30
0.0
 11
-38.9
 21
-47.1
 31
0.0
  0
LINE
  5
E6
330
1A
100
AcDbEntity
  8
RETURN
100
AcDbLine
 10
-45.1
 20
-37.4
 30
0.0
 11
-45.1
 21
-37.4
 31
0.0
  0
LINE
  5
E7
330
1A
100
AcDbEntity
  8
RETURN
100
AcDbLine
 10
-45.0
 20
-37.5
 30
0.0
 11
-44.5
 21
-38.0
 31
0.0
  0
LINE
  5
E8
330
1A
100
AcDbEntity
  8
RETURN
100
AcDbLine
 10
-45.1
 20
-47.1
 30
0.0
 11
-44.5
 21
-46.5
 31
0.0
  0
LINE
  5
E9
330
1A
100
AcDbEntity
  8
RETURN
100
AcDbLine
 10
-38.9
 20
-47.1
 30
0.0
 11
-39.5
 21
-46.5
 31
0.0
  0
LINE
  5
EA
330
1A
100
AcDbEntity
  8
RETURN
100
AcDbLine
 10
-39.0
 20
-37.5
 30
0.0
 11
-39.5
 21
-38.0
 31
0.0
  0
POLYLINE
  5
EB
330
1A
100
AcDbEntity
  8
RETURN
100
AcDb2dPolyline
 66
     1
 10
0.0
 20
0.0
 30
0.0
  0
VERTEX
  5
17E
330
EB
100
AcDbEntity
  8
RETURN
100
AcDbVertex
100
AcDb2dVertex
 10
-65.90000000000001
 20
-47.1
 30
0.0
  0
VERTEX
  5
17F
330
EB
100
AcDbEntity
  8
RETURN
100
AcDbVertex
100
AcDb2dVertex
 10
-65.90000000000001
 20
-52.5
 30
0.0
  0
VERTEX
  5
180
330
EB
100
AcDbEntity
  8
RETURN
100
AcDbVertex
100
AcDb2dVertex
 10
-72.09999999999999
 20
-52.5
 30
0.0
  0
SEQEND
  5
17D
330
EB
100
AcDbEntity
  8
RETURN
  0
LINE
  5
F0
330
1A
100
AcDbEntity
  8
RETURN
100
AcDbLine
 10
-71.5
 20
-46.5
 30
0.0
 11
-71.5
 21
-38.0
 31
0.0
  0
POLYLINE
  5
F1
330
1A
100
AcDbEntity
  8
RETURN
100
AcDb2dPolyline
 66
     1
 10
0.0
 20
0.0
 30
0.0
  0
VERTEX
  5
182
330
F1
100
AcDbEntity
  8
RETURN
100
AcDbVertex
100
AcDb2dVertex
 10
-72.09999999999999
 20
-52.5
 30
0.0
  0
VERTEX
  5
183
330
F1
100
AcDbEntity
  8
RETURN
100
AcDbVertex
100
AcDb2dVertex
 10
-72.09999999999999
 20
-47.1
 30
0.0
  0
SEQEND
  5
181
330
F1
100
AcDbEntity
  8
RETURN
  0
LINE
  5
F5
330
1A
100
AcDbEntity
  8
RETURN
100
AcDbLine
 10
-72.09999999999999
 20
-47.1
 30
0.0
 11
-71.5
 21
-46.5
 31
0.0
  0
LINE
  5
F6
330
1A
100
AcDbEntity
  8
RETURN
100
AcDbLine
 10
-72.09999999999999
 20
-47.1
 30
0.0
 11
-72.09999999999999
 21
-47.1
 31
0.0
  0
LINE
  5
F7
330
1A
100
AcDbEntity
  8
RETURN
100
AcDbLine
 10
-72.0
 20
-37.5
 30
0.0
 11
-71.5
 21
-38.0
 31
0.0
  0
LINE
  5
F8
330
1A
100
AcDbEntity
  8
RETURN
100
AcDbLine
 10
-72.09999999999999
 20
-37.4
 30
0.0
 11
-72.09999999999999
 21
-37.4
 31
0.0
  0
LINE
  5
F9
330
1A
100
AcDbEntity
  8
RETURN
100
AcDbLine
 10
-66.5
 20
-46.5
 30
0.0
 11
-66.5
 21
-38.0
 31
0.0
  0
LINE
  5
FA
330
1A
100
AcDbEntity
  8
RETURN
100
AcDbLine
 10
-65.90000000000001
 20
-47.1
 30
0.0
 11
-66.5
 21
-46.5
 31
0.0
  0
LINE
  5
FB
330
1A
100
AcDbEntity
  8
RETURN
100
AcDbLine
 10
-65.90000000000001
 20
-47.1
 30
0.0
 11
-65.90000000000001
 21
-47.1
 31
0.0
  0
LINE
  5
FC
330
1A
100
AcDbEntity
  8
RETURN
100
AcDbLine
 10
-66.0
 20
-37.5
 30
0.0
 11
-66.5
 21
-38.0
 31
0.0
  0
LINE
  5
FD
330
1A
100
AcDbEntity
  8
RETURN
100
AcDbLine
 10
-65.90000000000001
 20
-37.4
 30
0.0
 11
-65.90000000000001
 21
-37.4
 31
0.0
  0
POLYLINE
  5
FE
330
1A
100
AcDbEntity
  8
RETURN
100
AcDb2dPolyline
 66
     1
 10
0.0
 20
0.0
 30
0.0
  0
VERTEX
  5
185
330
FE
100
AcDbEntity
  8
RETURN
100
AcDbVertex
100
AcDb2dVertex
 10
-87.09999999999999
 20
-47.1
 30
0.0
  0
VERTEX
  5
186
330
FE
100
AcDbEntity
  8
RETURN
100
AcDbVertex
100
AcDb2dVertex
 10
-87.09999999999999
 20
-52.5
 30
0.0
  0
VERTEX
  5
187
330
FE
100
AcDbEntity
  8
RETURN
100
AcDbVertex
100
AcDb2dVertex
 10
-80.90000000000001
 20
-52.5
 30
0.0
  0
SEQEND
  5
184
330
FE
100
AcDbEntity
  8
RETURN
  0
LINE
  5
103
330
1A
100
AcDbEntity
  8
RETURN
100
AcDbLine
 10
-81.5
 20
-46.5
 30
0.0
 11
-81.5
 21
-38.0
 31
0.0
  0
POLYLINE
  5
104
330
1A
100
AcDbEntity
  8
RETURN
100
AcDb2dPolyline
 66
     1
 10
0.0
 20
0.0
 30
0.0
  0
VERTEX
  5
189
330
104
100
AcDbEntity
  8
RETURN
100
AcDbVertex
100
AcDb2dVertex
 10
-80.90000000000001
 20
-52.5
 30
0.0
  0
VERTEX
  5
18A
330
104
100
AcDbEntity
  8
RETURN
100
AcDbVertex
100
AcDb2dVertex
 10
-80.90000000000001
 20
-47.1
 30
0.0
  0
SEQEND
  5
188
330
104
100
AcDbEntity
  8
RETURN
  0
LINE
  5
108
330
1A
100
AcDbEntity
  8
RETURN
100
AcDbLine
 10
-80.90000000000001
 20
-47.1
 30
0.0
 11
-80.90000000000001
 21
-47.1
 31
0.0
  0
LINE
  5
109
330
1A
100
AcDbEntity
  8
RETURN
100
AcDbLine
 10
-80.90000000000001
 20
-47.1
 30
0.0
 11
-81.5
 21
-46.5
 31
0.0
  0
LINE
  5
10A
330
1A
100
AcDbEntity
  8
RETURN
100
AcDbLine
 10
-80.90000000000001
 20
-37.4
 30
0.0
 11
-80.90000000000001
 21
-37.4
 31
0.0
  0
LINE
  5
10B
330
1A
100
AcDbEntity
  8
RETURN
100
AcDbLine
 10
-81.0
 20
-37.5
 30
0.0
 11
-81.5
 21
-38.0
 31
0.0
  0
LINE
  5
10C
330
1A
100
AcDbEntity
  8
RETURN
100
AcDbLine
 10
-86.5
 20
-46.5
 30
0.0
 11
-86.5
 21
-38.0
 31
0.0
  0
LINE
  5
10D
330
1A
100
AcDbEntity
  8
RETURN
100
AcDbLine
 10
-87.09999999999999
 20
-47.1
 30
0.0
 11
-87.09999999999999
 21
-47.1
 31
0.0
  0
LINE
  5
10E
330
1A
100
AcDbEntity
  8
RETURN
100
AcDbLine
 10
-87.09999999999999
 20
-47.1
 30
0.0
 11
-86.5
 21
-46.5
 31
0.0
  0
LINE
  5
10F
330
1A
100
AcDbEntity
  8
RETURN
100
AcDbLine
 10
-87.09999999999999
 20
-37.4
 30
0.0
 11
-87.09999999999999
 21
-37.4
 31
0.0
  0
LINE
  5
110
330
1A
100
AcDbEntity
  8
RETURN
100
AcDbLine
 10
-87.0
 20
-37.5
 30
0.0
 11
-86.5
 21
-38.0
 31
0.0
  0
POLYLINE
  5
111
330
1A
100
AcDbEntity
  8
RETURN
100
AcDb2dPolyline
 66
     1
 10
0.0
 20
0.0
 30
0.0
  0
VERTEX
  5
18C
330
111
100
AcDbEntity
  8
RETURN
100
AcDbVertex
100
AcDb2dVertex
 10
-114.1
 20
-47.1
 30
0.0
  0
VERTEX
  5
18D
330
111
100
AcDbEntity
  8
RETURN
100
AcDbVertex
100
AcDb2dVertex
 10
-114.1
 20
-52.5
 30
0.0
  0
VERTEX
  5
18E
330
111
100
AcDbEntity
  8
RETURN
100
AcDbVertex
100
AcDb2dVertex
 10
-107.9
 20
-52.5
 30
0.0
  0
SEQEND
  5
18B
330
111
100
AcDbEntity
  8
RETURN
  0
LINE
  5
116
330
1A
100
AcDbEntity
  8
RETURN
100
AcDbLine
 10
-108.5
 20
-46.5
 30
0.0
 11
-108.5
 21
-38.0
 31
0.0
  0
POLYLINE
  5
117
330
1A
100
AcDbEntity
  8
RETURN
100
AcDb2dPolyline
 66
     1
 10
0.0
 20
0.0
 30
0.0
  0
VERTEX
  5
190
330
117
100
AcDbEntity
  8
RETURN
100
AcDbVertex
100
AcDb2dVertex
 10
-107.9
 20
-52.5
 30
0.0
  0
VERTEX
  5
191
330
117
100
AcDbEntity
  8
RETURN
100
AcDbVertex
100
AcDb2dVertex
 10
-107.9
 20
-47.1
 30
0.0
  0
SEQEND
  5
18F
330
117
100
AcDbEntity
  8
RETURN
  0
LINE
  5
11B
330
1A
100
AcDbEntity
  8
RETURN
100
AcDbLine
 10
-107.9
 20
-47.1
 30
0.0
 11
-108.5
 21
-46.5
 31
0.0
  0
LINE
  5
11C
330
1A
100
AcDbEntity
  8
RETURN
100
AcDbLine
 10
-107.9
 20
-47.1
 30
0.0
 11
-107.9
 21
-47.1
 31
0.0
  0
LINE
  5
11D
330
1A
100
AcDbEntity
  8
RETURN
100
AcDbLine
 10
-108.0
 20
-37.5
 30
0.0
 11
-108.5
 21
-38.0
 31
0.0
  0
LINE
  5
11E
330
1A
100
AcDbEntity
  8
RETURN
100
AcDbLine
 10
-107.9
 20
-37.4
 30
0.0
 11
-107.9
 21
-37.4
 31
0.0
  0
LINE
  5
11F
330
1A
100
AcDbEntity
  8
RETURN
100
AcDbLine
 10
-113.5
 20
-46.5
 30
0.0
 11
-113.5
 21
-38.0
 31
0.0
  0
LINE
  5
120
330
1A
100
AcDbEntity
  8
RETURN
100
AcDbLine
 10
-114.1
 20
-47.1
 30
0.0
 11
-113.5
 21
-46.5
 31
0.0
  0
LINE
  5
121
330
1A
100
AcDbEntity
  8
RETURN
100
AcDbLine
 10
-114.1
 20
-47.1
 30
0.0
 11
-114.1
 21
-47.1
 31
0.0
  0
LINE
  5
122
330
1A
100
AcDbEntity
  8
RETURN
100
AcDbLine
 10
-114.0
 20
-37.5
 30
0.0
 11
-113.5
 21
-38.0
 31
0.0
  0
LINE
  5
123
330
1A
100
AcDbEntity
  8
RETURN
100
AcDbLine
 10
-114.1
 20
-37.4
 30
0.0
 11
-114.1
 21
-37.4
 31
0.0
  0
ARC
  5
124
330
1A
100
AcDbEntity
  8
RETURN
100
AcDbCircle
 10
6.769479
 20
-40.5
 30
0.0
 40
3.0
100
AcDbArc
 50
0.0
 51
90.0
  0
ARC
  5
125
330
1A
100
AcDbEntity
  8
RETURN
100
AcDbCircle
 10
-13.230521
 20
-40.5
 30
0.0
 40
3.0
100
AcDbArc
 50
90.0
 51
180.0
  0
LINE
  5
126
330
1A
100
AcDbEntity
  8
RETURN
100
AcDbLine
 10
9.769479000000001
 20
-40.5
 30
0.0
 11
9.769479000000001
 21
-75.5
 31
0.0
  0
LINE
  5
127
330
1A
100
AcDbEntity
  8
RETURN
100
AcDbLine
 10
-13.230521
 20
-37.5
 30
0.0
 11
6.769479
 21
-37.5
 31
0.0
  0
LINE
  5
128
330
1A
100
AcDbEntity
  8
RETURN
100
AcDbLine
 10
-16.230521
 20
-40.5
 30
0.0
 11
-16.230521
 21
-75.5
 31
0.0
  0
LINE
  5
129
330
1A
100
AcDbEntity
  8
RETURN
100
AcDbLine
 10
-16.230521
 20
-75.5
 30
0.0
 11
-13.230521
 21
-75.5
 31
0.0
  0
ARC
  5
12A
330
1A
100
AcDbEntity
  8
RETURN
100
AcDbCircle
 10
-3.230521
 20
-60.0
 30
0.0
 40
7.5
100
AcDbArc
 50
323.098626
 51
216.901374
  0
LINE
  5
12B
330
1A
100
AcDbEntity
  8
RETURN
100
AcDbLine
 10
-9.228047999999999
 20
-64.50329600000001
 30
0.0
 11
-13.230521
 21
-75.5
 31
0.0
  0
LINE
  5
12C
330
1A
100
AcDbEntity
  8
RETURN
100
AcDbLine
 10
2.767006
 20
-64.50329600000001
 30
0.0
 11
6.769479
 21
-75.5
 31
0.0
  0
LINE
  5
12D
330
1A
100
AcDbEntity
  8
RETURN
100
AcDbLine
 10
6.769479
 20
-75.5
 30
0.0
 11
9.769479000000001
 21
-75.5
 31
0.0
  0
CIRCLE
  5
12E
330
1A
100
AcDbEntity
  8
RETURN
100
AcDbCircle
 10
-3.230521
 20
-42.3
 30
0.0
 40
1.5
  0
ENDSEC
  0
SECTION
  2
OBJECTS
  0
DICTIONARY
  5
C
330
0
100
AcDbDictionary
  3
ACAD_GROUP
350
D
  3
ACAD_LAYOUT
350
130
  3
ACAD_MLINESTYLE
350
E
1001
ACAD
1000
TREAT_AS_HARD
1070
     0
  0
DICTIONARY
  5
192
330
12F
100
AcDbDictionary
  3
ACAD_XREC_ROUNDTRIP
360
193
  0
DICTIONARY
  5
D
102
{ACAD_REACTORS
330
C
102
}
330
C
100
AcDbDictionary
1001
ACAD
1000
TREAT_AS_HARD
1070
     0
  0
DICTIONARY
  5
130
102
{ACAD_REACTORS
330
C
102
}
330
C
100
AcDbDictionary
1001
ACAD
1000
TREAT_AS_HARD
1070
     0
  0
DICTIONARY
  5
E
102
{ACAD_REACTORS
330
C
102
}
330
C
100
AcDbDictionary
  3
STANDARD
350
13
1001
ACAD
1000
TREAT_AS_HARD
1070
     0
  0
XRECORD
  5
193
102
{ACAD_REACTORS
330
192
102
}
330
192
100
AcDbXrecord
102
UCS
 74
     0
 71
     1
 10
0.0
 20
0.0
 30
0.0
 10
1.0
 20
0.0
 30
0.0
 10
0.0
 20
1.0
 30
0.0
146
0.0
 79
     0
102
VIEW
281
     0
  0
MLINESTYLE
  5
13
102
{ACAD_REACTORS
330
E
102
}
330
E
100
AcDbMlineStyle
  2
STANDARD
 70
     0
  3

 62
     0
 51
90.0
 52
90.0
 71
     2
 49
0.5
 62
   256
  6
BYLAYER
 49
-0.5
 62
   256
  6
BYLAYER
  0
ENDSEC
  0
EOF
