  0
SECTION
  2
HEADER
  9
$ACADVER
  1
AC1012
  9
$DWGCODEPAGE
  3
ansi_1252
  9
$INSBASE
 10
0.0
 20
0.0
 30
0.0
  9
$EXTMIN
 10
-95.0
 20
-120.24568
 30
0.0
  9
$EXTMAX
 10
313.769158
 20
115.703842
 30
0.0
  9
$LIMMIN
 10
0.0
 20
0.0
  9
$LIMMAX
 10
12.0
 20
9.0
  9
$ORTHOMODE
 70
     1
  9
$REGENMODE
 70
     1
  9
$FILLMODE
 70
     1
  9
$QTEXTMODE
 70
     0
  9
$MIRRTEXT
 70
     1
  9
$DRAGMODE
 70
     2
  9
$LTSCALE
 40
1.0
  9
$OSMODE
 70
    37
  9
$ATTMODE
 70
     1
  9
$TEXTSIZE
 40
0.2
  9
$TRACEWID
 40
0.05
  9
$TEXTSTYLE
  7
STANDARD
  9
$CLAYER
  8
0
  9
$CELTYPE
  6
BYLAYER
  9
$CECOLOR
 62
   256
  9
$CELTSCALE
 40
1.0
  9
$DELOBJ
 70
     1
  9
$DISPSILH
 70
     0
  9
$DIMSCALE
 40
1.0
  9
$DIMASZ
 40
0.18
  9
$DIMEXO
 40
0.0625
  9
$DIMDLI
 40
0.38
  9
$DIMRND
 40
0.0
  9
$DIMDLE
 40
0.0
  9
$DIMEXE
 40
0.18
  9
$DIMTP
 40
0.0
  9
$DIMTM
 40
0.0
  9
$DIMTXT
 40
0.18
  9
$DIMCEN
 40
0.09
  9
$DIMTSZ
 40
0.0
  9
$DIMTOL
 70
     0
  9
$DIMLIM
 70
     0
  9
$DIMTIH
 70
     1
  9
$DIMTOH
 70
     1
  9
$DIMSE1
 70
     0
  9
$DIMSE2
 70
     0
  9
$DIMTAD
 70
     0
  9
$DIMZIN
 70
     0
  9
$DIMBLK
  1

  9
$DIMASO
 70
     1
  9
$DIMSHO
 70
     1
  9
$DIMPOST
  1

  9
$DIMAPOST
  1

  9
$DIMALT
 70
     0
  9
$DIMALTD
 70
     2
  9
$DIMALTF
 40
25.4
  9
$DIMLFAC
 40
1.0
  9
$DIMTOFL
 70
     0
  9
$DIMTVP
 40
0.0
  9
$DIMTIX
 70
     0
  9
$DIMSOXD
 70
     0
  9
$DIMSAH
 70
     0
  9
$DIMBLK1
  1

  9
$DIMBLK2
  1

  9
$DIMSTYLE
  2
STANDARD
  9
$DIMCLRD
 70
     0
  9
$DIMCLRE
 70
     0
  9
$DIMCLRT
 70
     0
  9
$DIMTFAC
 40
1.0
  9
$DIMGAP
 40
0.09
  9
$DIMJUST
 70
     0
  9
$DIMSD1
 70
     0
  9
$DIMSD2
 70
     0
  9
$DIMTOLJ
 70
     1
  9
$DIMTZIN
 70
     0
  9
$DIMALTZ
 70
     0
  9
$DIMALTTZ
 70
     0
  9
$DIMFIT
 70
     3
  9
$DIMUPT
 70
     0
  9
$DIMUNIT
 70
     2
  9
$DIMDEC
 70
     4
  9
$DIMTDEC
 70
     4
  9
$DIMALTU
 70
     2
  9
$DIMALTTD
 70
     2
  9
$DIMTXSTY
  7
STANDARD
  9
$DIMAUNIT
 70
     0
  9
$LUNITS
 70
     2
  9
$LUPREC
 70
     4
  9
$SKETCHINC
 40
0.1
  9
$FILLETRAD
 40
0.0
  9
$AUNITS
 70
     0
  9
$AUPREC
 70
     0
  9
$MENU
  1
acad
  9
$ELEVATION
 40
0.0
  9
$PELEVATION
 40
0.0
  9
$THICKNESS
 40
0.0
  9
$LIMCHECK
 70
     0
  9
$CHAMFERA
 40
0.0
  9
$CHAMFERB
 40
0.0
  9
$CHAMFERC
 40
0.0
  9
$CHAMFERD
 40
0.0
  9
$SKPOLY
 70
     0
  9
$TDCREATE
 40
2447893.083333334
  9
$TDUPDATE
 40
2447893.083333334
  9
$TDINDWG
 40
0.0033465278
  9
$TDUSRTIMER
 40
0.0033465278
  9
$USRTIMER
 70
     1
  9
$ANGBASE
 50
0.0
  9
$ANGDIR
 70
     0
  9
$PDMODE
 70
     0
  9
$PDSIZE
 40
0.0
  9
$PLINEWID
 40
0.0
  9
$COORDS
 70
     1
  9
$SPLFRAME
 70
     0
  9
$SPLINETYPE
 70
     6
  9
$SPLINESEGS
 70
     8
  9
$ATTDIA
 70
     0
  9
$ATTREQ
 70
     1
  9
$HANDLING
 70
     1
  9
$HANDSEED
  5
163
  9
$SURFTAB1
 70
     6
  9
$SURFTAB2
 70
     6
  9
$SURFTYPE
 70
     6
  9
$SURFU
 70
     6
  9
$SURFV
 70
     6
  9
$UCSNAME
  2

  9
$UCSORG
 10
0.0
 20
0.0
 30
0.0
  9
$UCSXDIR
 10
1.0
 20
0.0
 30
0.0
  9
$UCSYDIR
 10
0.0
 20
1.0
 30
0.0
  9
$PUCSNAME
  2

  9
$PUCSORG
 10
0.0
 20
0.0
 30
0.0
  9
$PUCSXDIR
 10
1.0
 20
0.0
 30
0.0
  9
$PUCSYDIR
 10
0.0
 20
1.0
 30
0.0
  9
$USERI1
 70
     0
  9
$USERI2
 70
     0
  9
$USERI3
 70
     0
  9
$USERI4
 70
     0
  9
$USERI5
 70
     0
  9
$USERR1
 40
0.0
  9
$USERR2
 40
0.0
  9
$USERR3
 40
0.0
  9
$USERR4
 40
0.0
  9
$USERR5
 40
0.0
  9
$WORLDVIEW
 70
     1
  9
$SHADEDGE
 70
     3
  9
$SHADEDIF
 70
    70
  9
$TILEMODE
 70
     1
  9
$MAXACTVP
 70
    16
  9
$PINSBASE
 10
0.0
 20
0.0
 30
0.0
  9
$PLIMCHECK
 70
     0
  9
$PEXTMIN
 10
1.000000000000000E+20
 20
1.000000000000000E+20
 30
1.000000000000000E+20
  9
$PEXTMAX
 10
-1.000000000000000E+20
 20
-1.000000000000000E+20
 30
-1.000000000000000E+20
  9
$PLIMMIN
 10
0.0
 20
0.0
  9
$PLIMMAX
 10
12.0
 20
9.0
  9
$UNITMODE
 70
     0
  9
$VISRETAIN
 70
     0
  9
$PLINEGEN
 70
     0
  9
$PSLTSCALE
 70
     1
  9
$TREEDEPTH
 70
  3020
  9
$PICKSTYLE
 70
     1
  9
$CMLSTYLE
  2
STANDARD
  9
$CMLJUST
 70
     0
  9
$CMLSCALE
 40
1.0
  9
$SAVEIMAGES
 70
     1
  0
ENDSEC
  0
SECTION
  2
CLASSES
  0
CLASS
  1
XRECORD
  2
AcDbXrecord
  3
AutoCAD 2000
 90
    32768
280
     0
281
     0
  0
CLASS
  1
LWPOLYLINE
  2
AcDbPolyline
  3
AutoCAD 2000
 90
    32768
280
     0
281
     1
  0
CLASS
  1
HATCH
  2
AcDbHatch
  3
AutoCAD 2000
 90
    32768
280
     0
281
     1
  0
CLASS
  1
ACDBPLACEHOLDER
  2
AcDbPlaceHolder
  3
ObjectDBX Classes
 90
        0
280
     0
281
     0
  0
CLASS
  1
LAYOUT
  2
AcDbLayout
  3
ObjectDBX Classes
 90
        0
280
     0
281
     0
  0
ENDSEC
  0
SECTION
  2
TABLES
  0
TABLE
  2
VPORT
  5
8
330
0
100
AcDbSymbolTable
 70
     1
  0
VPORT
  5
10E
102
{ACAD_XDICTIONARY
360
161
102
}
330
8
100
AcDbSymbolTableRecord
100
AcDbViewportTableRecord
  2
*ACTIVE
 70
     0
 10
0.0
 20
0.0
 11
1.0
 21
1.0
 12
130.963469
 22
-2.270919
 13
0.0
 23
0.0
 14
1.0
 24
1.0
 15
0.0
 25
0.0
 16
0.0
 26
0.0
 36
1.0
 17
0.0
 27
0.0
 37
0.0
 40
235.949522
 41
1.915354
 42
50.0
 43
0.0
 44
0.0
 50
0.0
 51
0.0
 71
     0
 72
   100
 73
     1
 74
     1
 75
     0
 76
     0
 77
     0
 78
     0
  0
ENDTAB
  0
TABLE
  2
LTYPE
  5
5
330
0
100
AcDbSymbolTable
 70
     3
  0
LTYPE
  5
14
330
5
100
AcDbSymbolTableRecord
100
AcDbLinetypeTableRecord
  2
BYBLOCK
 70
     0
  3

 72
    65
 73
     0
 40
0.0
  0
LTYPE
  5
15
330
5
100
AcDbSymbolTableRecord
100
AcDbLinetypeTableRecord
  2
BYLAYER
 70
     0
  3

 72
    65
 73
     0
 40
0.0
  0
LTYPE
  5
16
330
5
100
AcDbSymbolTableRecord
100
AcDbLinetypeTableRecord
  2
CONTINUOUS
 70
     0
  3
Solid line
 72
    65
 73
     0
 40
0.0
  0
LTYPE
  5
28
330
5
100
AcDbSymbolTableRecord
100
AcDbLinetypeTableRecord
  2
HIDDEN
 70
     0
  3
__ __ __ __ __ __ __ __ __ __ __ __ __ __ __ __
 72
    65
 73
     2
 40
0.375
 49
0.25
 74
     0
 49
-0.125
 74
     0
  0
LTYPE
  5
4B
330
5
100
AcDbSymbolTableRecord
100
AcDbLinetypeTableRecord
  2
DASHDOT
 70
     0
  3
__ . __ . __ . __ . __ . __ . __ . __ . __ . __
 72
    65
 73
     4
 40
1.0
 49
0.5
 74
     0
 49
-0.25
 74
     0
 49
0.0
 74
     0
 49
-0.25
 74
     0
  0
ENDTAB
  0
TABLE
  2
LAYER
  5
2
330
0
100
AcDbSymbolTable
 70
     3
  0
LAYER
  5
F
330
2
100
AcDbSymbolTableRecord
100
AcDbLayerTableRecord
  2
0
 70
     0
 62
     7
  6
CONTINUOUS
  0
LAYER
  5
29
330
2
100
AcDbSymbolTableRecord
100
AcDbLayerTableRecord
  2
VARIOUS
 70
     0
 62
     2
  6
CONTINUOUS
  0
LAYER
  5
4C
330
2
100
AcDbSymbolTableRecord
100
AcDbLayerTableRecord
  2
AXIS
 70
     0
 62
     1
  6
DASHDOT
  0
ENDTAB
  0
TABLE
  2
STYLE
  5
3
330
0
100
AcDbSymbolTable
 70
     1
  0
STYLE
  5
10
330
3
100
AcDbSymbolTableRecord
100
AcDbTextStyleTableRecord
  2
STANDARD
 70
     0
 40
0.0
 41
1.0
 50
0.0
 71
     0
 42
0.2
  3
txt
  4

  0
ENDTAB
  0
TABLE
  2
VIEW
  5
6
330
0
100
AcDbSymbolTable
 70
     0
  0
ENDTAB
  0
TABLE
  2
UCS
  5
7
330
0
100
AcDbSymbolTable
 70
     0
  0
ENDTAB
  0
TABLE
  2
APPID
  5
9
330
0
100
AcDbSymbolTable
 70
     1
  0
APPID
  5
11
330
9
100
AcDbSymbolTableRecord
100
AcDbRegAppTableRecord
  2
ACAD
 70
     0
  0
ENDTAB
  0
TABLE
  2
DIMSTYLE
  5
A
330
0
100
AcDbSymbolTable
 70
     1
  0
DIMSTYLE
105
1D
330
A
100
AcDbSymbolTableRecord
100
AcDbDimStyleTableRecord
  2
STANDARD
 70
     0
  3

  4

  5

  6

  7

 40
1.0
 41
0.18
 42
0.0625
 43
0.38
 44
0.18
 45
0.0
 46
0.0
 47
0.0
 48
0.0
140
0.18
141
0.09
142
0.0
143
25.4
144
1.0
145
0.0
146
1.0
147
0.09
 71
     0
 72
     0
 73
     1
 74
     1
 75
     0
 76
     0
 77
     0
 78
     0
170
     0
171
     2
172
     0
173
     0
174
     0
175
     0
176
     0
177
     0
178
     0
270
     2
271
     4
272
     4
273
     2
274
     2
340
10
275
     0
280
     0
281
     0
282
     0
283
     1
284
     0
285
     0
286
     0
287
     3
288
     0
  0
ENDTAB
  0
TABLE
  2
BLOCK_RECORD
  5
1
330
0
100
AcDbSymbolTable
 70
     0
  0
BLOCK_RECORD
  5
1A
330
1
100
AcDbSymbolTableRecord
100
AcDbBlockTableRecord
  2
*MODEL_SPACE
  0
BLOCK_RECORD
  5
17
330
1
100
AcDbSymbolTableRecord
100
AcDbBlockTableRecord
  2
*PAPER_SPACE
  0
ENDTAB
  0
ENDSEC
  0
SECTION
  2
BLOCKS
  0
BLOCK
  5
1B
330
1A
100
AcDbEntity
  8
0
100
AcDbBlockBegin
  2
*MODEL_SPACE
 70
     0
 71
     0
 10
0.0
 20
0.0
 30
0.0
  3
*MODEL_SPACE
  1

  0
ENDBLK
  5
1C
330
1A
100
AcDbEntity
  8
0
100
AcDbBlockEnd
  0
BLOCK
  5
18
330
17
100
AcDbEntity
 67
     1
  8
0
100
AcDbBlockBegin
  2
*PAPER_SPACE
 70
     0
 71
     0
 10
0.0
 20
0.0
 30
0.0
  3
*PAPER_SPACE
  1

  0
ENDBLK
  5
19
330
17
100
AcDbEntity
 67
     1
  8
0
100
AcDbBlockEnd
  0
ENDSEC
  0
SECTION
  2
ENTITIES
  0
LINE
  5
A6
330
1A
100
AcDbEntity
  8
VARIOUS
100
AcDbLine
 10
-19.8
 20
-89.75859199999999
 30
0.0
 11
-19.8
 21
-93.758591
 31
0.0
  0
LINE
  5
A7
330
1A
100
AcDbEntity
  8
VARIOUS
100
AcDbLine
 10
195.20959
 20
-87.25859199999999
 30
0.0
 11
195.20959
 21
-117.258592
 31
0.0
  0
LINE
  5
A8
330
1A
100
AcDbEntity
  8
VARIOUS
100
AcDbLine
 10
-12.0
 20
-117.258592
 30
0.0
 11
195.20959
 21
-117.258592
 31
0.0
  0
LINE
  5
A9
330
1A
100
AcDbEntity
  8
VARIOUS
100
AcDbLine
 10
-12.0
 20
-87.25859199999999
 30
0.0
 11
195.20959
 21
-87.25859199999999
 31
0.0
  0
LINE
  5
AA
330
1A
100
AcDbEntity
  8
VARIOUS
100
AcDbLine
 10
-12.0
 20
-117.258592
 30
0.0
 11
-12.0
 21
-114.758592
 31
0.0
  0
LINE
  5
AB
330
1A
100
AcDbEntity
  8
VARIOUS
100
AcDbLine
 10
-19.8
 20
-89.75859199999999
 30
0.0
 11
23.8
 21
-89.75859199999999
 31
0.0
  0
LINE
  5
AC
330
1A
100
AcDbEntity
  8
VARIOUS
100
AcDbLine
 10
-19.8
 20
-114.758592
 30
0.0
 11
23.8
 21
-114.758592
 31
0.0
  0
ARC
  5
AD
330
1A
100
AcDbEntity
  8
VARIOUS
100
AcDbCircle
 10
-18.139781
 20
-102.258592
 30
0.0
 40
8.660621000000001
100
AcDbArc
 50
101.051864
 51
258.948136
  0
LINE
  5
AE
330
1A
100
AcDbEntity
  8
VARIOUS
100
AcDbLine
 10
-19.8
 20
-110.758594
 30
0.0
 11
-19.8
 21
-114.758592
 31
0.0
  0
ARC
  5
AF
330
1A
100
AcDbEntity
  8
VARIOUS
100
AcDbCircle
 10
-18.075538
 20
-102.258592
 30
0.0
 40
6.724864
100
AcDbArc
 50
104.858381
 51
255.141619
  0
LINE
  5
B0
330
1A
100
AcDbEntity
  8
VARIOUS
100
AcDbLine
 10
-17.8
 20
-108.758594
 30
0.0
 11
-17.8
 21
-112.758592
 31
0.0
  0
LINE
  5
B1
330
1A
100
AcDbEntity
  8
VARIOUS
100
AcDbLine
 10
-17.8
 20
-112.758592
 30
0.0
 11
21.8
 21
-112.758592
 31
0.0
  0
LINE
  5
B2
330
1A
100
AcDbEntity
  8
VARIOUS
100
AcDbLine
 10
-17.8
 20
-91.75859199999999
 30
0.0
 11
21.8
 21
-91.75859199999999
 31
0.0
  0
LINE
  5
B3
330
1A
100
AcDbEntity
  8
VARIOUS
100
AcDbLine
 10
-17.8
 20
-91.75859199999999
 30
0.0
 11
-17.8
 21
-95.758591
 31
0.0
  0
LINE
  5
B4
330
1A
100
AcDbEntity
  8
VARIOUS
100
AcDbLine
 10
-19.8
 20
-95.758591
 30
0.0
 11
-17.8
 21
-95.758591
 31
0.0
  0
LINE
  5
B5
330
1A
100
AcDbEntity
  8
VARIOUS
100
AcDbLine
 10
-19.8
 20
-108.758594
 30
0.0
 11
-17.8
 21
-108.758594
 31
0.0
  0
LINE
  5
B6
330
1A
100
AcDbEntity
  8
VARIOUS
100
AcDbLine
 10
23.8
 20
-89.75859199999999
 30
0.0
 11
23.8
 21
-93.758591
 31
0.0
  0
LINE
  5
B7
330
1A
100
AcDbEntity
  8
VARIOUS
100
AcDbLine
 10
21.8
 20
-108.758594
 30
0.0
 11
21.8
 21
-112.758592
 31
0.0
  0
LINE
  5
B8
330
1A
100
AcDbEntity
  8
VARIOUS
100
AcDbLine
 10
23.8
 20
-110.758594
 30
0.0
 11
23.8
 21
-114.758592
 31
0.0
  0
ARC
  5
B9
330
1A
100
AcDbEntity
  8
VARIOUS
100
AcDbCircle
 10
22.075538
 20
-102.258592
 30
0.0
 40
6.724864
100
AcDbArc
 50
284.858381
 51
75.14161900000001
  0
ARC
  5
BA
330
1A
100
AcDbEntity
  8
VARIOUS
100
AcDbCircle
 10
22.139781
 20
-102.258592
 30
0.0
 40
8.660621000000001
100
AcDbArc
 50
281.051864
 51
78.94813600000001
  0
LINE
  5
BB
330
1A
100
AcDbEntity
  8
VARIOUS
100
AcDbLine
 10
23.8
 20
-108.758594
 30
0.0
 11
21.8
 21
-108.758594
 31
0.0
  0
LINE
  5
BC
330
1A
100
AcDbEntity
  8
VARIOUS
100
AcDbLine
 10
21.8
 20
-91.75859199999999
 30
0.0
 11
21.8
 21
-95.758591
 31
0.0
  0
LINE
  5
BD
330
1A
100
AcDbEntity
  8
VARIOUS
100
AcDbLine
 10
23.8
 20
-95.758591
 30
0.0
 11
21.8
 21
-95.758591
 31
0.0
  0
LINE
  5
BE
330
1A
100
AcDbEntity
  8
VARIOUS
100
AcDbLine
 10
-12.0
 20
-89.75859199999999
 30
0.0
 11
-12.0
 21
-87.25859199999999
 31
0.0
  0
LINE
  5
BF
330
1A
100
AcDbEntity
  8
AXIS
 48
10.0
100
AcDbLine
 10
2.0
 20
-84.606661
 30
0.0
 11
2.0
 21
-120.24568
 31
0.0
  0
POLYLINE
  5
C0
330
1A
100
AcDbEntity
  8
VARIOUS
100
AcDb2dPolyline
 66
     1
 10
0.0
 20
0.0
 30
0.0
 70
     1
  0
VERTEX
  5
14E
330
C0
100
AcDbEntity
  8
VARIOUS
100
AcDbVertex
100
AcDb2dVertex
 10
-17.8
 20
-112.758592
 30
0.0
  0
VERTEX
  5
14F
330
C0
100
AcDbEntity
  8
VARIOUS
100
AcDbVertex
100
AcDb2dVertex
 10
-17.8
 20
-91.75859199999999
 30
0.0
  0
VERTEX
  5
150
330
C0
100
AcDbEntity
  8
VARIOUS
100
AcDbVertex
100
AcDb2dVertex
 10
21.8
 20
-91.75859199999999
 30
0.0
  0
VERTEX
  5
151
330
C0
100
AcDbEntity
  8
VARIOUS
100
AcDbVertex
100
AcDb2dVertex
 10
21.8
 20
-112.758592
 30
0.0
  0
SEQEND
  5
14D
330
C0
100
AcDbEntity
  8
VARIOUS
  0
POLYLINE
  5
C6
330
1A
100
AcDbEntity
  8
VARIOUS
100
AcDb2dPolyline
 66
     1
 10
0.0
 20
0.0
 30
0.0
 70
     1
  0
VERTEX
  5
153
330
C6
100
AcDbEntity
  8
VARIOUS
100
AcDbVertex
100
AcDb2dVertex
 10
-15.3
 20
-110.258592
 30
0.0
  0
VERTEX
  5
154
330
C6
100
AcDbEntity
  8
VARIOUS
100
AcDbVertex
100
AcDb2dVertex
 10
-15.3
 20
-94.25859199999999
 30
0.0
  0
VERTEX
  5
155
330
C6
100
AcDbEntity
  8
VARIOUS
100
AcDbVertex
100
AcDb2dVertex
 10
19.3
 20
-94.25859199999999
 30
0.0
  0
VERTEX
  5
156
330
C6
100
AcDbEntity
  8
VARIOUS
100
AcDbVertex
100
AcDb2dVertex
 10
19.3
 20
-110.258592
 30
0.0
  0
SEQEND
  5
152
330
C6
100
AcDbEntity
  8
VARIOUS
  0
POLYLINE
  5
CC
330
1A
100
AcDbEntity
  8
VARIOUS
100
AcDb2dPolyline
 66
     1
 10
0.0
 20
0.0
 30
0.0
 70
     1
  0
VERTEX
  5
158
330
CC
100
AcDbEntity
  8
VARIOUS
100
AcDbVertex
100
AcDb2dVertex
 10
-10.0
 20
-89.75859199999999
 30
0.0
  0
VERTEX
  5
159
330
CC
100
AcDbEntity
  8
VARIOUS
100
AcDbVertex
100
AcDb2dVertex
 10
-10.0
 20
-87.25859199999999
 30
0.0
  0
VERTEX
  5
15A
330
CC
100
AcDbEntity
  8
VARIOUS
100
AcDbVertex
100
AcDb2dVertex
 10
14.0
 20
-87.25859199999999
 30
0.0
  0
VERTEX
  5
15B
330
CC
100
AcDbEntity
  8
VARIOUS
100
AcDbVertex
100
AcDb2dVertex
 10
14.0
 20
-89.75859199999999
 30
0.0
  0
SEQEND
  5
157
330
CC
100
AcDbEntity
  8
VARIOUS
  0
POLYLINE
  5
D2
330
1A
100
AcDbEntity
  8
VARIOUS
100
AcDb2dPolyline
 66
     1
 10
0.0
 20
0.0
 30
0.0
 70
     1
  0
VERTEX
  5
15D
330
D2
100
AcDbEntity
  8
VARIOUS
100
AcDbVertex
100
AcDb2dVertex
 10
-10.0
 20
-114.758592
 30
0.0
  0
VERTEX
  5
15E
330
D2
100
AcDbEntity
  8
VARIOUS
100
AcDbVertex
100
AcDb2dVertex
 10
-10.0
 20
-117.258592
 30
0.0
  0
VERTEX
  5
15F
330
D2
100
AcDbEntity
  8
VARIOUS
100
AcDbVertex
100
AcDb2dVertex
 10
14.0
 20
-117.258592
 30
0.0
  0
VERTEX
  5
160
330
D2
100
AcDbEntity
  8
VARIOUS
100
AcDbVertex
100
AcDb2dVertex
 10
14.0
 20
-114.758592
 30
0.0
  0
SEQEND
  5
15C
330
D2
100
AcDbEntity
  8
VARIOUS
  0
LINE
  5
D8
330
1A
100
AcDbEntity
  8
VARIOUS
100
AcDbLine
 10
-26.70972
 20
-101.008592
 30
0.0
 11
-95.0
 21
-101.008592
 31
0.0
  0
LINE
  5
D9
330
1A
100
AcDbEntity
  8
VARIOUS
100
AcDbLine
 10
-26.70972
 20
-103.508592
 30
0.0
 11
-95.0
 21
-103.508592
 31
0.0
  0
LINE
  5
DA
330
1A
100
AcDbEntity
  8
VARIOUS
100
AcDbLine
 10
30.70972
 20
-103.508592
 30
0.0
 11
192.70959
 21
-103.508592
 31
0.0
  0
LINE
  5
DB
330
1A
100
AcDbEntity
  8
VARIOUS
100
AcDbLine
 10
30.70972
 20
-101.008592
 30
0.0
 11
192.70959
 21
-101.008592
 31
0.0
  0
LINE
  5
DC
330
1A
100
AcDbEntity
  8
VARIOUS
100
AcDbLine
 10
-95.0
 20
-103.508592
 30
0.0
 11
-95.0
 21
-101.008592
 31
0.0
  0
LINE
  5
DD
330
1A
100
AcDbEntity
  8
VARIOUS
100
AcDbLine
 10
-71.0
 20
-104.508592
 30
0.0
 11
-71.0
 21
-103.508592
 31
0.0
  0
LINE
  5
DE
330
1A
100
AcDbEntity
  8
VARIOUS
100
AcDbLine
 10
-49.0
 20
-104.508592
 30
0.0
 11
-49.0
 21
-103.508592
 31
0.0
  0
LINE
  5
DF
330
1A
100
AcDbEntity
  8
VARIOUS
100
AcDbLine
 10
-71.0
 20
-100.008592
 30
0.0
 11
-49.0
 21
-100.008592
 31
0.0
  0
LINE
  5
E0
330
1A
100
AcDbEntity
  8
VARIOUS
100
AcDbLine
 10
-49.0
 20
-104.508592
 30
0.0
 11
-71.0
 21
-104.508592
 31
0.0
  0
LINE
  5
E1
330
1A
100
AcDbEntity
  8
VARIOUS
100
AcDbLine
 10
-49.0
 20
-101.008592
 30
0.0
 11
-49.0
 21
-100.008592
 31
0.0
  0
LINE
  5
E2
330
1A
100
AcDbEntity
  8
VARIOUS
100
AcDbLine
 10
-71.0
 20
-101.008592
 30
0.0
 11
-71.0
 21
-100.008592
 31
0.0
  0
LINE
  5
E3
330
1A
100
AcDbEntity
  8
VARIOUS
100
AcDbLine
 10
-46.419086
 20
-101.008592
 30
0.0
 11
-19.8
 21
-89.75859199999999
 31
0.0
  0
LINE
  5
E4
330
1A
100
AcDbEntity
  8
VARIOUS
100
AcDbLine
 10
-46.419086
 20
-103.508592
 30
0.0
 11
-19.8
 21
-114.758592
 31
0.0
  0
LINE
  5
E5
330
1A
100
AcDbEntity
  8
AXIS
 48
10.0
100
AcDbLine
 10
-60.0
 20
-84.452569
 30
0.0
 11
-60.0
 21
-120.091588
 31
0.0
  0
LINE
  5
E6
330
1A
100
AcDbEntity
  8
VARIOUS
100
AcDbLine
 10
192.70959
 20
-87.25859199999999
 30
0.0
 11
192.70959
 21
-101.008592
 31
0.0
  0
LINE
  5
E7
330
1A
100
AcDbEntity
  8
VARIOUS
100
AcDbLine
 10
192.70959
 20
-103.508592
 30
0.0
 11
192.70959
 21
-117.258592
 31
0.0
  0
LINE
  5
E8
330
1A
100
AcDbEntity
  8
VARIOUS
100
AcDbLine
 10
77.408902
 20
-13.136079
 30
0.0
 11
189.696705
 21
99.247927
 31
0.0
  0
LINE
  5
E9
330
1A
100
AcDbEntity
  8
VARIOUS
100
AcDbLine
 10
77.07033199999999
 20
19.505374
 30
0.0
 11
194.940133
 21
115.703842
 31
0.0
  0
CIRCLE
  5
EA
330
1A
100
AcDbEntity
  8
VARIOUS
100
AcDbCircle
 10
-60.0
 20
0.0
 30
0.0
 40
9.0
  0
CIRCLE
  5
EB
330
1A
100
AcDbEntity
  8
VARIOUS
100
AcDbCircle
 10
0.0
 20
0.0
 30
0.0
 40
10.25
  0
CIRCLE
  5
EC
330
1A
100
AcDbEntity
  8
VARIOUS
100
AcDbCircle
 10
0.0
 20
0.0
 30
0.0
 40
12.0
  0
LINE
  5
ED
330
1A
100
AcDbEntity
  8
VARIOUS
100
AcDbLine
 10
194.940133
 20
115.703842
 30
0.0
 11
194.940133
 21
115.703842
 31
0.0
  0
ARC
  5
EE
330
1A
100
AcDbEntity
  8
VARIOUS
100
AcDbCircle
 10
177.253503
 20
112.276092
 30
0.0
 40
18.015725
100
AcDbArc
 50
313.684402
 51
10.968211
  0
LINE
  5
EF
330
1A
100
AcDbEntity
  8
VARIOUS
100
AcDbLine
 10
-95.0
 20
-19.0
 30
0.0
 11
-95.0
 21
15.0
 31
0.0
  0
LINE
  5
F0
330
1A
100
AcDbEntity
  8
VARIOUS
100
AcDbLine
 10
-95.0
 20
15.0
 30
0.0
 11
64.42452
 21
15.0
 31
0.0
  0
LINE
  5
F1
330
1A
100
AcDbEntity
  8
VARIOUS
100
AcDbLine
 10
63.260712
 20
-19.0
 30
0.0
 11
-95.0
 21
-19.0
 31
0.0
  0
ARC
  5
F2
330
1A
100
AcDbEntity
  8
VARIOUS
100
AcDbCircle
 10
64.42452
 20
35.0
 30
0.0
 40
20.0
100
AcDbArc
 50
270.0
 51
309.219321
  0
ARC
  5
F3
330
1A
100
AcDbEntity
  8
VARIOUS
100
AcDbCircle
 10
63.260712
 20
1.0
 30
0.0
 40
20.0
100
AcDbArc
 50
270.0
 51
315.024534
  0
LINE
  5
F4
330
1A
100
AcDbEntity
  8
VARIOUS
100
AcDbLine
 10
75.640378
 20
-11.369069
 30
0.0
 11
187.928181
 21
101.014937
 31
0.0
  0
ARC
  5
F5
330
1A
100
AcDbEntity
  8
VARIOUS
100
AcDbCircle
 10
63.260712
 20
1.0
 30
0.0
 40
17.5
100
AcDbArc
 50
270.0
 51
315.024534
  0
LINE
  5
F6
330
1A
100
AcDbEntity
  8
VARIOUS
100
AcDbLine
 10
63.260712
 20
-16.5
 30
0.0
 11
-12.0
 21
-16.5
 31
0.0
  0
ARC
  5
F7
330
1A
100
AcDbEntity
  8
VARIOUS
100
AcDbCircle
 10
177.253503
 20
112.276092
 30
0.0
 40
15.515725
100
AcDbArc
 50
313.684402
 51
5.879471
  0
LINE
  5
F8
330
1A
100
AcDbEntity
  8
VARIOUS
100
AcDbLine
 10
-12.0
 20
-16.5
 30
0.0
 11
-12.0
 21
-19.0
 31
0.0
  0
LINE
  5
F9
330
1A
100
AcDbEntity
  8
VARIOUS
100
AcDbLine
 10
-46.419086
 20
2.0
 30
0.0
 11
-19.8
 21
2.0
 31
0.0
  0
LINE
  5
FA
330
1A
100
AcDbEntity
  8
VARIOUS
100
AcDbLine
 10
-46.419086
 20
-2.0
 30
0.0
 11
-19.8
 21
-2.0
 31
0.0
  0
LINE
  5
FB
330
1A
100
AcDbEntity
  8
VARIOUS
100
AcDbLine
 10
-46.419086
 20
-2.0
 30
0.0
 11
-46.419086
 21
2.0
 31
0.0
  0
LINE
  5
FC
330
1A
100
AcDbEntity
  8
VARIOUS
100
AcDbLine
 10
19.8
 20
-16.5
 30
0.0
 11
19.8
 21
6.0
 31
0.0
  0
LINE
  5
FD
330
1A
100
AcDbEntity
  8
VARIOUS
100
AcDbLine
 10
-19.8
 20
-19.0
 30
0.0
 11
-19.8
 21
6.0
 31
0.0
  0
ARC
  5
FE
330
1A
100
AcDbEntity
  8
VARIOUS
100
AcDbCircle
 10
-18.737834
 20
14.048352
 30
0.0
 40
8.118138
100
AcDbArc
 50
173.268026
 51
262.481942
  0
ARC
  5
FF
330
1A
100
AcDbEntity
  8
VARIOUS
100
AcDbCircle
 10
18.737834
 20
14.048352
 30
0.0
 40
8.118138
100
AcDbArc
 50
277.518058
 51
6.731974
  0
ARC
  5
100
330
1A
100
AcDbEntity
  8
VARIOUS
  6
HIDDEN
 48
10.0
100
AcDbCircle
 10
-18.737834
 20
14.048352
 30
0.0
 40
6.118138
100
AcDbArc
 50
173.268026
 51
278.817487
  0
LINE
  5
101
330
1A
100
AcDbEntity
  8
VARIOUS
  6
HIDDEN
 48
10.0
100
AcDbLine
 10
-17.8
 20
-19.0
 30
0.0
 11
-17.8
 21
8.002520000000001
 31
0.0
  0
LINE
  5
102
330
1A
100
AcDbEntity
  8
VARIOUS
  6
HIDDEN
 48
10.0
100
AcDbLine
 10
17.8
 20
-16.5
 30
0.0
 11
17.8
 21
8.002520000000001
 31
0.0
  0
ARC
  5
103
330
1A
100
AcDbEntity
  8
VARIOUS
  6
HIDDEN
 48
10.0
100
AcDbCircle
 10
18.737834
 20
14.048352
 30
0.0
 40
6.118138
100
AcDbArc
 50
261.182513
 51
6.731974
  0
CIRCLE
  5
104
330
1A
100
AcDbEntity
  8
VARIOUS
100
AcDbCircle
 10
-60.0
 20
0.0
 30
0.0
 40
11.0
  0
LINE
  5
105
330
1A
100
AcDbEntity
  8
VARIOUS
100
AcDbLine
 10
271.140109
 20
-19.0
 30
0.0
 11
271.140109
 21
115.703842
 31
0.0
  0
LINE
  5
106
330
1A
100
AcDbEntity
  8
VARIOUS
100
AcDbLine
 10
301.140109
 20
-19.0
 30
0.0
 11
301.140109
 21
115.703842
 31
0.0
  0
LINE
  5
107
330
1A
100
AcDbEntity
  8
VARIOUS
  6
HIDDEN
100
AcDbLine
 10
284.890109
 20
-16.5
 30
0.0
 11
284.890109
 21
113.865463
 31
0.0
  0
LINE
  5
108
330
1A
100
AcDbEntity
  8
VARIOUS
  6
HIDDEN
100
AcDbLine
 10
287.390109
 20
-16.5
 30
0.0
 11
287.390109
 21
113.865463
 31
0.0
  0
LINE
  5
109
330
1A
100
AcDbEntity
  8
VARIOUS
100
AcDbLine
 10
271.140109
 20
115.703842
 30
0.0
 11
301.140109
 21
115.703842
 31
0.0
  0
LINE
  5
10A
330
1A
100
AcDbEntity
  8
VARIOUS
100
AcDbLine
 10
271.140109
 20
-19.0
 30
0.0
 11
301.140109
 21
-19.0
 31
0.0
  0
LINE
  5
10B
330
1A
100
AcDbEntity
  8
VARIOUS
  6
HIDDEN
100
AcDbLine
 10
271.140109
 20
-16.5
 30
0.0
 11
301.140109
 21
-16.5
 31
0.0
  0
LINE
  5
10C
330
1A
100
AcDbEntity
  8
VARIOUS
  6
HIDDEN
100
AcDbLine
 10
271.140109
 20
113.865463
 30
0.0
 11
301.140109
 21
113.865463
 31
0.0
  0
LINE
  5
10D
330
1A
100
AcDbEntity
  8
AXIS
100
AcDbLine
 10
256.269158
 20
0.0
 30
0.0
 11
313.769158
 21
0.0
 31
0.0
  0
ENDSEC
  0
SECTION
  2
OBJECTS
  0
DICTIONARY
  5
C
330
0
100
AcDbDictionary
  3
ACAD_GROUP
350
D
  3
ACAD_LAYOUT
350
10F
  3
ACAD_MLINESTYLE
350
E
1001
ACAD
1000
TREAT_AS_HARD
1070
     0
  0
DICTIONARY
  5
161
330
10E
100
AcDbDictionary
  3
ACAD_XREC_ROUNDTRIP
360
162
  0
DICTIONARY
  5
D
102
{ACAD_REACTORS
330
C
102
}
330
C
100
AcDbDictionary
1001
ACAD
1000
TREAT_AS_HARD
1070
     0
  0
DICTIONARY
  5
10F
102
{ACAD_REACTORS
330
C
102
}
330
C
100
AcDbDictionary
1001
ACAD
1000
TREAT_AS_HARD
1070
     0
  0
DICTIONARY
  5
E
102
{ACAD_REACTORS
330
C
102
}
330
C
100
AcDbDictionary
  3
STANDARD
350
13
1001
ACAD
1000
TREAT_AS_HARD
1070
     0
  0
XRECORD
  5
162
102
{ACAD_REACTORS
330
161
102
}
330
161
100
AcDbXrecord
102
UCS
 74
     0
 71
     1
 10
0.0
 20
0.0
 30
0.0
 10
1.0
 20
0.0
 30
0.0
 10
0.0
 20
1.0
 30
0.0
146
0.0
 79
     0
102
VIEW
281
     0
  0
MLINESTYLE
  5
13
102
{ACAD_REACTORS
330
E
102
}
330
E
100
AcDbMlineStyle
  2
STANDARD
 70
     0
  3

 62
     0
 51
90.0
 52
90.0
 71
     2
 49
0.5
 62
   256
  6
BYLAYER
 49
-0.5
 62
   256
  6
BYLAYER
  0
ENDSEC
  0
EOF
