  0
SECTION
  2
HEADER
  9
$ACADVER
  1
AC1009
  9
$DWGCODEPAGE
  3
ansi_1252
  9
$INSBASE
 10
0.0
 20
0.0
 30
0.0
  9
$EXTMIN
 10
-194.73333
 20
-256.82222
 30
0.0
  9
$EXTMAX
 10
194.73333
 20
256.82222
 30
0.0
  9
$LIMMIN
 10
0.0
 20
0.0
  9
$LIMMAX
 10
12.0
 20
9.0
  9
$ORTHOMODE
 70
     0
  9
$REGENMODE
 70
     1
  9
$FILLMODE
 70
     1
  9
$QTEXTMODE
 70
     0
  9
$MIRRTEXT
 70
     1
  9
$DRAGMODE
 70
     2
  9
$LTSCALE
 40
2.0
  9
$OSMODE
 70
    37
  9
$ATTMODE
 70
     1
  9
$TEXTSIZE
 40
0.2
  9
$TRACEWID
 40
0.05
  9
$TEXTSTYLE
  7
STANDARD
  9
$CLAYER
  8
0
  9
$CELTYPE
  6
BYBLOCK
  9
$CECOLOR
 62
   256
  9
$DIMSCALE
 40
1.0
  9
$DIMASZ
 40
0.18
  9
$DIMEXO
 40
0.0625
  9
$DIMDLI
 40
0.38
  9
$DIMRND
 40
0.0
  9
$DIMDLE
 40
0.0
  9
$DIMEXE
 40
0.18
  9
$DIMTP
 40
0.0
  9
$DIMTM
 40
0.0
  9
$DIMTXT
 40
0.18
  9
$DIMCEN
 40
0.09
  9
$DIMTSZ
 40
0.0
  9
$DIMTOL
 70
     0
  9
$DIMLIM
 70
     0
  9
$DIMTIH
 70
     1
  9
$DIMTOH
 70
     1
  9
$DIMSE1
 70
     0
  9
$DIMSE2
 70
     0
  9
$DIMTAD
 70
     0
  9
$DIMZIN
 70
     0
  9
$DIMBLK
  1

  9
$DIMASO
 70
     1
  9
$DIMSHO
 70
     1
  9
$DIMPOST
  1

  9
$DIMAPOST
  1

  9
$DIMALT
 70
     0
  9
$DIMALTD
 70
     2
  9
$DIMALTF
 40
25.4
  9
$DIMLFAC
 40
1.0
  9
$DIMTOFL
 70
     0
  9
$DIMTVP
 40
0.0
  9
$DIMTIX
 70
     0
  9
$DIMSOXD
 70
     0
  9
$DIMSAH
 70
     0
  9
$DIMBLK1
  1

  9
$DIMBLK2
  1

  9
$DIMSTYLE
  2
STANDARD
  9
$DIMCLRD
 70
     0
  9
$DIMCLRE
 70
     0
  9
$DIMCLRT
 70
     0
  9
$DIMTFAC
 40
1.0
  9
$DIMGAP
 40
0.09
  9
$LUNITS
 70
     2
  9
$LUPREC
 70
     4
  9
$SKETCHINC
 40
0.1
  9
$FILLETRAD
 40
0.5
  9
$AUNITS
 70
     0
  9
$AUPREC
 70
     0
  9
$MENU
  1
.
  9
$ELEVATION
 40
0.0
  9
$PELEVATION
 40
0.0
  9
$THICKNESS
 40
0.0
  9
$LIMCHECK
 70
     0
  9
$CHAMFERA
 40
0.5
  9
$CHAMFERB
 40
0.5
  9
$SKPOLY
 70
     0
  9
$TDCREATE
 40
2453619.496018079
  9
$TDUPDATE
 40
2453619.49601809
  9
$TDINDWG
 40
0.0000000116
  9
$TDUSRTIMER
 40
0.0000000116
  9
$USRTIMER
 70
     1
  9
$ANGBASE
 50
0.0
  9
$ANGDIR
 70
     0
  9
$PDMODE
 70
     0
  9
$PDSIZE
 40
0.0
  9
$PLINEWID
 40
0.0
  9
$COORDS
 70
     1
  9
$SPLFRAME
 70
     0
  9
$SPLINETYPE
 70
     6
  9
$SPLINESEGS
 70
     8
  9
$ATTDIA
 70
     0
  9
$ATTREQ
 70
     1
  9
$HANDLING
 70
     1
  9
$HANDSEED
  5
12B
  9
$SURFTAB1
 70
     6
  9
$SURFTAB2
 70
     6
  9
$SURFTYPE
 70
     6
  9
$SURFU
 70
     6
  9
$SURFV
 70
     6
  9
$UCSNAME
  2

  9
$UCSORG
 10
0.0
 20
0.0
 30
0.0
  9
$UCSXDIR
 10
1.0
 20
0.0
 30
0.0
  9
$UCSYDIR
 10
0.0
 20
1.0
 30
0.0
  9
$PUCSNAME
  2

  9
$PUCSORG
 10
0.0
 20
0.0
 30
0.0
  9
$PUCSXDIR
 10
1.0
 20
0.0
 30
0.0
  9
$PUCSYDIR
 10
0.0
 20
1.0
 30
0.0
  9
$USERI1
 70
     0
  9
$USERI2
 70
     0
  9
$USERI3
 70
     0
  9
$USERI4
 70
     0
  9
$USERI5
 70
     0
  9
$USERR1
 40
0.0
  9
$USERR2
 40
0.0
  9
$USERR3
 40
0.0
  9
$USERR4
 40
0.0
  9
$USERR5
 40
0.0
  9
$WORLDVIEW
 70
     1
  9
$SHADEDGE
 70
     3
  9
$SHADEDIF
 70
    70
  9
$TILEMODE
 70
     1
  9
$MAXACTVP
 70
    64
  9
$PLIMCHECK
 70
     0
  9
$PEXTMIN
 10
1.000000000000000E+20
 20
1.000000000000000E+20
 30
1.000000000000000E+20
  9
$PEXTMAX
 10
-1.000000000000000E+20
 20
-1.000000000000000E+20
 30
-1.000000000000000E+20
  9
$PLIMMIN
 10
0.0
 20
0.0
  9
$PLIMMAX
 10
12.0
 20
9.0
  9
$UNITMODE
 70
     0
  9
$VISRETAIN
 70
     1
  9
$PLINEGEN
 70
     0
  9
$PSLTSCALE
 70
     1
  0
ENDSEC
  0
SECTION
  2
TABLES
  0
TABLE
  2
VPORT
 70
     1
  0
VPORT
  2
*ACTIVE
 70
     0
 10
0.0
 20
0.0
 11
1.0
 21
1.0
 12
10.42990654205607
 22
4.5
 13
0.0
 23
0.0
 14
0.5
 24
0.5
 15
0.5
 25
0.5
 16
0.0
 26
0.0
 36
1.0
 17
0.0
 27
0.0
 37
0.0
 40
9.0
 41
1.972972972850329
 42
50.0
 43
0.0
 44
0.0
 50
0.0
 51
0.0
 71
     0
 72
   100
 73
     1
 74
     3
 75
     0
 76
     0
 77
     0
 78
     0
  0
ENDTAB
  0
TABLE
  2
LTYPE
 70
     9
  0
LTYPE
  2
CONTINUOUS
 70
     0
  3
Solid Line
 72
    65
 73
     0
 40
0.0
  0
LTYPE
  2
MCDASH1
 70
     0
  3
MiniCad+ Generated
 72
    65
 73
     2
 40
1.763846
 49
1.058075
 49
-0.705771
  0
LTYPE
  2
MCDASH2
 70
     0
  3
MiniCad+ Generated
 72
    65
 73
     2
 40
3.527692
 49
2.469229
 49
-1.058463
  0
LTYPE
  2
MCDASH3
 70
     0
  3
MiniCad+ Generated
 72
    65
 73
     2
 40
6.35
 49
5.291537
 49
-1.058463
  0
LTYPE
  2
MCDASH4
 70
     0
  3
MiniCad+ Generated
 72
    65
 73
     2
 40
7.760767
 49
6.702692
 49
-1.058075
  0
LTYPE
  2
MCDASH5
 70
     0
  3
MiniCad+ Generated
 72
    65
 73
     2
 40
1.058075
 49
0.352692
 49
-0.705383
  0
LTYPE
  2
MCDASH6
 70
     0
  3
MiniCad+ Generated
 72
    65
 73
     4
 40
5.291538
 49
3.175
 49
-1.058075
 49
0.352692
 49
-0.705771
  0
LTYPE
  2
MCDASH7
 70
     0
  3
MiniCad+ Generated
 72
    65
 73
     6
 40
9.525001
 49
3.175
 49
-1.058075
 49
3.175
 49
-1.058463
 49
0.352692
 49
-0.705771
  0
LTYPE
  2
MCDASH8
 70
     0
  3
MiniCad+ Generated
 72
    65
 73
     6
 40
6.350001000000001
 49
3.175
 49
-1.058075
 49
0.352692
 49
-0.705771
 49
0.352692
 49
-0.705771
  0
ENDTAB
  0
TABLE
  2
LAYER
 70
     2
  0
LAYER
  2
0
 70
     0
 62
     7
  6
CONTINUOUS
  0
LAYER
  2
LUCIDO-1
 70
     0
 62
     7
  6
CONTINUOUS
  0
ENDTAB
  0
TABLE
  2
STYLE
 70
     1
  0
STYLE
  2
STANDARD
 70
     0
 40
0.0
 41
1.0
 50
0.0
 71
     0
 42
0.2
  3
txt
  4

  0
ENDTAB
  0
TABLE
  2
VIEW
 70
     0
  0
ENDTAB
  0
TABLE
  2
UCS
 70
     0
  0
ENDTAB
  0
TABLE
  2
APPID
 70
     1
  0
APPID
  2
ACAD
 70
     0
  0
ENDTAB
  0
TABLE
  2
DIMSTYLE
 70
     1
  0
DIMSTYLE
  2
STANDARD
 70
     0
  3

  4

  5

  6

  7

 40
1.0
 41
0.18
 42
0.0625
 43
0.38
 44
0.18
 45
0.0
 46
0.0
 47
0.0
 48
0.0
140
0.18
141
0.09
142
0.0
143
25.4
144
1.0
145
0.0
146
1.0
147
0.09
 71
     0
 72
     0
 73
     1
 74
     1
 75
     0
 76
     0
 77
     0
 78
     0
170
     0
171
     2
172
     0
173
     0
174
     0
175
     0
176
     0
177
     0
178
     0
  0
ENDTAB
  0
ENDSEC
  0
SECTION
  2
BLOCKS
  0
BLOCK
  8
0
  2
$MODEL_SPACE
 70
     0
 10
0.0
 20
0.0
 30
0.0
  3
$MODEL_SPACE
  1

  0
ENDBLK
  5
126
  8
0
  0
BLOCK
 67
     1
  8
0
  2
$PAPER_SPACE
 70
     0
 10
0.0
 20
0.0
 30
0.0
  3
$PAPER_SPACE
  1

  0
ENDBLK
  5
124
 67
     1
  8
0
  0
BLOCK
  8
0
  2
$ARROW1$
 70
     0
 10
0.0
 20
0.0
 30
0.0
  3
$ARROW1$
  1

  0
SOLID
  5
2D
  8
0
 62
     0
 10
-25.4
 20
4.318
 30
0.0
 11
-25.4
 21
-4.318
 31
0.0
 12
0.0
 22
0.0
 32
0.0
 13
0.0
 23
0.0
 33
0.0
  0
ENDBLK
  5
117
  8
0
  0
BLOCK
  8
0
  2
$ARROW2$
 70
     0
 10
0.0
 20
0.0
 30
0.0
  3
$ARROW2$
  1

  0
SOLID
  5
31
  8
0
 62
     0
 10
-25.4
 20
12.7
 30
0.0
 11
-25.4
 21
-12.7
 31
0.0
 12
0.0
 22
0.0
 32
0.0
 13
0.0
 23
0.0
 33
0.0
  0
ENDBLK
  5
119
  8
0
  0
BLOCK
  8
0
  2
$ARROW3$
 70
     0
 10
0.0
 20
0.0
 30
0.0
  3
$ARROW3$
  1

  0
POLYLINE
  5
35
  8
0
  6
BYBLOCK
 62
     0
 66
     1
 10
0.0
 20
0.0
 30
0.0
 70
     1
 40
0.5
 41
0.5
  0
VERTEX
  5
E5
  8
0
  6
BYBLOCK
 62
     0
 10
-6.35
 20
0.0
 30
0.0
 42
1.0
  0
VERTEX
  5
E6
  8
0
  6
BYBLOCK
 62
     0
 10
6.35
 20
0.0
 30
0.0
 42
1.0
  0
SEQEND
  5
11A
  8
0
  6
BYBLOCK
 62
     0
  0
ENDBLK
  5
11C
  8
0
  0
BLOCK
  8
0
  2
$ARROW4$
 70
     0
 10
0.0
 20
0.0
 30
0.0
  3
$ARROW4$
  1

  0
LINE
  5
3C
  8
0
  6
BYBLOCK
 62
     0
 10
12.7
 20
12.7
 30
0.0
 11
-12.7
 21
-12.7
 31
0.0
  0
ENDBLK
  5
11E
  8
0
  0
BLOCK
  8
0
  2
$ARROW5$
 70
     0
 10
0.0
 20
0.0
 30
0.0
  3
$ARROW5$
  1

  0
LINE
  5
40
  8
0
  6
BYBLOCK
 62
     0
 10
12.7
 20
12.7
 30
0.0
 11
-12.7
 21
-12.7
 31
0.0
  0
LINE
  5
41
  8
0
  6
BYBLOCK
 62
     0
 10
-12.7
 20
12.7
 30
0.0
 11
12.7
 21
-12.7
 31
0.0
  0
ENDBLK
  5
120
  8
0
  0
ENDSEC
  0
SECTION
  2
ENTITIES
  0
LINE
  5
43
  8
LUCIDO-1
 62
     6
 10
36.2
 20
48.0222
 30
0.0
 11
55.7
 21
48.0222
 31
0.0
  0
LINE
  5
44
  8
LUCIDO-1
 62
     6
 10
37.3
 20
55.7222
 30
0.0
 11
37.3
 21
48.0222
 31
0.0
  0
LINE
  5
45
  8
LUCIDO-1
 62
     6
 10
38.05
 20
55.7222
 30
0.0
 11
25.3
 21
55.7222
 31
0.0
  0
LINE
  5
46
  8
LUCIDO-1
 62
     6
 10
25.3
 20
55.7222
 30
0.0
 11
25.3
 21
64.9222
 31
0.0
  0
LINE
  5
47
  8
LUCIDO-1
 62
     6
 10
45.05
 20
72.62220000000001
 30
0.0
 11
45.05
 21
48.0222
 31
0.0
  0
LINE
  5
48
  8
LUCIDO-1
  6
MCDASH1
 10
25.3
 20
58.3222
 30
0.0
 11
45.05
 21
58.3222
 31
0.0
  0
LINE
  5
49
  8
LUCIDO-1
 62
     6
 10
-59.5704
 20
10.0164
 30
0.0
 11
-59.57
 21
-3.2278
 31
0.0
  0
LINE
  5
4A
  8
LUCIDO-1
 62
     6
 10
-2.43
 20
10.0169
 30
0.0
 11
-2.43
 21
-3.2278
 31
0.0
  0
LINE
  5
4B
  8
LUCIDO-1
 62
     6
 10
-8.563000000000001
 20
-12.9778
 30
0.0
 11
-53.437
 21
-12.9778
 31
0.0
  0
ARC
  5
4C
  8
LUCIDO-1
 62
     6
 10
-31.0
 20
-24.5262
 30
0.0
 40
46.39
 50
54.594055
 51
125.405945
  0
LINE
  5
4D
  8
LUCIDO-1
 62
     6
 10
-2.43
 20
-3.2278
 30
0.0
 11
-4.7683
 21
-10.2427
 31
0.0
  0
LINE
  5
4E
  8
LUCIDO-1
 62
     6
 10
-59.57
 20
-3.2278
 30
0.0
 11
-57.2317
 21
-10.2427
 31
0.0
  0
ARC
  5
4F
  8
LUCIDO-1
 62
     6
 10
-53.437
 20
-8.9778
 30
0.0
 40
4.0
 50
198.434952
 51
270.0
  0
ARC
  5
50
  8
LUCIDO-1
 62
     6
 10
-8.563000000000001
 20
-8.9778
 30
0.0
 40
4.0
 50
270.0
 51
341.565048
  0
ARC
  5
51
  8
LUCIDO-1
 62
     6
 10
-55.5704
 20
10.0166
 30
0.0
 40
4.0
 50
125.424362
 51
180.001877
  0
ARC
  5
52
  8
LUCIDO-1
 62
     6
 10
-6.43
 20
10.0169
 30
0.0
 40
4.0
 50
0.0
 51
54.576309
  0
LINE
  5
53
  8
LUCIDO-1
 62
     6
 10
-43.75
 20
10.0222
 30
0.0
 11
-43.75
 21
1.5222
 31
0.0
  0
LINE
  5
54
  8
LUCIDO-1
 62
     6
 10
-18.25
 20
10.0222
 30
0.0
 11
-18.25
 21
1.5222
 31
0.0
  0
LINE
  5
55
  8
LUCIDO-1
 62
     6
 10
-43.75
 20
10.0222
 30
0.0
 11
-18.25
 21
10.0222
 31
0.0
  0
LINE
  5
56
  8
LUCIDO-1
 62
     6
 10
-43.75
 20
1.5222
 30
0.0
 11
-18.25
 21
1.5222
 31
0.0
  0
LINE
  5
57
  8
LUCIDO-1
 62
     6
 10
-51.0
 20
6.0
 30
0.0
 11
-51.0
 21
-4.8
 31
0.0
  0
LINE
  5
58
  8
LUCIDO-1
 62
     6
 10
-11.0
 20
6.45
 30
0.0
 11
-11.0
 21
-5.2
 31
0.0
  0
LINE
  5
59
  8
LUCIDO-1
 62
     6
 10
-55.85
 20
0.5222
 30
0.0
 11
-46.15
 21
0.5222
 31
0.0
  0
LINE
  5
5A
  8
LUCIDO-1
 62
     6
 10
-15.85
 20
0.5222
 30
0.0
 11
-6.1
 21
0.5222
 31
0.0
  0
CIRCLE
  5
5B
  8
LUCIDO-1
 62
     6
 10
-51.0
 20
0.5222
 30
0.0
 40
2.7
  0
CIRCLE
  5
5C
  8
LUCIDO-1
 62
     6
 10
-11.0
 20
0.5222
 30
0.0
 40
2.7
  0
POLYLINE
  5
5D
  8
LUCIDO-1
 62
     6
 66
     1
 10
0.0
 20
0.0
 30
0.0
 70
     1
  0
VERTEX
  5
D7
  8
LUCIDO-1
 62
     6
 10
-55.1999
 20
-1.8777
 30
0.0
  0
VERTEX
  5
D8
  8
LUCIDO-1
 62
     6
 10
-51.0
 20
-4.3025
 30
0.0
  0
VERTEX
  5
D9
  8
LUCIDO-1
 62
     6
 10
-46.8001
 20
-1.8777
 30
0.0
  0
VERTEX
  5
DA
  8
LUCIDO-1
 62
     6
 10
-46.8
 20
2.972
 30
0.0
  0
VERTEX
  5
DB
  8
LUCIDO-1
 62
     6
 10
-51.0
 20
5.3969
 30
0.0
  0
VERTEX
  5
DC
  8
LUCIDO-1
 62
     6
 10
-55.1999
 20
2.9721
 30
0.0
  0
SEQEND
  5
121
  8
LUCIDO-1
 62
     6
  0
POLYLINE
  5
65
  8
LUCIDO-1
 62
     6
 66
     1
 10
0.0
 20
0.0
 30
0.0
 70
     1
  0
VERTEX
  5
DE
  8
LUCIDO-1
 62
     6
 10
-15.1999
 20
-1.9027
 30
0.0
  0
VERTEX
  5
DF
  8
LUCIDO-1
 62
     6
 10
-11.0
 20
-4.3275
 30
0.0
  0
VERTEX
  5
E0
  8
LUCIDO-1
 62
     6
 10
-6.8001
 20
-1.9027
 30
0.0
  0
VERTEX
  5
E1
  8
LUCIDO-1
 62
     6
 10
-6.8
 20
2.947
 30
0.0
  0
VERTEX
  5
E2
  8
LUCIDO-1
 62
     6
 10
-11.0
 20
5.3719
 30
0.0
  0
VERTEX
  5
E3
  8
LUCIDO-1
 62
     6
 10
-15.1999
 20
2.9471
 30
0.0
  0
SEQEND
  5
122
  8
LUCIDO-1
 62
     6
  0
LINE
  5
6D
  8
LUCIDO-1
 62
     6
 10
-55.5
 20
-8.377800000000001
 30
0.0
 11
-6.5
 21
-8.377800000000001
 31
0.0
  0
ARC
  5
6E
  8
LUCIDO-1
 62
     6
 10
-31.0
 20
-24.1878
 30
0.0
 40
43.7129
 50
49.152634
 51
130.816772
  0
LINE
  5
6F
  8
LUCIDO-1
 62
     6
 10
-60.0023
 20
60.3222
 30
0.0
 11
-2.0023
 21
60.3222
 31
0.0
  0
LINE
  5
70
  8
LUCIDO-1
 62
     6
 10
-56.6757
 20
48.0222
 30
0.0
 11
-5.3289
 21
48.0222
 31
0.0
  0
LINE
  5
71
  8
LUCIDO-1
 62
     6
 10
-2.0023
 20
60.3222
 30
0.0
 11
-2.3307
 21
50.9175
 31
0.0
  0
LINE
  5
72
  8
LUCIDO-1
 62
     6
 10
-60.0023
 20
60.3222
 30
0.0
 11
-59.6738
 21
50.9175
 31
0.0
  0
ARC
  5
73
  8
LUCIDO-1
 62
     6
 10
-56.6757
 20
51.0222
 30
0.0
 40
3.0
 50
182.000351
 51
270.0
  0
ARC
  5
74
  8
LUCIDO-1
 62
     6
 10
-5.3289
 20
51.0222
 30
0.0
 40
3.0
 50
270.0
 51
358.000122
  0
LINE
  5
75
  8
LUCIDO-1
 62
     6
 10
-56.6757
 20
72.62220000000001
 30
0.0
 11
-5.3289
 21
72.62220000000001
 31
0.0
  0
LINE
  5
76
  8
LUCIDO-1
 62
     6
 10
-2.0023
 20
60.3222
 30
0.0
 11
-2.3307
 21
69.7269
 31
0.0
  0
LINE
  5
77
  8
LUCIDO-1
 62
     6
 10
-60.0023
 20
60.3222
 30
0.0
 11
-59.6738
 21
69.7269
 31
0.0
  0
ARC
  5
78
  8
LUCIDO-1
 62
     6
 10
-56.6757
 20
69.62220000000001
 30
0.0
 40
3.0
 50
90.0
 51
177.999649
  0
ARC
  5
79
  8
LUCIDO-1
 62
     6
 10
-5.3289
 20
69.62220000000001
 30
0.0
 40
3.0
 50
1.999878
 51
90.0
  0
LINE
  5
7A
  8
LUCIDO-1
 62
     6
 10
27.8
 20
50.5222
 30
0.0
 11
25.8674
 21
55.7222
 31
0.0
  0
LINE
  5
7B
  8
LUCIDO-1
 62
     6
 10
27.8
 20
50.5222
 30
0.0
 11
36.2
 21
48.0222
 31
0.0
  0
LINE
  5
7C
  8
LUCIDO-1
 62
     6
 10
55.7
 20
48.0222
 30
0.0
 11
60.3
 21
50.5222
 31
0.0
  0
LINE
  5
7D
  8
LUCIDO-1
 62
     6
 10
60.3
 20
50.5222
 30
0.0
 11
60.3
 21
54.4114
 31
0.0
  0
LINE
  5
7E
  8
LUCIDO-1
 62
     6
 10
56.55
 20
51.0
 30
0.0
 11
56.55
 21
69.5
 31
0.0
  0
LINE
  5
7F
  8
LUCIDO-1
 62
     6
 10
36.2
 20
72.62220000000001
 30
0.0
 11
55.7
 21
72.62220000000001
 31
0.0
  0
LINE
  5
80
  8
LUCIDO-1
 62
     6
 10
27.8
 20
70.12220000000001
 30
0.0
 11
25.8882
 21
64.9222
 31
0.0
  0
LINE
  5
81
  8
LUCIDO-1
 62
     6
 10
27.8
 20
70.12220000000001
 30
0.0
 11
36.2
 21
72.62220000000001
 31
0.0
  0
LINE
  5
82
  8
LUCIDO-1
 62
     6
 10
55.7
 20
72.62220000000001
 30
0.0
 11
60.3
 21
70.12220000000001
 31
0.0
  0
LINE
  5
83
  8
LUCIDO-1
 62
     6
 10
60.3
 20
70.12220000000001
 30
0.0
 11
60.3
 21
66.233
 31
0.0
  0
LINE
  5
84
  8
LUCIDO-1
 62
     6
 10
-2.1665
 20
54.4114
 30
0.0
 11
-59.838
 21
54.4114
 31
0.0
  0
LINE
  5
85
  8
LUCIDO-1
 62
     6
 10
-2.1665
 20
66.233
 30
0.0
 11
-59.7611
 21
66.233
 31
0.0
  0
LINE
  5
86
  8
LUCIDO-1
 62
     6
 10
45.8
 20
72.62220000000001
 30
0.0
 11
45.8
 21
48.0222
 31
0.0
  0
LINE
  5
87
  8
LUCIDO-1
 62
     6
 10
37.3
 20
72.62220000000001
 30
0.0
 11
37.3
 21
64.9222
 31
0.0
  0
LINE
  5
88
  8
LUCIDO-1
 62
     6
 10
44.3
 20
60.3222
 30
0.0
 11
49.55
 21
60.3222
 31
0.0
  0
LINE
  5
89
  8
LUCIDO-1
 62
     6
 10
38.05
 20
64.9222
 30
0.0
 11
25.3
 21
64.9222
 31
0.0
  0
LINE
  5
8A
  8
LUCIDO-1
 62
     6
 10
-42.25
 20
2.2722
 30
0.0
 11
-19.75
 21
2.2722
 31
0.0
  0
LINE
  5
8B
  8
LUCIDO-1
 62
     6
 10
-52.5
 20
12.0222
 30
0.0
 11
-9.5
 21
12.0222
 31
0.0
  0
LINE
  5
8C
  8
LUCIDO-1
  6
MCDASH1
 10
25.3
 20
57.3222
 30
0.0
 11
45.05
 21
57.3222
 31
0.0
  0
LINE
  5
8D
  8
LUCIDO-1
 62
     6
 10
-19.75
 20
2.2722
 30
0.0
 11
-19.75
 21
9.2722
 31
0.0
  0
CIRCLE
  5
8E
  8
LUCIDO-1
  6
MCDASH1
 62
     6
 10
-31.0023
 20
60.3222
 30
0.0
 40
4.6
  0
CIRCLE
  5
8F
  8
LUCIDO-1
  6
MCDASH1
 10
-31.0023
 20
60.3222
 30
0.0
 40
12.5
  0
ARC
  5
90
  8
LUCIDO-1
 62
     6
 10
56.55
 20
60.3222
 30
0.0
 40
7.0
 50
57.724792
 51
302.274704
  0
LINE
  5
91
  8
LUCIDO-1
 62
     6
 10
47.128
 20
72.62220000000001
 30
0.0
 11
45.8
 21
71.2942
 31
0.0
  0
LINE
  5
92
  8
LUCIDO-1
 62
     6
 10
49.9564
 20
72.62220000000001
 30
0.0
 11
45.8
 21
68.4658
 31
0.0
  0
LINE
  5
93
  8
LUCIDO-1
 62
     6
 10
52.7848
 20
72.62220000000001
 30
0.0
 11
45.8
 21
65.6374
 31
0.0
  0
LINE
  5
94
  8
LUCIDO-1
 62
     6
 10
55.6132
 20
72.62220000000001
 30
0.0
 11
45.8
 21
62.809
 31
0.0
  0
LINE
  5
95
  8
LUCIDO-1
 62
     6
 10
57.4762
 20
71.6568
 30
0.0
 11
46.1416
 21
60.3222
 31
0.0
  0
LINE
  5
96
  8
LUCIDO-1
 62
     6
 10
59.3087
 20
70.6609
 30
0.0
 11
55.9437
 21
67.2959
 31
0.0
  0
LINE
  5
97
  8
LUCIDO-1
 62
     6
 10
49.5763
 20
60.9285
 30
0.0
 11
48.97
 21
60.3222
 31
0.0
  0
LINE
  5
98
  8
LUCIDO-1
 62
     6
 10
60.3
 20
68.82380000000001
 30
0.0
 11
58.5165
 21
67.0403
 31
0.0
  0
LINE
  5
99
  8
LUCIDO-1
 62
     6
 10
45.8
 20
49.3502
 30
0.0
 11
47.128
 21
48.0222
 31
0.0
  0
LINE
  5
9A
  8
LUCIDO-1
 62
     6
 10
45.8
 20
52.1786
 30
0.0
 11
49.9564
 21
48.0222
 31
0.0
  0
LINE
  5
9B
  8
LUCIDO-1
 62
     6
 10
45.8
 20
55.007
 30
0.0
 11
52.7848
 21
48.0222
 31
0.0
  0
LINE
  5
9C
  8
LUCIDO-1
 62
     6
 10
45.8
 20
57.8354
 30
0.0
 11
55.6132
 21
48.0222
 31
0.0
  0
LINE
  5
9D
  8
LUCIDO-1
 62
     6
 10
46.1416
 20
60.3222
 30
0.0
 11
57.4762
 21
48.9876
 31
0.0
  0
LINE
  5
9E
  8
LUCIDO-1
 62
     6
 10
48.97
 20
60.3222
 30
0.0
 11
49.5763
 21
59.7159
 31
0.0
  0
LINE
  5
9F
  8
LUCIDO-1
 62
     6
 10
55.9437
 20
53.3485
 30
0.0
 11
59.3087
 21
49.9835
 31
0.0
  0
LINE
  5
A0
  8
LUCIDO-1
 62
     6
 10
58.5165
 20
53.6041
 30
0.0
 11
60.3
 21
51.8206
 31
0.0
  0
LINE
  5
A1
  8
LUCIDO-1
 62
     6
 10
27.1178
 20
52.3777
 30
0.0
 11
29.4705
 21
50.025
 31
0.0
  0
LINE
  5
A2
  8
LUCIDO-1
 62
     6
 10
26.6017
 20
55.7222
 30
0.0
 11
33.4973
 21
48.8266
 31
0.0
  0
LINE
  5
A3
  8
LUCIDO-1
 62
     6
 10
29.5146
 20
55.6377
 30
0.0
 11
37.1301
 21
48.0222
 31
0.0
  0
LINE
  5
A4
  8
LUCIDO-1
 62
     6
 10
32.2585
 20
55.7222
 30
0.0
 11
37.3
 21
50.6807
 31
0.0
  0
LINE
  5
A5
  8
LUCIDO-1
 62
     6
 10
35.0869
 20
55.7222
 30
0.0
 11
37.3
 21
53.5091
 31
0.0
  0
LINE
  5
A6
  8
LUCIDO-1
 62
     6
 10
29.4705
 20
70.6194
 30
0.0
 11
27.1178
 21
68.2667
 31
0.0
  0
LINE
  5
A7
  8
LUCIDO-1
 62
     6
 10
33.4973
 20
71.81780000000001
 30
0.0
 11
26.6017
 21
64.9222
 31
0.0
  0
LINE
  5
A8
  8
LUCIDO-1
 62
     6
 10
37.2155
 20
72.5377
 30
0.0
 11
29.6
 21
64.9222
 31
0.0
  0
LINE
  5
A9
  8
LUCIDO-1
 62
     6
 10
37.3
 20
69.9637
 30
0.0
 11
32.2585
 21
64.9222
 31
0.0
  0
LINE
  5
AA
  8
LUCIDO-1
 62
     6
 10
37.3
 20
67.1353
 30
0.0
 11
35.2572
 21
65.0924
 31
0.0
  0
LINE
  5
AB
  8
LUCIDO-1
 62
     6
 10
23.7
 20
60.3222
 30
0.0
 11
65.8
 21
60.3222
 31
0.0
  0
ARC
  5
AC
  8
LUCIDO-1
 62
     6
 10
-51.0
 20
0.5222
 30
0.0
 40
1.9
 50
269.999451
 51
180.0
  0
ARC
  5
AD
  8
LUCIDO-1
 62
     6
 10
-11.0
 20
0.5222
 30
0.0
 40
1.9
 50
269.999451
 51
180.0
  0
LINE
  5
AE
  8
LUCIDO-1
 62
     6
 10
41.55
 20
46.2778
 30
0.0
 11
41.55
 21
74.2
 31
0.0
  0
LINE
  5
AF
  8
LUCIDO-1
  6
MCDASH1
 10
25.3
 20
63.3222
 30
0.0
 11
45.05
 21
63.3222
 31
0.0
  0
LINE
  5
B0
  8
LUCIDO-1
  6
MCDASH1
 10
25.3
 20
62.3222
 30
0.0
 11
45.05
 21
62.3222
 31
0.0
  0
LINE
  5
B1
  8
LUCIDO-1
 62
     6
 10
38.05
 20
55.7222
 30
0.0
 11
38.05
 21
48.0222
 31
0.0
  0
LINE
  5
B2
  8
LUCIDO-1
 62
     6
 10
38.05
 20
72.62220000000001
 30
0.0
 11
38.05
 21
64.9222
 31
0.0
  0
LINE
  5
B3
  8
LUCIDO-1
 62
     6
 10
-42.25
 20
9.2722
 30
0.0
 11
-19.75
 21
9.2722
 31
0.0
  0
LINE
  5
B4
  8
LUCIDO-1
 62
     6
 10
-31.0
 20
-0.4
 30
0.0
 11
-31.0
 21
25.7
 31
0.0
  0
LINE
  5
B5
  8
LUCIDO-1
  6
MCDASH1
 10
-35.6
 20
21.6352
 30
0.0
 11
-35.6
 21
9.2722
 31
0.0
  0
LINE
  5
B6
  8
LUCIDO-1
  6
MCDASH1
 10
-26.4
 20
21.6352
 30
0.0
 11
-26.4
 21
9.2722
 31
0.0
  0
LINE
  5
B7
  8
LUCIDO-1
 62
     6
 10
-42.25
 20
2.2722
 30
0.0
 11
-42.25
 21
9.2722
 31
0.0
  0
LINE
  5
B8
  8
LUCIDO-1
  6
MCDASH1
 10
-33.0
 20
2.2722
 30
0.0
 11
-33.0
 21
21.8207
 31
0.0
  0
LINE
  5
B9
  8
LUCIDO-1
  6
MCDASH1
 10
-29.0
 20
2.2722
 30
0.0
 11
-29.0
 21
21.8207
 31
0.0
  0
LINE
  5
BA
  8
LUCIDO-1
  6
MCDASH1
 10
-28.0
 20
2.2722
 30
0.0
 11
-28.0
 21
21.8207
 31
0.0
  0
LINE
  5
BB
  8
LUCIDO-1
  6
MCDASH1
 10
-34.0
 20
2.2722
 30
0.0
 11
-34.0
 21
21.8207
 31
0.0
  0
CIRCLE
  5
BC
  8
LUCIDO-1
  6
MCDASH1
 62
     6
 10
-31.0023
 20
60.3222
 30
0.0
 40
2.0
  0
ARC
  5
BD
  8
LUCIDO-1
  6
MCDASH1
 62
     6
 10
-31.0023
 20
60.3222
 30
0.0
 40
3.0
 50
269.999496
 51
180.0
  0
LINE
  5
BE
  8
LUCIDO-1
 62
     6
 10
-28.6023
 20
64.9222
 30
0.0
 11
-33.4023
 21
64.9222
 31
0.0
  0
LINE
  5
BF
  8
LUCIDO-1
 62
     6
 10
-28.6023
 20
55.7222
 30
0.0
 11
-33.4023
 21
55.7222
 31
0.0
  0
ARC
  5
C0
  8
LUCIDO-1
  6
MCDASH1
 62
     6
 10
-33.4023
 20
60.3222
 30
0.0
 40
4.6
 50
90.0
 51
180.0
  0
ARC
  5
C1
  8
LUCIDO-1
  6
MCDASH1
 62
     6
 10
-33.4023
 20
60.3222
 30
0.0
 40
4.6
 50
180.0
 51
270.0
  0
ARC
  5
C2
  8
LUCIDO-1
  6
MCDASH1
 62
     6
 10
-28.6023
 20
60.3222
 30
0.0
 40
4.6
 50
0.0
 51
90.0
  0
ARC
  5
C3
  8
LUCIDO-1
  6
MCDASH1
 62
     6
 10
-28.6023
 20
60.3222
 30
0.0
 40
4.6
 50
270.0
 51
0.0
  0
LINE
  5
C4
  8
LUCIDO-1
  6
MCDASH1
 10
-38.0023
 20
21.3323
 30
0.0
 11
-38.0023
 21
10.0222
 31
0.0
  0
LINE
  5
C5
  8
LUCIDO-1
  6
MCDASH1
 10
-24.0023
 20
21.333
 30
0.0
 11
-24.0023
 21
10.0222
 31
0.0
  0
ENDSEC
  0
EOF
