  0
SECTION
  2
HEADER
  9
$ACADVER
  1
AC1014
  9
$ACADMAINTVER
 70
     9
  9
$DWGCODEPAGE
  3
ANSI_1252
  9
$INSBASE
 10
0.0
 20
0.0
 30
0.0
  9
$EXTMIN
 10
-0.0000000000000018
 20
-184.7526044633692
 30
0.0
  9
$EXTMAX
 10
511.473706588809
 20
97.70171991447305
 30
0.0
  9
$LIMMIN
 10
0.0
 20
0.0
  9
$LIMMAX
 10
297.0
 20
210.0
  9
$ORTHOMODE
 70
     0
  9
$REGENMODE
 70
     1
  9
$FILLMODE
 70
     1
  9
$QTEXTMODE
 70
     0
  9
$MIRRTEXT
 70
     1
  9
$DRAGMODE
 70
     2
  9
$LTSCALE
 40
10.0
  9
$OSMODE
 70
    37
  9
$ATTMODE
 70
     1
  9
$TEXTSIZE
 40
0.2
  9
$TRACEWID
 40
0.05
  9
$TEXTSTYLE
  7
STANDARD
  9
$CLAYER
  8
0
  9
$CELTYPE
  6
BYLAYER
  9
$CECOLOR
 62
   256
  9
$CELTSCALE
 40
1.0
  9
$DELOBJ
 70
     1
  9
$DISPSILH
 70
     0
  9
$DIMSCALE
 40
1.0
  9
$DIMASZ
 40
0.18
  9
$DIMEXO
 40
0.0625
  9
$DIMDLI
 40
0.38
  9
$DIMRND
 40
0.0
  9
$DIMDLE
 40
0.0
  9
$DIMEXE
 40
0.18
  9
$DIMTP
 40
0.0
  9
$DIMTM
 40
0.0
  9
$DIMTXT
 40
0.18
  9
$DIMCEN
 40
0.09
  9
$DIMTSZ
 40
0.0
  9
$DIMTOL
 70
     0
  9
$DIMLIM
 70
     0
  9
$DIMTIH
 70
     1
  9
$DIMTOH
 70
     1
  9
$DIMSE1
 70
     0
  9
$DIMSE2
 70
     0
  9
$DIMTAD
 70
     0
  9
$DIMZIN
 70
     0
  9
$DIMBLK
  1

  9
$DIMASO
 70
     1
  9
$DIMSHO
 70
     0
  9
$DIMPOST
  1

  9
$DIMAPOST
  1

  9
$DIMALT
 70
     0
  9
$DIMALTD
 70
     2
  9
$DIMALTF
 40
25.4
  9
$DIMLFAC
 40
1.0
  9
$DIMTOFL
 70
     0
  9
$DIMTVP
 40
0.0
  9
$DIMTIX
 70
     0
  9
$DIMSOXD
 70
     0
  9
$DIMSAH
 70
     0
  9
$DIMBLK1
  1

  9
$DIMBLK2
  1

  9
$DIMSTYLE
  2
STANDARD
  9
$DIMCLRD
 70
     0
  9
$DIMCLRE
 70
     0
  9
$DIMCLRT
 70
     0
  9
$DIMTFAC
 40
1.0
  9
$DIMGAP
 40
0.09
  9
$DIMJUST
 70
     0
  9
$DIMSD1
 70
     0
  9
$DIMSD2
 70
     0
  9
$DIMTOLJ
 70
     1
  9
$DIMTZIN
 70
     0
  9
$DIMALTZ
 70
     0
  9
$DIMALTTZ
 70
     0
  9
$DIMFIT
 70
     3
  9
$DIMUPT
 70
     0
  9
$DIMUNIT
 70
     2
  9
$DIMDEC
 70
     4
  9
$DIMTDEC
 70
     4
  9
$DIMALTU
 70
     2
  9
$DIMALTTD
 70
     2
  9
$DIMTXSTY
  7
STANDARD
  9
$DIMAUNIT
 70
     0
  9
$LUNITS
 70
     2
  9
$LUPREC
 70
     4
  9
$SKETCHINC
 40
0.1
  9
$FILLETRAD
 40
0.0
  9
$AUNITS
 70
     0
  9
$AUPREC
 70
     0
  9
$MENU
  1
sitopluk
  9
$ELEVATION
 40
0.0
  9
$PELEVATION
 40
0.0
  9
$THICKNESS
 40
0.0
  9
$LIMCHECK
 70
     0
  9
$CHAMFERA
 40
0.0
  9
$CHAMFERB
 40
0.0
  9
$CHAMFERC
 40
0.0
  9
$CHAMFERD
 40
0.0
  9
$SKPOLY
 70
     0
  9
$TDCREATE
 40
2450498.527977431
  9
$TDUPDATE
 40
2453594.729171285
  9
$TDINDWG
 40
0.0001711921
  9
$TDUSRTIMER
 40
0.0001711921
  9
$USRTIMER
 70
     1
  9
$ANGBASE
 50
0.0
  9
$ANGDIR
 70
     0
  9
$PDMODE
 70
     0
  9
$PDSIZE
 40
0.0
  9
$PLINEWID
 40
0.0
  9
$COORDS
 70
     1
  9
$SPLFRAME
 70
     0
  9
$SPLINETYPE
 70
     6
  9
$SPLINESEGS
 70
     8
  9
$ATTDIA
 70
     0
  9
$ATTREQ
 70
     1
  9
$HANDLING
 70
     1
  9
$HANDSEED
  5
BB
  9
$SURFTAB1
 70
     6
  9
$SURFTAB2
 70
     6
  9
$SURFTYPE
 70
     6
  9
$SURFU
 70
     6
  9
$SURFV
 70
     6
  9
$UCSNAME
  2

  9
$UCSORG
 10
0.0
 20
0.0
 30
0.0
  9
$UCSXDIR
 10
1.0
 20
0.0
 30
0.0
  9
$UCSYDIR
 10
0.0
 20
1.0
 30
0.0
  9
$PUCSNAME
  2

  9
$PUCSORG
 10
0.0
 20
0.0
 30
0.0
  9
$PUCSXDIR
 10
1.0
 20
0.0
 30
0.0
  9
$PUCSYDIR
 10
0.0
 20
1.0
 30
0.0
  9
$USERI1
 70
     0
  9
$USERI2
 70
     0
  9
$USERI3
 70
     0
  9
$USERI4
 70
     0
  9
$USERI5
 70
     0
  9
$USERR1
 40
0.0
  9
$USERR2
 40
0.0
  9
$USERR3
 40
0.0
  9
$USERR4
 40
0.0
  9
$USERR5
 40
0.0
  9
$WORLDVIEW
 70
     1
  9
$SHADEDGE
 70
     3
  9
$SHADEDIF
 70
    70
  9
$TILEMODE
 70
     1
  9
$MAXACTVP
 70
    48
  9
$PINSBASE
 10
0.0
 20
0.0
 30
0.0
  9
$PLIMCHECK
 70
     0
  9
$PEXTMIN
 10
1.000000000000000E+20
 20
1.000000000000000E+20
 30
1.000000000000000E+20
  9
$PEXTMAX
 10
-1.000000000000000E+20
 20
-1.000000000000000E+20
 30
-1.000000000000000E+20
  9
$PLIMMIN
 10
0.0
 20
0.0
  9
$PLIMMAX
 10
12.0
 20
9.0
  9
$UNITMODE
 70
     0
  9
$VISRETAIN
 70
     1
  9
$PLINEGEN
 70
     0
  9
$PSLTSCALE
 70
     1
  9
$TREEDEPTH
 70
  3020
  9
$PICKSTYLE
 70
     1
  9
$CMLSTYLE
  2
STANDARD
  9
$CMLJUST
 70
     0
  9
$CMLSCALE
 40
1.0
  9
$PROXYGRAPHICS
 70
     1
  9
$MEASUREMENT
 70
     0
  0
ENDSEC
  0
SECTION
  2
CLASSES
  0
CLASS
  1
XRECORD
  2
AcDbXrecord
  3
AutoCAD 2000
 90
        0
280
     0
281
     0
  0
CLASS
  1
LWPOLYLINE
  2
AcDbPolyline
  3
AutoCAD 2000
 90
        0
280
     0
281
     1
  0
CLASS
  1
HATCH
  2
AcDbHatch
  3
AutoCAD 2000
 90
        0
280
     0
281
     1
  0
CLASS
  1
ACDBPLACEHOLDER
  2
AcDbPlaceHolder
  3
ObjectDBX Classes
 90
        0
280
     0
281
     0
  0
CLASS
  1
LAYOUT
  2
AcDbLayout
  3
ObjectDBX Classes
 90
        0
280
     0
281
     0
  0
ENDSEC
  0
SECTION
  2
TABLES
  0
TABLE
  2
VPORT
  5
8
330
0
100
AcDbSymbolTable
 70
     2
  0
VPORT
  5
96
102
{ACAD_XDICTIONARY
360
B9
102
}
330
8
100
AcDbSymbolTableRecord
100
AcDbViewportTableRecord
  2
*ACTIVE
 70
     0
 10
0.0
 20
0.0
 11
1.0
 21
1.0
 12
255.7368532944045
 22
12.62369776831542
 13
0.0
 23
0.0
 14
0.5
 24
0.5
 15
0.0
 25
0.0
 16
0.0
 26
0.0
 36
1.0
 17
0.0
 27
0.0
 37
0.0
 40
399.2215018723884
 41
1.748582230623819
 42
50.0
 43
0.0
 44
0.0
 50
0.0
 51
0.0
 71
     0
 72
   100
 73
     1
 74
     1
 75
     1
 76
     0
 77
     0
 78
     0
  0
ENDTAB
  0
TABLE
  2
LTYPE
  5
5
330
0
100
AcDbSymbolTable
 70
     1
  0
LTYPE
  5
12
330
5
100
AcDbSymbolTableRecord
100
AcDbLinetypeTableRecord
  2
BYBLOCK
 70
     0
  3

 72
    65
 73
     0
 40
0.0
  0
LTYPE
  5
13
330
5
100
AcDbSymbolTableRecord
100
AcDbLinetypeTableRecord
  2
BYLAYER
 70
     0
  3

 72
    65
 73
     0
 40
0.0
  0
LTYPE
  5
14
330
5
100
AcDbSymbolTableRecord
100
AcDbLinetypeTableRecord
  2
CONTINUOUS
 70
     0
  3
Solid line
 72
    65
 73
     0
 40
0.0
  0
ENDTAB
  0
TABLE
  2
LAYER
  5
2
330
0
100
AcDbSymbolTable
 70
     4
  0
LAYER
  5
E
330
2
100
AcDbSymbolTableRecord
100
AcDbLayerTableRecord
  2
0
 70
     0
 62
     7
  6
CONTINUOUS
  0
LAYER
  5
1F
330
2
100
AcDbSymbolTableRecord
100
AcDbLayerTableRecord
  2
PROFILI
 70
     0
 62
     7
  6
CONTINUOUS
  0
LAYER
  5
20
330
2
100
AcDbSymbolTableRecord
100
AcDbLayerTableRecord
  2
FISSAGGI
 70
     0
 62
     2
  6
CONTINUOUS
  0
LAYER
  5
21
330
2
100
AcDbSymbolTableRecord
100
AcDbLayerTableRecord
  2
PANNELLI
 70
     0
 62
     6
  6
CONTINUOUS
  0
ENDTAB
  0
TABLE
  2
STYLE
  5
3
330
0
100
AcDbSymbolTable
 70
     1
  0
STYLE
  5
F
330
3
100
AcDbSymbolTableRecord
100
AcDbTextStyleTableRecord
  2
STANDARD
 70
     0
 40
0.0
 41
1.0
 50
0.0
 71
     0
 42
0.2
  3
txt
  4

  0
ENDTAB
  0
TABLE
  2
VIEW
  5
6
330
0
100
AcDbSymbolTable
 70
     0
  0
ENDTAB
  0
TABLE
  2
UCS
  5
7
330
0
100
AcDbSymbolTable
 70
     0
  0
ENDTAB
  0
TABLE
  2
APPID
  5
9
330
0
100
AcDbSymbolTable
 70
     1
  0
APPID
  5
10
330
9
100
AcDbSymbolTableRecord
100
AcDbRegAppTableRecord
  2
ACAD
 70
     0
  0
ENDTAB
  0
TABLE
  2
DIMSTYLE
  5
A
330
0
100
AcDbSymbolTable
 70
     1
  0
DIMSTYLE
105
95
330
A
100
AcDbSymbolTableRecord
100
AcDbDimStyleTableRecord
  2
STANDARD
 70
     0
  3

  4

  5

  6

  7

 40
1.0
 41
0.18
 42
0.0625
 43
0.38
 44
0.18
 45
0.0
 46
0.0
 47
0.0
 48
0.0
140
0.18
141
0.09
142
0.0
143
25.4
144
1.0
145
0.0
146
1.0
147
0.09
 71
     0
 72
     0
 73
     1
 74
     1
 75
     0
 76
     0
 77
     0
 78
     0
170
     0
171
     2
172
     0
173
     0
174
     0
175
     0
176
     0
177
     0
178
     0
270
     2
271
     4
272
     4
273
     2
274
     2
340
F
275
     0
280
     0
281
     0
282
     0
283
     1
284
     0
285
     0
286
     0
287
     3
288
     0
  0
ENDTAB
  0
TABLE
  2
BLOCK_RECORD
  5
1
330
0
100
AcDbSymbolTable
 70
     3
  0
BLOCK_RECORD
  5
18
330
1
100
AcDbSymbolTableRecord
100
AcDbBlockTableRecord
  2
*MODEL_SPACE
  0
BLOCK_RECORD
  5
15
330
1
100
AcDbSymbolTableRecord
100
AcDbBlockTableRecord
  2
*PAPER_SPACE
  0
BLOCK_RECORD
  5
22
330
1
100
AcDbSymbolTableRecord
100
AcDbBlockTableRecord
  2
BORDER
  0
BLOCK_RECORD
  5
29
330
1
100
AcDbSymbolTableRecord
100
AcDbBlockTableRecord
  2
418A
  0
BLOCK_RECORD
  5
53
330
1
100
AcDbSymbolTableRecord
100
AcDbBlockTableRecord
  2
418B
  0
ENDTAB
  0
ENDSEC
  0
SECTION
  2
BLOCKS
  0
BLOCK
  5
19
330
18
100
AcDbEntity
  8
0
100
AcDbBlockBegin
  2
*MODEL_SPACE
 70
     0
 71
     0
 10
0.0
 20
0.0
 30
0.0
  3
*MODEL_SPACE
  1

  0
ENDBLK
  5
1A
330
18
100
AcDbEntity
  8
0
100
AcDbBlockEnd
  0
BLOCK
  5
16
330
15
100
AcDbEntity
 67
     1
  8
0
100
AcDbBlockBegin
  2
*PAPER_SPACE
 70
     0
 71
     0
 10
0.0
 20
0.0
 30
0.0
  3
*PAPER_SPACE
  1

  0
ENDBLK
  5
17
330
15
100
AcDbEntity
 67
     1
  8
0
100
AcDbBlockEnd
  0
BLOCK
  5
23
330
22
100
AcDbEntity
  8
0
100
AcDbBlockBegin
  2
BORDER
 70
     0
 71
     0
 10
0.0
 20
0.0
 30
0.0
  3
BORDER
  1

  0
LINE
  5
24
330
22
100
AcDbEntity
  8
0
100
AcDbLine
 10
0.0
 20
0.0
 30
0.0
 11
1.0
 21
0.0
 31
0.0
  0
LINE
  5
25
330
22
100
AcDbEntity
  8
0
100
AcDbLine
 10
1.0
 20
0.0
 30
0.0
 11
1.0
 21
1.0
 31
0.0
  0
LINE
  5
26
330
22
100
AcDbEntity
  8
0
100
AcDbLine
 10
1.0
 20
1.0
 30
0.0
 11
0.0
 21
1.0
 31
0.0
  0
LINE
  5
27
330
22
100
AcDbEntity
  8
0
100
AcDbLine
 10
0.0
 20
1.0
 30
0.0
 11
0.0
 21
0.0
 31
0.0
  0
ENDBLK
  5
28
330
22
100
AcDbEntity
  8
0
100
AcDbBlockEnd
  0
BLOCK
  5
2A
330
29
100
AcDbEntity
  8
0
100
AcDbBlockBegin
  2
418A
 70
     0
 71
     0
 10
0.0
 20
0.0
 30
0.0
  3
418A
  1

  0
ARC
  5
2B
330
29
100
AcDbEntity
  8
0
 62
     3
100
AcDbCircle
 10
-151.065744
 20
-46.404569
 30
0.0
 40
2.927147
100
AcDbArc
 50
270.0
 51
302.312568
  0
ARC
  5
2C
330
29
100
AcDbEntity
  8
0
 62
     3
100
AcDbCircle
 10
60.682543
 20
-46.404569
 30
0.0
 40
2.927147
100
AcDbArc
 50
218.327704
 51
270.0
  0
CIRCLE
  5
2D
330
29
100
AcDbEntity
  8
0
 62
     3
100
AcDbCircle
 10
-50.127399
 20
-51.590972
 30
0.0
 40
6.586082000000001
  0
CIRCLE
  5
2E
330
29
100
AcDbEntity
  8
0
 62
     3
100
AcDbCircle
 10
-50.127399
 20
-13.172163
 30
0.0
 40
6.586082000000001
  0
LINE
  5
2F
330
29
100
AcDbEntity
  8
0
 62
     3
100
AcDbLine
 10
-29.637367
 20
-9.513228999999999
 30
0.0
 11
-29.637367
 21
-55.24990699999999
 31
0.0
  0
ARC
  5
30
330
29
100
AcDbEntity
  8
0
 62
     3
100
AcDbCircle
 10
-151.681324
 20
-108.304453
 30
0.0
 40
1.463574
100
AcDbArc
 50
270.0
 51
0.0
  0
ARC
  5
31
330
29
100
AcDbEntity
  8
0
 62
     3
100
AcDbCircle
 10
60.424636
 20
-93.469827
 30
0.0
 40
2.927147
100
AcDbArc
 50
2.489553
 51
45.0
  0
ARC
  5
32
330
29
100
AcDbEntity
  8
0
 62
     3
100
AcDbCircle
 10
59.973884
 20
-47.868143
 30
0.0
 40
1.463574
100
AcDbArc
 50
218.327704
 51
270.0
  0
ARC
  5
33
330
29
100
AcDbEntity
  8
0
 62
     3
100
AcDbCircle
 10
-177.824203
 20
-108.304453
 30
0.0
 40
1.463574
100
AcDbArc
 50
180.0
 51
270.0
  0
ARC
  5
34
330
29
100
AcDbEntity
  8
0
 62
     3
100
AcDbCircle
 10
-177.824203
 20
-50.79529
 30
0.0
 40
1.463574
100
AcDbArc
 50
90.0
 51
180.0
  0
ARC
  5
35
330
29
100
AcDbEntity
  8
0
 62
     3
100
AcDbCircle
 10
91.08592400000001
 20
-108.304453
 30
0.0
 40
1.463574
100
AcDbArc
 50
270.0
 51
0.0
  0
ARC
  5
36
330
29
100
AcDbEntity
  8
0
 62
     3
100
AcDbCircle
 10
91.08592400000001
 20
-50.79529
 30
0.0
 40
1.463574
100
AcDbArc
 50
0.0
 51
90.0
  0
LINE
  5
37
330
29
100
AcDbEntity
  8
0
 62
     3
100
AcDbLine
 10
-81.22834
 20
-55.981694
 30
0.0
 11
-150.016303
 21
-78.301192
 31
0.0
  0
LINE
  5
38
330
29
100
AcDbEntity
  8
0
 62
     3
100
AcDbLine
 10
62.494441
 20
-91.40002199999999
 30
0.0
 11
34.028088
 21
-62.933669
 31
0.0
  0
LINE
  5
39
330
29
100
AcDbEntity
  8
0
 62
     3
100
AcDbLine
 10
64.03134900000001
 20
-109.03624
 30
0.0
 11
63.34902
 21
-93.34268
 31
0.0
  0
LINE
  5
3A
330
29
100
AcDbEntity
  8
0
 62
     3
100
AcDbLine
 10
-29.555946
 20
-2.195361
 30
0.0
 11
-29.555946
 21
0.0
 31
0.0
  0
LINE
  5
3B
330
29
100
AcDbEntity
  8
0
 62
     3
100
AcDbLine
 10
22.685392
 20
-7.317867999999999
 30
0.0
 11
22.685392
 21
-60.006521
 31
0.0
  0
LINE
  5
3C
330
29
100
AcDbEntity
  8
0
 62
     3
100
AcDbLine
 10
-76.10583199999999
 20
-9.513228999999999
 30
0.0
 11
-76.10583199999999
 21
-55.24990699999999
 31
0.0
  0
LINE
  5
3D
330
29
100
AcDbEntity
  8
0
 62
     3
100
AcDbLine
 10
-151.681324
 20
-109.768027
 30
0.0
 11
-177.824203
 21
-109.768027
 31
0.0
  0
LINE
  5
3E
330
29
100
AcDbEntity
  8
0
 62
     3
100
AcDbLine
 10
-29.555946
 20
-62.933669
 30
0.0
 11
-75.691608
 21
-62.933669
 31
0.0
  0
LINE
  5
3F
330
29
100
AcDbEntity
  8
0
 62
     3
100
AcDbLine
 10
29.555946
 20
-62.933669
 30
0.0
 11
0.0
 21
-62.933669
 31
0.0
  0
LINE
  5
40
330
29
100
AcDbEntity
  8
0
 62
     3
100
AcDbLine
 10
59.265225
 20
-109.768027
 30
0.0
 11
59.265225
 21
-107.572666
 31
0.0
  0
LINE
  5
41
330
29
100
AcDbEntity
  8
0
 62
     3
100
AcDbLine
 10
29.555946
 20
-62.933669
 30
0.0
 11
59.265225
 21
-107.572666
 31
0.0
  0
LINE
  5
42
330
29
100
AcDbEntity
  8
0
 62
     3
100
AcDbLine
 10
53.68945400000001
 20
-2.195361
 30
0.0
 11
90.95252499999999
 21
-49.331716
 31
0.0
  0
LINE
  5
43
330
29
100
AcDbEntity
  8
0
 62
     3
100
AcDbLine
 10
22.002154
 20
-2.195361
 30
0.0
 11
58.386264
 21
-48.219864
 31
0.0
  0
LINE
  5
44
330
29
100
AcDbEntity
  8
0
 62
     3
100
AcDbLine
 10
29.555946
 20
-2.195361
 30
0.0
 11
29.555946
 21
0.0
 31
0.0
  0
LINE
  5
45
330
29
100
AcDbEntity
  8
0
 62
     3
100
AcDbLine
 10
60.682543
 20
-49.331716
 30
0.0
 11
91.08592400000001
 21
-49.331716
 31
0.0
  0
LINE
  5
46
330
29
100
AcDbEntity
  8
0
 62
     3
100
AcDbLine
 10
-4.185192
 20
-2.195361
 30
0.0
 11
53.68945400000001
 21
-2.195361
 31
0.0
  0
LINE
  5
47
330
29
100
AcDbEntity
  8
0
 62
     3
100
AcDbLine
 10
-150.217751
 20
-108.304453
 30
0.0
 11
-150.217751
 21
-80.98613399999999
 31
0.0
  0
LINE
  5
48
330
29
100
AcDbEntity
  8
0
 62
     3
100
AcDbLine
 10
-151.065744
 20
-49.331716
 30
0.0
 11
-177.824203
 21
-49.331716
 31
0.0
  0
LINE
  5
49
330
29
100
AcDbEntity
  8
0
 62
     3
100
AcDbLine
 10
-75.691608
 20
-2.195361
 30
0.0
 11
-149.501073
 21
-48.878432
 31
0.0
  0
LINE
  5
4A
330
29
100
AcDbEntity
  8
0
 62
     3
100
AcDbLine
 10
-75.691608
 20
-62.933669
 30
0.0
 11
-150.217751
 21
-80.98613399999999
 31
0.0
  0
LINE
  5
4B
330
29
100
AcDbEntity
  8
0
 62
     3
100
AcDbLine
 10
-75.691608
 20
-2.195361
 30
0.0
 11
-29.555946
 21
-2.195361
 31
0.0
  0
LINE
  5
4C
330
29
100
AcDbEntity
  8
0
 62
     3
100
AcDbLine
 10
-29.555946
 20
-65.129029
 30
0.0
 11
-29.555946
 21
-62.933669
 31
0.0
  0
LINE
  5
4D
330
29
100
AcDbEntity
  8
0
 62
     3
100
AcDbLine
 10
-29.555946
 20
-65.129029
 30
0.0
 11
29.555946
 21
-65.129029
 31
0.0
  0
LINE
  5
4E
330
29
100
AcDbEntity
  8
0
 62
     3
100
AcDbLine
 10
59.265225
 20
-109.768027
 30
0.0
 11
91.08592400000001
 21
-109.768027
 31
0.0
  0
LINE
  5
4F
330
29
100
AcDbEntity
  8
0
 62
     3
100
AcDbLine
 10
92.549497
 20
-108.304453
 30
0.0
 11
92.549497
 21
-50.79529
 31
0.0
  0
LINE
  5
50
330
29
100
AcDbEntity
  8
0
 62
     3
100
AcDbLine
 10
-29.555946
 20
0.0
 30
0.0
 11
29.555946
 21
0.0
 31
0.0
  0
LINE
  5
51
330
29
100
AcDbEntity
  8
0
 62
     3
100
AcDbLine
 10
-179.287777
 20
-108.304453
 30
0.0
 11
-179.287777
 21
-50.79529
 31
0.0
  0
ENDBLK
  5
52
330
29
100
AcDbEntity
  8
0
100
AcDbBlockEnd
  0
BLOCK
  5
54
330
53
100
AcDbEntity
  8
0
100
AcDbBlockBegin
  2
418B
 70
     0
 71
     0
 10
0.0
 20
0.0
 30
0.0
  3
418B
  1

  0
LINE
  5
55
330
53
100
AcDbEntity
  8
0
 62
     3
100
AcDbLine
 10
18.85275
 20
-33.377564
 30
0.0
 11
20.36097
 21
-33.377564
 31
0.0
  0
LINE
  5
56
330
53
100
AcDbEntity
  8
0
 62
     3
100
AcDbLine
 10
21.86919
 20
-34.131674
 30
0.0
 11
24.508575
 21
-34.131674
 31
0.0
  0
LINE
  5
57
330
53
100
AcDbEntity
  8
0
 62
     3
100
AcDbLine
 10
21.86919
 20
-46.197434
 30
0.0
 11
24.508575
 21
-46.197434
 31
0.0
  0
ARC
  5
58
330
53
100
AcDbEntity
  8
0
 62
     3
100
AcDbCircle
 10
24.13152
 20
-43.180994
 30
0.0
 40
3.77055
100
AcDbArc
 50
126.869898
 51
233.130102
  0
ARC
  5
59
330
53
100
AcDbEntity
  8
0
 62
     3
100
AcDbCircle
 10
24.13152
 20
-37.148114
 30
0.0
 40
3.77055
100
AcDbArc
 50
126.869898
 51
233.130102
  0
ARC
  5
5A
330
53
100
AcDbEntity
  8
0
 62
     3
100
AcDbCircle
 10
22.246245
 20
-43.180994
 30
0.0
 40
3.77055
100
AcDbArc
 50
306.869898
 51
53.130102
  0
ARC
  5
5B
330
53
100
AcDbEntity
  8
0
 62
     3
100
AcDbCircle
 10
22.246245
 20
-37.148114
 30
0.0
 40
3.77055
100
AcDbArc
 50
306.869898
 51
53.130102
  0
LINE
  5
5C
330
53
100
AcDbEntity
  8
0
 62
     3
100
AcDbLine
 10
21.86919
 20
-40.164554
 30
0.0
 11
24.508575
 21
-40.164554
 31
0.0
  0
LINE
  5
5D
330
53
100
AcDbEntity
  8
0
 62
     3
100
AcDbLine
 10
26.016795
 20
-43.180994
 30
0.0
 11
26.016795
 21
-37.148114
 31
0.0
  0
LINE
  5
5E
330
53
100
AcDbEntity
  8
0
 62
     3
100
AcDbLine
 10
20.36097
 20
-36.394004
 30
0.0
 11
20.437151
 21
-36.394004
 31
0.0
  0
LINE
  5
5F
330
53
100
AcDbEntity
  8
0
 62
     3
100
AcDbLine
 10
20.36097
 20
-43.935104
 30
0.0
 11
20.437151
 21
-43.935104
 31
0.0
  0
LINE
  5
60
330
53
100
AcDbEntity
  8
0
 62
     3
100
AcDbLine
 10
20.36097
 20
-44.689214
 30
0.0
 11
20.675754
 21
-44.689214
 31
0.0
  0
LINE
  5
61
330
53
100
AcDbEntity
  8
0
 62
     3
100
AcDbLine
 10
20.36097
 20
-35.639894
 30
0.0
 11
20.675754
 21
-35.639894
 31
0.0
  0
LINE
  5
62
330
53
100
AcDbEntity
  8
0
 62
     3
100
AcDbLine
 10
27.90207
 20
-43.935104
 30
0.0
 11
27.90207
 21
-36.394004
 31
0.0
  0
LINE
  5
63
330
53
100
AcDbEntity
  8
0
 62
     3
100
AcDbLine
 10
27.14796
 20
-44.689214
 30
0.0
 11
27.14796
 21
-35.639894
 31
0.0
  0
LINE
  5
64
330
53
100
AcDbEntity
  8
0
 62
     3
100
AcDbLine
 10
27.90207
 20
-43.935104
 30
0.0
 11
27.14796
 21
-44.689214
 31
0.0
  0
LINE
  5
65
330
53
100
AcDbEntity
  8
0
 62
     3
100
AcDbLine
 10
27.90207
 20
-36.394004
 30
0.0
 11
27.14796
 21
-35.639894
 31
0.0
  0
LINE
  5
66
330
53
100
AcDbEntity
  8
0
 62
     3
100
AcDbLine
 10
25.702011
 20
-35.639894
 30
0.0
 11
27.14796
 21
-35.639894
 31
0.0
  0
LINE
  5
67
330
53
100
AcDbEntity
  8
0
 62
     3
100
AcDbLine
 10
25.940614
 20
-36.394004
 30
0.0
 11
27.90207
 21
-36.394004
 31
0.0
  0
LINE
  5
68
330
53
100
AcDbEntity
  8
0
 62
     3
100
AcDbLine
 10
25.940614
 20
-43.935104
 30
0.0
 11
27.90207
 21
-43.935104
 31
0.0
  0
LINE
  5
69
330
53
100
AcDbEntity
  8
0
 62
     3
100
AcDbLine
 10
25.702011
 20
-44.689214
 30
0.0
 11
27.14796
 21
-44.689214
 31
0.0
  0
LINE
  5
6A
330
53
100
AcDbEntity
  8
0
 62
     3
100
AcDbLine
 10
18.85275
 20
-46.951544
 30
0.0
 11
20.36097
 21
-46.951544
 31
0.0
  0
LINE
  5
6B
330
53
100
AcDbEntity
  8
0
 62
     3
100
AcDbLine
 10
20.36097
 20
-46.951544
 30
0.0
 11
20.36097
 21
-33.377564
 31
0.0
  0
LINE
  5
6C
330
53
100
AcDbEntity
  8
0
 62
     3
100
AcDbLine
 10
-20.36097
 20
-46.951544
 30
0.0
 11
-20.36097
 21
-33.377564
 31
0.0
  0
LINE
  5
6D
330
53
100
AcDbEntity
  8
0
 62
     3
100
AcDbLine
 10
-18.85275
 20
-46.951544
 30
0.0
 11
-20.36097
 21
-46.951544
 31
0.0
  0
LINE
  5
6E
330
53
100
AcDbEntity
  8
0
 62
     3
100
AcDbLine
 10
-24.508575
 20
-43.180994
 30
0.0
 11
-24.508575
 21
-37.148114
 31
0.0
  0
LINE
  5
6F
330
53
100
AcDbEntity
  8
0
 62
     3
100
AcDbLine
 10
-20.36097
 20
-40.164554
 30
0.0
 11
-23.000355
 21
-40.164554
 31
0.0
  0
ARC
  5
70
330
53
100
AcDbEntity
  8
0
 62
     3
100
AcDbCircle
 10
-20.738025
 20
-37.148114
 30
0.0
 40
3.77055
100
AcDbArc
 50
126.869898
 51
233.130102
  0
ARC
  5
71
330
53
100
AcDbEntity
  8
0
 62
     3
100
AcDbCircle
 10
-20.738025
 20
-43.180994
 30
0.0
 40
3.77055
100
AcDbArc
 50
126.869898
 51
233.130102
  0
LINE
  5
72
330
53
100
AcDbEntity
  8
0
 62
     3
100
AcDbLine
 10
-20.36097
 20
-46.197434
 30
0.0
 11
-23.000355
 21
-46.197434
 31
0.0
  0
LINE
  5
73
330
53
100
AcDbEntity
  8
0
 62
     3
100
AcDbLine
 10
-20.36097
 20
-34.131674
 30
0.0
 11
-23.000355
 21
-34.131674
 31
0.0
  0
LINE
  5
74
330
53
100
AcDbEntity
  8
0
 62
     3
100
AcDbLine
 10
-18.85275
 20
-33.377564
 30
0.0
 11
-20.36097
 21
-33.377564
 31
0.0
  0
LINE
  5
75
330
53
100
AcDbEntity
  8
0
 62
     3
100
AcDbLine
 10
-2.26233
 20
-44.708299
 30
0.0
 11
2.26233
 21
-44.708299
 31
0.0
  0
LINE
  5
76
330
53
100
AcDbEntity
  8
0
 62
     3
100
AcDbLine
 10
-2.26233
 20
-44.708299
 30
0.0
 11
-2.26233
 21
-22.623583
 31
0.0
  0
LINE
  5
77
330
53
100
AcDbEntity
  8
0
 62
     3
100
AcDbLine
 10
2.26233
 20
-44.708299
 30
0.0
 11
2.26233
 21
-22.623583
 31
0.0
  0
LINE
  5
78
330
53
100
AcDbEntity
  8
0
 62
     3
100
AcDbLine
 10
-12.133659
 20
-154.800143
 30
0.0
 11
-18.85275
 21
-154.800143
 31
0.0
  0
LINE
  5
79
330
53
100
AcDbEntity
  8
0
 62
     3
100
AcDbLine
 10
-18.85275
 20
-154.800143
 30
0.0
 11
-18.85275
 21
-24.028198
 31
0.0
  0
LINE
  5
7A
330
53
100
AcDbEntity
  8
0
 62
     3
100
AcDbLine
 10
18.85275
 20
-154.800143
 30
0.0
 11
12.133659
 21
-154.800143
 31
0.0
  0
LINE
  5
7B
330
53
100
AcDbEntity
  8
0
 62
     3
100
AcDbLine
 10
18.85275
 20
-154.800143
 30
0.0
 11
18.85275
 21
-24.028198
 31
0.0
  0
LINE
  5
7C
330
53
100
AcDbEntity
  8
0
 62
     3
100
AcDbLine
 10
143.487231
 20
61.073111
 30
0.0
 11
30.235405
 21
-4.312862
 31
0.0
  0
LINE
  5
7D
330
53
100
AcDbEntity
  8
0
 62
     3
100
AcDbLine
 10
140.127686
 20
66.892015
 30
0.0
 11
143.487231
 21
61.073111
 31
0.0
  0
LINE
  5
7E
330
53
100
AcDbEntity
  8
0
 62
     3
100
AcDbLine
 10
124.634481
 20
93.72703199999999
 30
0.0
 11
127.994027
 21
87.90812800000001
 31
0.0
  0
LINE
  5
7F
330
53
100
AcDbEntity
  8
0
 62
     3
100
AcDbLine
 10
124.634481
 20
93.72703199999999
 30
0.0
 11
11.382655
 21
28.341059
 31
0.0
  0
LINE
  5
80
330
53
100
AcDbEntity
  8
0
 62
     3
100
AcDbLine
 10
-140.127686
 20
66.892015
 30
0.0
 11
-143.487231
 21
61.073111
 31
0.0
  0
LINE
  5
81
330
53
100
AcDbEntity
  8
0
 62
     3
100
AcDbLine
 10
-124.634481
 20
93.72703199999999
 30
0.0
 11
-127.994027
 21
87.90812800000001
 31
0.0
  0
LINE
  5
82
330
53
100
AcDbEntity
  8
0
 62
     3
100
AcDbLine
 10
-143.487231
 20
61.073111
 30
0.0
 11
-30.235405
 21
-4.312862
 31
0.0
  0
LINE
  5
83
330
53
100
AcDbEntity
  8
0
 62
     3
100
AcDbLine
 10
-124.634481
 20
93.72703199999999
 30
0.0
 11
-11.382655
 21
28.341059
 31
0.0
  0
ARC
  5
84
330
53
100
AcDbEntity
  8
0
 62
     3
100
AcDbCircle
 10
-0.082672
 20
-173.965547
 30
0.0
 40
10.79172
100
AcDbArc
 50
168.266819
 51
8.364583999999999
  0
LINE
  5
85
330
53
100
AcDbEntity
  8
0
 62
     3
100
AcDbLine
 10
18.85275
 20
-78.00058100000001
 30
0.0
 11
10.594251
 21
-172.395659
 31
0.0
  0
LINE
  5
86
330
53
100
AcDbEntity
  8
0
 62
     3
100
AcDbLine
 10
-18.85275
 20
-78.00058100000001
 30
0.0
 11
-10.648901
 21
-171.771003
 31
0.0
  0
LINE
  5
87
330
53
100
AcDbEntity
  8
0
 62
     3
100
AcDbLine
 10
18.85275
 20
-78.00058100000001
 30
0.0
 11
-18.85275
 21
-78.00058100000001
 31
0.0
  0
LINE
  5
88
330
53
100
AcDbEntity
  8
0
 62
     3
100
AcDbLine
 10
58.124109
 20
55.327251
 30
0.0
 11
76.97685899999999
 21
22.67333
 31
0.0
  0
LINE
  5
89
330
53
100
AcDbEntity
  8
0
 62
     3
100
AcDbLine
 10
58.124109
 20
55.327251
 30
0.0
 11
144.001895
 21
95.37272
 31
0.0
  0
LINE
  5
8A
330
53
100
AcDbEntity
  8
0
 62
     3
100
AcDbLine
 10
76.97685899999999
 20
22.67333
 30
0.0
 11
154.082503
 21
76.66328299999999
 31
0.0
  0
ARC
  5
8B
330
53
100
AcDbEntity
  8
0
 62
     3
100
AcDbCircle
 10
150.699919
 20
86.911177
 30
0.0
 40
10.79172
100
AcDbArc
 50
288.266819
 51
128.364584
  0
ARC
  5
8C
330
53
100
AcDbEntity
  8
0
 62
     3
100
AcDbCircle
 10
-150.699919
 20
86.911177
 30
0.0
 40
10.79172
100
AcDbArc
 50
51.635416
 51
251.733181
  0
LINE
  5
8D
330
53
100
AcDbEntity
  8
0
 62
     3
100
AcDbLine
 10
-76.97685899999999
 20
22.67333
 30
0.0
 11
-154.082503
 21
76.66328299999999
 31
0.0
  0
LINE
  5
8E
330
53
100
AcDbEntity
  8
0
 62
     3
100
AcDbLine
 10
-58.124109
 20
55.327251
 30
0.0
 11
-144.001895
 21
95.37272
 31
0.0
  0
LINE
  5
8F
330
53
100
AcDbEntity
  8
0
 62
     3
100
AcDbLine
 10
-58.124109
 20
55.327251
 30
0.0
 11
-76.97685899999999
 21
22.67333
 31
0.0
  0
ARC
  5
90
330
53
100
AcDbEntity
  8
0
 62
     3
100
AcDbCircle
 10
0.0
 20
0.0
 30
0.0
 40
30.541455
100
AcDbArc
 50
274.248023
 51
265.751977
  0
ARC
  5
91
330
53
100
AcDbEntity
  8
0
 62
     3
100
AcDbCircle
 10
0.0
 20
0.0
 30
0.0
 40
22.736417
100
AcDbArc
 50
275.710522
 51
264.289478
  0
ENDBLK
  5
92
330
53
100
AcDbEntity
  8
0
100
AcDbBlockEnd
  0
ENDSEC
  0
SECTION
  2
ENTITIES
  0
INSERT
  5
93
330
18
100
AcDbEntity
  8
0
100
AcDbBlockReference
  2
418A
 10
0.0
 20
0.0
 30
0.0
 50
90.0
  0
INSERT
  5
94
330
18
100
AcDbEntity
  8
0
100
AcDbBlockReference
  2
418B
 10
350.0
 20
0.0
 30
0.0
  0
ENDSEC
  0
SECTION
  2
OBJECTS
  0
DICTIONARY
  5
C
330
0
100
AcDbDictionary
  3
ACAD_GROUP
350
D
  3
ACAD_LAYOUT
350
97
  3
ACAD_MLINESTYLE
350
1B
  3
ACDBHEADERROUNDTRIPXREC
350
9A
  0
DICTIONARY
  5
B9
330
96
100
AcDbDictionary
280
     1
  3
ACAD_XREC_ROUNDTRIP
360
BA
  0
DICTIONARY
  5
D
102
{ACAD_REACTORS
330
C
102
}
330
C
100
AcDbDictionary
  0
DICTIONARY
  5
97
102
{ACAD_REACTORS
330
C
102
}
330
C
100
AcDbDictionary
  0
DICTIONARY
  5
1B
102
{ACAD_REACTORS
330
C
102
}
330
C
100
AcDbDictionary
  3
STANDARD
350
1C
  0
DICTIONARY
  5
9A
102
{ACAD_REACTORS
330
C
102
}
330
C
100
AcDbDictionary
  3
CEPSNTYPE
350
A2
  3
DIMSTYLEDATA
350
B8
  3
FINGERPRINTGUID
350
A3
  3
HYPERLINKBASE
350
9D
  3
INSUNITS
350
A1
  3
LAYOUTDICT
350
9F
  3
LWETCUNION
350
A0
  3
PSVPSCALE
350
A5
  3
PUCSBASE
350
A8
  3
PUCSORGBACK
350
AE
  3
PUCSORGBOTTOM
350
AA
  3
PUCSORGFRONT
350
AD
  3
PUCSORGLEFT
350
AB
  3
PUCSORGRIGHT
350
AC
  3
PUCSORGTOP
350
A9
  3
PUCSORTHOREF
350
A6
  3
PUCSORTHOVIEW
350
A7
  3
STYLESHEET
350
9E
  3
TSTACKALIGN
350
9B
  3
TSTACKSIZE
350
9C
  3
UCSBASE
350
B1
  3
UCSORGBACK
350
B7
  3
UCSORGBOTTOM
350
B3
  3
UCSORGFRONT
350
B6
  3
UCSORGLEFT
350
B4
  3
UCSORGRIGHT
350
B5
  3
UCSORGTOP
350
B2
  3
UCSORTHOREF
350
AF
  3
UCSORTHOVIEW
350
B0
  3
VERSIONGUID
350
A4
  0
XRECORD
  5
BA
102
{ACAD_REACTORS
330
B9
102
}
330
B9
100
AcDbXrecord
102
UCS
 74
     0
 71
     1
 10
0.0
 20
0.0
 30
0.0
 10
1.0
 20
0.0
 30
0.0
 10
0.0
 20
1.0
 30
0.0
146
0.0
 79
     0
102
VIEW
281
     0
  0
MLINESTYLE
  5
1C
102
{ACAD_REACTORS
330
1B
102
}
330
1B
100
AcDbMlineStyle
  2
STANDARD
 70
     0
  3

 62
   256
 51
90.0
 52
90.0
 71
     2
 49
0.5
 62
   256
  6
BYLAYER
 49
-0.5
 62
   256
  6
BYLAYER
  0
XRECORD
  5
A2
102
{ACAD_REACTORS
330
9A
102
}
330
9A
100
AcDbXrecord
 90
        0
  0
XRECORD
  5
B8
102
{ACAD_REACTORS
330
9A
102
}
330
9A
100
AcDbXrecord
1000
DSTYLE
1002
{
1070
   340
340
F
1002
}
  0
XRECORD
  5
A3
102
{ACAD_REACTORS
330
9A
102
}
330
9A
100
AcDbXrecord
  1
{FAEB1C30-E019-11D5-929B-00C0DF256EC4}
  0
XRECORD
  5
9D
102
{ACAD_REACTORS
330
9A
102
}
330
9A
100
AcDbXrecord
  1

  0
XRECORD
  5
A1
102
{ACAD_REACTORS
330
9A
102
}
330
9A
100
AcDbXrecord
 90
        0
  0
XRECORD
  5
9F
102
{ACAD_REACTORS
330
9A
102
}
330
9A
100
AcDbXrecord
340
97
  0
XRECORD
  5
A0
102
{ACAD_REACTORS
330
9A
102
}
330
9A
100
AcDbXrecord
 90
    10781
  0
XRECORD
  5
A5
102
{ACAD_REACTORS
330
9A
102
}
330
9A
100
AcDbXrecord
 40
0.0
  0
XRECORD
  5
A8
102
{ACAD_REACTORS
330
9A
102
}
330
9A
100
AcDbXrecord
340
0
  0
XRECORD
  5
AE
102
{ACAD_REACTORS
330
9A
102
}
330
9A
100
AcDbXrecord
 10
0.0
 20
0.0
 30
0.0
  0
XRECORD
  5
AA
102
{ACAD_REACTORS
330
9A
102
}
330
9A
100
AcDbXrecord
 10
0.0
 20
0.0
 30
0.0
  0
XRECORD
  5
AD
102
{ACAD_REACTORS
330
9A
102
}
330
9A
100
AcDbXrecord
 10
0.0
 20
0.0
 30
0.0
  0
XRECORD
  5
AB
102
{ACAD_REACTORS
330
9A
102
}
330
9A
100
AcDbXrecord
 10
0.0
 20
0.0
 30
0.0
  0
XRECORD
  5
AC
102
{ACAD_REACTORS
330
9A
102
}
330
9A
100
AcDbXrecord
 10
0.0
 20
0.0
 30
0.0
  0
XRECORD
  5
A9
102
{ACAD_REACTORS
330
9A
102
}
330
9A
100
AcDbXrecord
 10
0.0
 20
0.0
 30
0.0
  0
XRECORD
  5
A6
102
{ACAD_REACTORS
330
9A
102
}
330
9A
100
AcDbXrecord
340
0
  0
XRECORD
  5
A7
102
{ACAD_REACTORS
330
9A
102
}
330
9A
100
AcDbXrecord
 70
     0
  0
XRECORD
  5
9E
102
{ACAD_REACTORS
330
9A
102
}
330
9A
100
AcDbXrecord
  1

  0
XRECORD
  5
9B
102
{ACAD_REACTORS
330
9A
102
}
330
9A
100
AcDbXrecord
 90
        1
  0
XRECORD
  5
9C
102
{ACAD_REACTORS
330
9A
102
}
330
9A
100
AcDbXrecord
 90
       70
  0
XRECORD
  5
B1
102
{ACAD_REACTORS
330
9A
102
}
330
9A
100
AcDbXrecord
340
0
  0
XRECORD
  5
B7
102
{ACAD_REACTORS
330
9A
102
}
330
9A
100
AcDbXrecord
 10
0.0
 20
0.0
 30
0.0
  0
XRECORD
  5
B3
102
{ACAD_REACTORS
330
9A
102
}
330
9A
100
AcDbXrecord
 10
0.0
 20
0.0
 30
0.0
  0
XRECORD
  5
B6
102
{ACAD_REACTORS
330
9A
102
}
330
9A
100
AcDbXrecord
 10
0.0
 20
0.0
 30
0.0
  0
XRECORD
  5
B4
102
{ACAD_REACTORS
330
9A
102
}
330
9A
100
AcDbXrecord
 10
0.0
 20
0.0
 30
0.0
  0
XRECORD
  5
B5
102
{ACAD_REACTORS
330
9A
102
}
330
9A
100
AcDbXrecord
 10
0.0
 20
0.0
 30
0.0
  0
XRECORD
  5
B2
102
{ACAD_REACTORS
330
9A
102
}
330
9A
100
AcDbXrecord
 10
0.0
 20
0.0
 30
0.0
  0
XRECORD
  5
AF
102
{ACAD_REACTORS
330
9A
102
}
330
9A
100
AcDbXrecord
340
0
  0
XRECORD
  5
B0
102
{ACAD_REACTORS
330
9A
102
}
330
9A
100
AcDbXrecord
 70
     0
  0
XRECORD
  5
A4
102
{ACAD_REACTORS
330
9A
102
}
330
9A
100
AcDbXrecord
  1
{FAEB1C32-E019-11D5-929B-00C0DF256EC4}
  0
ENDSEC
  0
EOF
