  0
SECTION
  2
HEADER
  9
$ACADVER
  1
AC1009
  9
$DWGCODEPAGE
  3
ansi_1252
  9
$INSBASE
 10
0.0
 20
0.0
 30
0.0
  9
$EXTMIN
 10
-93.2
 20
-135.29591
 30
0.0
  9
$EXTMAX
 10
93.2
 20
135.29591
 30
0.0
  9
$LIMMIN
 10
0.0
 20
0.0
  9
$LIMMAX
 10
12.0
 20
9.0
  9
$ORTHOMODE
 70
     0
  9
$REGENMODE
 70
     1
  9
$FILLMODE
 70
     1
  9
$QTEXTMODE
 70
     0
  9
$MIRRTEXT
 70
     1
  9
$DRAGMODE
 70
     2
  9
$LTSCALE
 40
0.982115
  9
$OSMODE
 70
    37
  9
$ATTMODE
 70
     1
  9
$TEXTSIZE
 40
0.2
  9
$TRACEWID
 40
0.05
  9
$TEXTSTYLE
  7
STANDARD
  9
$CLAYER
  8
0
  9
$CELTYPE
  6
BYBLOCK
  9
$CECOLOR
 62
   256
  9
$DIMSCALE
 40
1.0
  9
$DIMASZ
 40
0.18
  9
$DIMEXO
 40
0.0625
  9
$DIMDLI
 40
0.38
  9
$DIMRND
 40
0.0
  9
$DIMDLE
 40
0.0
  9
$DIMEXE
 40
0.18
  9
$DIMTP
 40
0.0
  9
$DIMTM
 40
0.0
  9
$DIMTXT
 40
0.18
  9
$DIMCEN
 40
0.09
  9
$DIMTSZ
 40
0.0
  9
$DIMTOL
 70
     0
  9
$DIMLIM
 70
     0
  9
$DIMTIH
 70
     1
  9
$DIMTOH
 70
     1
  9
$DIMSE1
 70
     0
  9
$DIMSE2
 70
     0
  9
$DIMTAD
 70
     0
  9
$DIMZIN
 70
     0
  9
$DIMBLK
  1

  9
$DIMASO
 70
     1
  9
$DIMSHO
 70
     1
  9
$DIMPOST
  1

  9
$DIMAPOST
  1

  9
$DIMALT
 70
     0
  9
$DIMALTD
 70
     2
  9
$DIMALTF
 40
25.4
  9
$DIMLFAC
 40
1.0
  9
$DIMTOFL
 70
     0
  9
$DIMTVP
 40
0.0
  9
$DIMTIX
 70
     0
  9
$DIMSOXD
 70
     0
  9
$DIMSAH
 70
     0
  9
$DIMBLK1
  1

  9
$DIMBLK2
  1

  9
$DIMSTYLE
  2
STANDARD
  9
$DIMCLRD
 70
     0
  9
$DIMCLRE
 70
     0
  9
$DIMCLRT
 70
     0
  9
$DIMTFAC
 40
1.0
  9
$DIMGAP
 40
0.09
  9
$LUNITS
 70
     2
  9
$LUPREC
 70
     4
  9
$SKETCHINC
 40
0.1
  9
$FILLETRAD
 40
0.5
  9
$AUNITS
 70
     0
  9
$AUPREC
 70
     0
  9
$MENU
  1
.
  9
$ELEVATION
 40
0.0
  9
$PELEVATION
 40
0.0
  9
$THICKNESS
 40
0.0
  9
$LIMCHECK
 70
     0
  9
$CHAMFERA
 40
0.5
  9
$CHAMFERB
 40
0.5
  9
$SKPOLY
 70
     0
  9
$TDCREATE
 40
2453619.496007408
  9
$TDUPDATE
 40
2453619.496007419
  9
$TDINDWG
 40
0.0000000116
  9
$TDUSRTIMER
 40
0.0000000116
  9
$USRTIMER
 70
     1
  9
$ANGBASE
 50
0.0
  9
$ANGDIR
 70
     0
  9
$PDMODE
 70
     0
  9
$PDSIZE
 40
0.0
  9
$PLINEWID
 40
0.0
  9
$COORDS
 70
     1
  9
$SPLFRAME
 70
     0
  9
$SPLINETYPE
 70
     6
  9
$SPLINESEGS
 70
     8
  9
$ATTDIA
 70
     0
  9
$ATTREQ
 70
     1
  9
$HANDLING
 70
     1
  9
$HANDSEED
  5
197
  9
$SURFTAB1
 70
     6
  9
$SURFTAB2
 70
     6
  9
$SURFTYPE
 70
     6
  9
$SURFU
 70
     6
  9
$SURFV
 70
     6
  9
$UCSNAME
  2

  9
$UCSORG
 10
0.0
 20
0.0
 30
0.0
  9
$UCSXDIR
 10
1.0
 20
0.0
 30
0.0
  9
$UCSYDIR
 10
0.0
 20
1.0
 30
0.0
  9
$PUCSNAME
  2

  9
$PUCSORG
 10
0.0
 20
0.0
 30
0.0
  9
$PUCSXDIR
 10
1.0
 20
0.0
 30
0.0
  9
$PUCSYDIR
 10
0.0
 20
1.0
 30
0.0
  9
$USERI1
 70
     0
  9
$USERI2
 70
     0
  9
$USERI3
 70
     0
  9
$USERI4
 70
     0
  9
$USERI5
 70
     0
  9
$USERR1
 40
0.0
  9
$USERR2
 40
0.0
  9
$USERR3
 40
0.0
  9
$USERR4
 40
0.0
  9
$USERR5
 40
0.0
  9
$WORLDVIEW
 70
     1
  9
$SHADEDGE
 70
     3
  9
$SHADEDIF
 70
    70
  9
$TILEMODE
 70
     1
  9
$MAXACTVP
 70
    64
  9
$PLIMCHECK
 70
     0
  9
$PEXTMIN
 10
1.000000000000000E+20
 20
1.000000000000000E+20
 30
1.000000000000000E+20
  9
$PEXTMAX
 10
-1.000000000000000E+20
 20
-1.000000000000000E+20
 30
-1.000000000000000E+20
  9
$PLIMMIN
 10
0.0
 20
0.0
  9
$PLIMMAX
 10
12.0
 20
9.0
  9
$UNITMODE
 70
     0
  9
$VISRETAIN
 70
     1
  9
$PLINEGEN
 70
     0
  9
$PSLTSCALE
 70
     1
  0
ENDSEC
  0
SECTION
  2
TABLES
  0
TABLE
  2
VPORT
 70
     1
  0
VPORT
  2
*ACTIVE
 70
     0
 10
0.0
 20
0.0
 11
1.0
 21
1.0
 12
10.42990654205607
 22
4.5
 13
0.0
 23
0.0
 14
0.5
 24
0.5
 15
0.5
 25
0.5
 16
0.0
 26
0.0
 36
1.0
 17
0.0
 27
0.0
 37
0.0
 40
9.0
 41
1.972972972850329
 42
50.0
 43
0.0
 44
0.0
 50
0.0
 51
0.0
 71
     0
 72
   100
 73
     1
 74
     3
 75
     0
 76
     0
 77
     0
 78
     0
  0
ENDTAB
  0
TABLE
  2
LTYPE
 70
     9
  0
LTYPE
  2
CONTINUOUS
 70
     0
  3
Solid Line
 72
    65
 73
     0
 40
0.0
  0
LTYPE
  2
MCDASH1
 70
     0
  3
MiniCad+ Generated
 72
    65
 73
     2
 40
3.818372
 49
2.545581
 49
-1.272791
  0
LTYPE
  2
MCDASH2
 70
     0
  3
MiniCad+ Generated
 72
    65
 73
     2
 40
3.527692
 49
2.469229
 49
-1.058463
  0
LTYPE
  2
MCDASH3
 70
     0
  3
MiniCad+ Generated
 72
    65
 73
     2
 40
6.35
 49
5.291537
 49
-1.058463
  0
LTYPE
  2
MCDASH4
 70
     0
  3
MiniCad+ Generated
 72
    65
 73
     2
 40
7.760767
 49
6.702692
 49
-1.058075
  0
LTYPE
  2
MCDASH5
 70
     0
  3
MiniCad+ Generated
 72
    65
 73
     2
 40
1.058075
 49
0.352692
 49
-0.705383
  0
LTYPE
  2
MCDASH6
 70
     0
  3
MiniCad+ Generated
 72
    65
 73
     4
 40
5.291538
 49
3.175
 49
-1.058075
 49
0.352692
 49
-0.705771
  0
LTYPE
  2
MCDASH7
 70
     0
  3
MiniCad+ Generated
 72
    65
 73
     6
 40
9.525001
 49
3.175
 49
-1.058075
 49
3.175
 49
-1.058463
 49
0.352692
 49
-0.705771
  0
LTYPE
  2
MCDASH8
 70
     0
  3
MiniCad+ Generated
 72
    65
 73
     6
 40
6.350001000000001
 49
3.175
 49
-1.058075
 49
0.352692
 49
-0.705771
 49
0.352692
 49
-0.705771
  0
ENDTAB
  0
TABLE
  2
LAYER
 70
     4
  0
LAYER
  2
0
 70
     0
 62
     7
  6
CONTINUOUS
  0
LAYER
  2
PROFILI
 70
     0
 62
     7
  6
CONTINUOUS
  0
LAYER
  2
FISSAGGI
 70
     0
 62
     2
  6
CONTINUOUS
  0
LAYER
  2
PANNELLI
 70
     0
 62
     6
  6
CONTINUOUS
  0
ENDTAB
  0
TABLE
  2
STYLE
 70
     1
  0
STYLE
  2
STANDARD
 70
     0
 40
0.0
 41
1.0
 50
0.0
 71
     0
 42
0.2
  3
txt
  4

  0
ENDTAB
  0
TABLE
  2
VIEW
 70
     0
  0
ENDTAB
  0
TABLE
  2
UCS
 70
     0
  0
ENDTAB
  0
TABLE
  2
APPID
 70
     1
  0
APPID
  2
ACAD
 70
     0
  0
ENDTAB
  0
TABLE
  2
DIMSTYLE
 70
     1
  0
DIMSTYLE
  2
STANDARD
 70
     0
  3

  4

  5

  6

  7

 40
1.0
 41
0.18
 42
0.0625
 43
0.38
 44
0.18
 45
0.0
 46
0.0
 47
0.0
 48
0.0
140
0.18
141
0.09
142
0.0
143
25.4
144
1.0
145
0.0
146
1.0
147
0.09
 71
     0
 72
     0
 73
     1
 74
     1
 75
     0
 76
     0
 77
     0
 78
     0
170
     0
171
     2
172
     0
173
     0
174
     0
175
     0
176
     0
177
     0
178
     0
  0
ENDTAB
  0
ENDSEC
  0
SECTION
  2
BLOCKS
  0
BLOCK
  8
0
  2
$MODEL_SPACE
 70
     0
 10
0.0
 20
0.0
 30
0.0
  3
$MODEL_SPACE
  1

  0
ENDBLK
  5
192
  8
0
  0
BLOCK
 67
     1
  8
0
  2
$PAPER_SPACE
 70
     0
 10
0.0
 20
0.0
 30
0.0
  3
$PAPER_SPACE
  1

  0
ENDBLK
  5
190
 67
     1
  8
0
  0
BLOCK
  8
0
  2
$ARROW1$
 70
     0
 10
0.0
 20
0.0
 30
0.0
  3
$ARROW1$
  1

  0
POLYLINE
  5
30
  8
0
 62
     6
 66
     1
 10
0.0
 20
0.0
 30
0.0
 70
     1
  0
VERTEX
  5
F2
  8
0
 62
     6
 10
-25.4
 20
4.318
 30
0.0
  0
VERTEX
  5
F3
  8
0
 62
     6
 10
-25.4
 20
-4.318
 30
0.0
  0
VERTEX
  5
F4
  8
0
 62
     6
 10
0.0
 20
0.0
 30
0.0
  0
SEQEND
  5
178
  8
0
 62
     6
  0
ENDBLK
  5
17A
  8
0
  0
BLOCK
  8
0
  2
$ARROW2$
 70
     0
 10
0.0
 20
0.0
 30
0.0
  3
$ARROW2$
  1

  0
POLYLINE
  5
38
  8
0
 62
     6
 66
     1
 10
0.0
 20
0.0
 30
0.0
 70
     1
  0
VERTEX
  5
F6
  8
0
 62
     6
 10
-25.4
 20
12.7
 30
0.0
  0
VERTEX
  5
F7
  8
0
 62
     6
 10
-25.4
 20
-12.7
 30
0.0
  0
VERTEX
  5
F8
  8
0
 62
     6
 10
0.0
 20
0.0
 30
0.0
  0
SEQEND
  5
17B
  8
0
 62
     6
  0
ENDBLK
  5
17D
  8
0
  0
BLOCK
  8
0
  2
$ARROW3$
 70
     0
 10
0.0
 20
0.0
 30
0.0
  3
$ARROW3$
  1

  0
POLYLINE
  5
40
  8
0
 62
     6
 66
     1
 10
0.0
 20
0.0
 30
0.0
 70
     1
 40
0.498914
 41
0.498914
  0
VERTEX
  5
FA
  8
0
 62
     6
 10
-6.35
 20
0.0
 30
0.0
  0
VERTEX
  5
FB
  8
0
 62
     6
 10
-6.2535
 20
-1.10284
 30
0.0
  0
VERTEX
  5
FC
  8
0
 62
     6
 10
-5.96699
 20
-2.17198
 30
0.0
  0
VERTEX
  5
FD
  8
0
 62
     6
 10
-5.49919
 20
-3.17512
 30
0.0
  0
VERTEX
  5
FE
  8
0
 62
     6
 10
-4.86431
 20
-4.08179
 30
0.0
  0
VERTEX
  5
FF
  8
0
 62
     6
 10
-4.08164
 20
-4.86443
 30
0.0
  0
VERTEX
  5
100
  8
0
 62
     6
 10
-3.17496
 20
-5.49929
 30
0.0
  0
VERTEX
  5
101
  8
0
 62
     6
 10
-2.17179
 20
-5.96706
 30
0.0
  0
VERTEX
  5
102
  8
0
 62
     6
 10
-1.10264
 20
-6.25353
 30
0.0
  0
VERTEX
  5
103
  8
0
 62
     6
 10
0.0001
 20
-6.35
 30
0.0
  0
VERTEX
  5
104
  8
0
 62
     6
 10
0.0
 20
-6.35
 30
0.0
  0
VERTEX
  5
105
  8
0
 62
     6
 10
1.10274
 20
-6.25352
 30
0.0
  0
VERTEX
  5
106
  8
0
 62
     6
 10
2.17188
 20
-5.96703
 30
0.0
  0
VERTEX
  5
107
  8
0
 62
     6
 10
3.17504
 20
-5.49924
 30
0.0
  0
VERTEX
  5
108
  8
0
 62
     6
 10
4.08172
 20
-4.86437
 30
0.0
  0
VERTEX
  5
109
  8
0
 62
     6
 10
4.86443
 20
-4.08164
 30
0.0
  0
VERTEX
  5
10A
  8
0
 62
     6
 10
5.49929
 20
-3.17496
 30
0.0
  0
VERTEX
  5
10B
  8
0
 62
     6
 10
5.96706
 20
-2.17179
 30
0.0
  0
VERTEX
  5
10C
  8
0
 62
     6
 10
6.25353
 20
-1.10264
 30
0.0
  0
VERTEX
  5
10D
  8
0
 62
     6
 10
6.35
 20
0.0
 30
0.0
  0
VERTEX
  5
10E
  8
0
 62
     6
 10
6.25353
 20
1.10264
 30
0.0
  0
VERTEX
  5
10F
  8
0
 62
     6
 10
5.96703
 20
2.17188
 30
0.0
  0
VERTEX
  5
110
  8
0
 62
     6
 10
5.49924
 20
3.17504
 30
0.0
  0
VERTEX
  5
111
  8
0
 62
     6
 10
4.86437
 20
4.08172
 30
0.0
  0
VERTEX
  5
112
  8
0
 62
     6
 10
4.08172
 20
4.86437
 30
0.0
  0
VERTEX
  5
113
  8
0
 62
     6
 10
3.17504
 20
5.49924
 30
0.0
  0
VERTEX
  5
114
  8
0
 62
     6
 10
2.17179
 20
5.96706
 30
0.0
  0
VERTEX
  5
115
  8
0
 62
     6
 10
1.10264
 20
6.25353
 30
0.0
  0
VERTEX
  5
116
  8
0
 62
     6
 10
0.0
 20
6.35
 30
0.0
  0
VERTEX
  5
117
  8
0
 62
     6
 10
-1.10264
 20
6.25353
 30
0.0
  0
VERTEX
  5
118
  8
0
 62
     6
 10
-2.17188
 20
5.96703
 30
0.0
  0
VERTEX
  5
119
  8
0
 62
     6
 10
-3.17504
 20
5.49924
 30
0.0
  0
VERTEX
  5
11A
  8
0
 62
     6
 10
-4.08172
 20
4.86437
 30
0.0
  0
VERTEX
  5
11B
  8
0
 62
     6
 10
-4.86437
 20
4.08172
 30
0.0
  0
VERTEX
  5
11C
  8
0
 62
     6
 10
-5.49929
 20
3.17496
 30
0.0
  0
VERTEX
  5
11D
  8
0
 62
     6
 10
-5.96706
 20
2.17179
 30
0.0
  0
VERTEX
  5
11E
  8
0
 62
     6
 10
-6.25353
 20
1.10264
 30
0.0
  0
VERTEX
  5
11F
  8
0
 62
     6
 10
-6.35
 20
0.0
 30
0.0
  0
SEQEND
  5
17E
  8
0
 62
     6
  0
ENDBLK
  5
180
  8
0
  0
BLOCK
  8
0
  2
$ARROW4$
 70
     0
 10
0.0
 20
0.0
 30
0.0
  3
$ARROW4$
  1

  0
LINE
  5
6B
  8
0
 10
12.7
 20
12.7
 30
0.0
 11
-12.7
 21
-12.7
 31
0.0
  0
ENDBLK
  5
182
  8
0
  0
BLOCK
  8
0
  2
$ARROW5$
 70
     0
 10
0.0
 20
0.0
 30
0.0
  3
$ARROW5$
  1

  0
LINE
  5
6F
  8
0
 10
12.7
 20
12.7
 30
0.0
 11
-12.7
 21
-12.7
 31
0.0
  0
LINE
  5
70
  8
0
 10
-12.7
 20
12.7
 30
0.0
 11
12.7
 21
-12.7
 31
0.0
  0
ENDBLK
  5
184
  8
0
  0
BLOCK
  8
0
  2
BORDER
 70
     0
 10
0.0
 20
0.0
 30
0.0
  3
BORDER
  1

  0
LINE
  5
74
  8
0
 62
     6
 10
0.0
 20
0.0
 30
0.0
 11
1.0
 21
0.0
 31
0.0
  0
LINE
  5
75
  8
0
 62
     6
 10
1.0
 20
0.0
 30
0.0
 11
1.0
 21
1.0
 31
0.0
  0
LINE
  5
76
  8
0
 62
     6
 10
1.0
 20
1.0
 30
0.0
 11
0.0
 21
1.0
 31
0.0
  0
LINE
  5
77
  8
0
 62
     6
 10
0.0
 20
1.0
 30
0.0
 11
0.0
 21
0.0
 31
0.0
  0
ENDBLK
  5
186
  8
0
  0
BLOCK
  8
0
  2
137A
 70
     0
 10
0.0
 20
0.0
 30
0.0
  3
137A
  1

  0
POLYLINE
  5
7B
  8
0
 62
     3
 66
     1
 10
0.0
 20
0.0
 30
0.0
 70
     1
  0
VERTEX
  5
121
  8
0
 62
     3
 10
-15.90709
 20
33.57089
 30
0.0
  0
VERTEX
  5
122
  8
0
 62
     3
 10
-18.22848
 20
37.59166
 30
0.0
  0
VERTEX
  5
123
  8
0
 62
     3
 10
-22.87126
 20
37.59166
 30
0.0
  0
VERTEX
  5
124
  8
0
 62
     3
 10
-25.19265
 20
33.57089
 30
0.0
  0
VERTEX
  5
125
  8
0
 62
     3
 10
-22.87126
 20
29.55013
 30
0.0
  0
VERTEX
  5
126
  8
0
 62
     3
 10
-18.22848
 20
29.55013
 30
0.0
  0
SEQEND
  5
187
  8
0
 62
     3
  0
POLYLINE
  5
83
  8
0
 62
     3
 66
     1
 10
0.0
 20
0.0
 30
0.0
  0
VERTEX
  5
128
  8
0
 62
     3
 10
20.52978
 20
36.10269
 30
0.0
  0
VERTEX
  5
129
  8
0
 62
     3
 10
20.96796
 20
36.06801
 30
0.0
  0
VERTEX
  5
12A
  8
0
 62
     3
 10
21.39358
 20
35.95805
 30
0.0
  0
VERTEX
  5
12B
  8
0
 62
     3
 10
21.79374
 20
35.77615
 30
0.0
  0
VERTEX
  5
12C
  8
0
 62
     3
 10
22.15643
 20
35.52777
 30
0.0
  0
VERTEX
  5
12D
  8
0
 62
     3
 10
22.47067
 20
35.22042
 30
0.0
  0
VERTEX
  5
12E
  8
0
 62
     3
 10
22.72701
 20
34.86335
 30
0.0
  0
VERTEX
  5
12F
  8
0
 62
     3
 10
22.91775
 20
34.46729
 30
0.0
  0
VERTEX
  5
130
  8
0
 62
     3
 10
23.0371
 20
34.04424
 30
0.0
  0
VERTEX
  5
131
  8
0
 62
     3
 10
23.08148
 20
33.60693
 30
0.0
  0
VERTEX
  5
132
  8
0
 62
     3
 10
23.04956
 20
33.1685
 30
0.0
  0
VERTEX
  5
133
  8
0
 62
     3
 10
22.94229
 20
32.74223
 30
0.0
  0
VERTEX
  5
134
  8
0
 62
     3
 10
22.7629
 20
32.3409
 30
0.0
  0
VERTEX
  5
135
  8
0
 62
     3
 10
22.51682
 20
31.97669
 30
0.0
  0
VERTEX
  5
136
  8
0
 62
     3
 10
22.21146
 20
31.66053
 30
0.0
  0
VERTEX
  5
137
  8
0
 62
     3
 10
21.85598
 20
31.40191
 30
0.0
  0
VERTEX
  5
138
  8
0
 62
     3
 10
21.46117
 20
31.20871
 30
0.0
  0
VERTEX
  5
139
  8
0
 62
     3
 10
21.03888
 20
31.08669
 30
0.0
  0
VERTEX
  5
13A
  8
0
 62
     3
 10
20.60182
 20
31.03955
 30
0.0
  0
VERTEX
  5
13B
  8
0
 62
     3
 10
20.16323
 20
31.06871
 30
0.0
  0
VERTEX
  5
13C
  8
0
 62
     3
 10
19.73626
 20
31.1733
 30
0.0
  0
VERTEX
  5
13D
  8
0
 62
     3
 10
19.33385
 20
31.35015
 30
0.0
  0
VERTEX
  5
13E
  8
0
 62
     3
 10
18.96809
 20
31.59393
 30
0.0
  0
VERTEX
  5
13F
  8
0
 62
     3
 10
18.64998
 20
31.89732
 30
0.0
  0
VERTEX
  5
140
  8
0
 62
     3
 10
18.38916
 20
32.25113
 30
0.0
  0
VERTEX
  5
141
  8
0
 62
     3
 10
18.19347
 20
32.64472
 30
0.0
  0
VERTEX
  5
142
  8
0
 62
     3
 10
18.06878
 20
33.06629
 30
0.0
  0
SEQEND
  5
188
  8
0
 62
     3
  0
CIRCLE
  5
A0
  8
0
 62
     3
 10
20.54987
 20
33.57089
 30
0.0
 40
2.8571
  0
CIRCLE
  5
A1
  8
0
 62
     3
 10
20.549875
 20
33.570895
 30
0.0
 40
5.714195
  0
CIRCLE
  5
A2
  8
0
 62
     3
 10
-20.549875
 20
33.570895
 30
0.0
 40
5.714195
  0
LINE
  5
A3
  8
0
 62
     3
 10
-22.28536
 20
14.99976
 30
0.0
 11
22.28536
 21
14.99976
 31
0.0
  0
LINE
  5
A4
  8
0
 62
     3
 10
22.28536
 20
14.99976
 30
0.0
 11
22.28536
 21
0.0
 31
0.0
  0
LINE
  5
A5
  8
0
 62
     3
 10
29.99952
 20
22.1425
 30
0.0
 11
22.28536
 21
14.99976
 31
0.0
  0
LINE
  5
A6
  8
0
 62
     3
 10
29.99952
 20
91.0017
 30
0.0
 11
29.99952
 21
22.1425
 31
0.0
  0
LINE
  5
A7
  8
0
 62
     3
 10
-29.99952
 20
91.0017
 30
0.0
 11
-29.99952
 21
22.1425
 31
0.0
  0
LINE
  5
A8
  8
0
 62
     3
 10
-29.99952
 20
22.1425
 30
0.0
 11
-22.28536
 21
14.99976
 31
0.0
  0
LINE
  5
A9
  8
0
 62
     3
 10
-22.28536
 20
14.99976
 30
0.0
 11
-22.28536
 21
0.0
 31
0.0
  0
LINE
  5
AA
  8
0
  6
MCDASH1
 10
-13.4479
 20
38.0
 30
0.0
 11
-13.4479
 21
0.0
 31
0.0
  0
LINE
  5
AB
  8
0
  6
MCDASH1
 10
13.4479
 20
38.0
 30
0.0
 11
13.4479
 21
0.0
 31
0.0
  0
LINE
  5
AC
  8
0
  6
MCDASH1
 10
-13.4479
 20
38.0
 30
0.0
 11
13.4479
 21
38.0
 31
0.0
  0
LINE
  5
AD
  8
0
 62
     3
 10
-29.99952
 20
22.1425
 30
0.0
 11
29.99952
 21
22.1425
 31
0.0
  0
LINE
  5
AE
  8
0
 62
     3
 10
-29.99952
 20
91.0017
 30
0.0
 11
29.99952
 21
91.0017
 31
0.0
  0
LINE
  5
AF
  8
0
 62
     3
 10
-22.28536
 20
0.0
 30
0.0
 11
22.28536
 21
0.0
 31
0.0
  0
LINE
  5
B0
  8
0
  6
MCDASH1
 10
-29.99952
 20
77.85169999999999
 30
0.0
 11
29.99952
 21
77.85169999999999
 31
0.0
  0
LINE
  5
B1
  8
0
  6
MCDASH1
 10
-29.99952
 20
44.1517
 30
0.0
 11
29.99952
 21
44.1517
 31
0.0
  0
ENDBLK
  5
18A
  8
0
  0
BLOCK
  8
0
  2
137B
 70
     0
 10
0.0
 20
0.0
 30
0.0
  3
137B
  1

  0
LINE
  5
B5
  8
0
 62
     3
 10
-2.14294
 20
-16.6804
 30
0.0
 11
-2.14294
 21
-60.99439
 31
0.0
  0
LINE
  5
B6
  8
0
 62
     3
 10
2.14294
 20
-16.6804
 30
0.0
 11
2.14294
 21
-60.99439
 31
0.0
  0
LINE
  5
B7
  8
0
 62
     3
 10
2.14294
 20
30.00439
 30
0.0
 11
2.14294
 21
17.05802
 31
0.0
  0
LINE
  5
B8
  8
0
 62
     3
 10
-2.14294
 20
30.00439
 30
0.0
 11
-2.14294
 21
17.05802
 31
0.0
  0
LINE
  5
B9
  8
0
 62
     3
 10
2.14294
 20
30.00439
 30
0.0
 11
9.46463
 21
30.00439
 31
0.0
  0
LINE
  5
BA
  8
0
 62
     3
 10
2.14294
 20
-60.99439
 30
0.0
 11
23.28662
 21
-60.99439
 31
0.0
  0
LINE
  5
BB
  8
0
 62
     3
 10
-2.14294
 20
-58.85144
 30
0.0
 11
2.14294
 21
-58.85144
 31
0.0
  0
LINE
  5
BC
  8
0
 62
     3
 10
-2.14294
 20
27.86144
 30
0.0
 11
2.14294
 21
27.86144
 31
0.0
  0
ARC
  5
BD
  8
0
 62
     3
 10
-9.46463
 20
8.4678
 30
0.0
 40
21.53659
 50
90.0
 51
180.0
  0
ARC
  5
BE
  8
0
 62
     3
 10
9.46463
 20
8.4678
 30
0.0
 40
21.53659
 50
0.0
 51
90.0
  0
CIRCLE
  5
BF
  8
0
 62
     3
 10
-0.33896
 20
0.00213
 30
0.0
 40
16.85
  0
LINE
  5
C0
  8
0
 62
     3
 10
-23.28662
 20
-60.99439
 30
0.0
 11
-2.14294
 21
-60.99439
 31
0.0
  0
LINE
  5
C1
  8
0
 62
     3
 10
-30.00122
 20
-38.85063
 30
0.0
 11
30.00122
 21
-38.85063
 31
0.0
  0
LINE
  5
C2
  8
0
  6
MCDASH1
 10
-13.45
 20
-22.99439
 30
0.0
 11
13.45
 21
-22.99439
 31
0.0
  0
LINE
  5
C3
  8
0
  6
MCDASH1
 10
13.45
 20
-22.99439
 30
0.0
 11
13.45
 21
-60.99439
 31
0.0
  0
LINE
  5
C4
  8
0
 62
     3
 10
-23.28662
 20
-45.99378
 30
0.0
 11
-23.28662
 21
-60.99439
 31
0.0
  0
LINE
  5
C5
  8
0
 62
     3
 10
-31.00122
 20
-38.85063
 30
0.0
 11
-23.28662
 21
-45.99378
 31
0.0
  0
LINE
  5
C6
  8
0
 62
     3
 10
31.00122
 20
-38.85063
 30
0.0
 11
23.28662
 21
-45.99378
 31
0.0
  0
LINE
  5
C7
  8
0
 62
     3
 10
23.28662
 20
-45.99378
 30
0.0
 11
23.28662
 21
-60.99439
 31
0.0
  0
LINE
  5
C8
  8
0
 62
     3
 10
-23.28662
 20
-45.99378
 30
0.0
 11
23.28662
 21
-45.99378
 31
0.0
  0
LINE
  5
C9
  8
0
 62
     3
 10
-9.46496
 20
30.00439
 30
0.0
 11
-2.14294
 21
30.00439
 31
0.0
  0
LINE
  5
CA
  8
0
 62
     3
 10
-31.00122
 20
-38.85063
 30
0.0
 11
-31.00122
 21
8.467470000000001
 31
0.0
  0
LINE
  5
CB
  8
0
 62
     3
 10
31.00122
 20
-38.85063
 30
0.0
 11
31.00122
 21
8.4678
 31
0.0
  0
LINE
  5
CC
  8
0
  6
MCDASH1
 10
-13.45
 20
-22.99439
 30
0.0
 11
-13.45
 21
-60.99439
 31
0.0
  0
ENDBLK
  5
18C
  8
0
  0
BLOCK
  8
0
  2
137C
 70
     0
 10
0.0
 20
0.0
 30
0.0
  3
137C
  1

  0
LINE
  5
D0
  8
0
 62
     3
 10
30.00122
 20
2.14294
 30
0.0
 11
30.00122
 21
31.00122
 31
0.0
  0
LINE
  5
D1
  8
0
 62
     3
 10
-30.00122
 20
2.14294
 30
0.0
 11
-30.00122
 21
31.00122
 31
0.0
  0
LINE
  5
D2
  8
0
 62
     3
 10
27.85828
 20
-2.14294
 30
0.0
 11
27.85828
 21
2.14294
 31
0.0
  0
LINE
  5
D3
  8
0
 62
     3
 10
-27.85828
 20
-2.14294
 30
0.0
 11
-27.85828
 21
2.14294
 31
0.0
  0
LINE
  5
D4
  8
0
 62
     3
 10
-30.00122
 20
2.14294
 30
0.0
 11
30.00122
 21
2.14294
 31
0.0
  0
LINE
  5
D5
  8
0
 62
     3
 10
-30.00122
 20
-2.14294
 30
0.0
 11
30.00122
 21
-2.14294
 31
0.0
  0
LINE
  5
D6
  8
0
 62
     3
 10
30.00122
 20
-31.00122
 30
0.0
 11
30.00122
 21
-2.14294
 31
0.0
  0
LINE
  5
D7
  8
0
 62
     3
 10
-30.00122
 20
-31.00122
 30
0.0
 11
-30.00122
 21
-2.14294
 31
0.0
  0
LINE
  5
D8
  8
0
 62
     3
 10
-30.00122
 20
31.00122
 30
0.0
 11
30.00122
 21
31.00122
 31
0.0
  0
LINE
  5
D9
  8
0
 62
     3
 10
-30.00122
 20
-31.00122
 30
0.0
 11
30.00122
 21
-31.00122
 31
0.0
  0
CIRCLE
  5
DA
  8
0
  6
MCDASH2
 10
0.0
 20
0.0
 30
0.0
 40
13.45
  0
LINE
  5
DB
  8
0
  6
MCDASH1
 10
-30.00122
 20
16.85
 30
0.0
 11
30.00122
 21
16.85
 31
0.0
  0
LINE
  5
DC
  8
0
  6
MCDASH1
 10
-30.00122
 20
-16.85
 30
0.0
 11
30.00122
 21
-16.85
 31
0.0
  0
ENDBLK
  5
18E
  8
0
  0
ENDSEC
  0
SECTION
  2
ENTITIES
  0
INSERT
  5
DE
  8
0
  2
137A
 10
-48.7436
 20
-12.9998
 30
0.0
  0
INSERT
  5
DF
  8
0
  2
137B
 10
45.31346
 20
47.99459
 30
0.0
  0
INSERT
  5
E0
  8
0
  2
137C
 10
-48.7436
 20
-62.9998
 30
0.0
  0
ENDSEC
  0
EOF
