  0
SECTION
  2
HEADER
  9
$ACADVER
  1
AC1009
  9
$DWGCODEPAGE
  3
ansi_1252
  9
$INSBASE
 10
0.0
 20
0.0
 30
0.0
  9
$EXTMIN
 10
-94.89722
 20
-137.75972
 30
0.0
  9
$EXTMAX
 10
94.89722
 20
137.75972
 30
0.0
  9
$LIMMIN
 10
0.0
 20
0.0
  9
$LIMMAX
 10
12.0
 20
9.0
  9
$ORTHOMODE
 70
     0
  9
$REGENMODE
 70
     1
  9
$FILLMODE
 70
     1
  9
$QTEXTMODE
 70
     0
  9
$MIRRTEXT
 70
     1
  9
$DRAGMODE
 70
     2
  9
$LTSCALE
 40
1.0
  9
$OSMODE
 70
    37
  9
$ATTMODE
 70
     1
  9
$TEXTSIZE
 40
0.2
  9
$TRACEWID
 40
0.05
  9
$TEXTSTYLE
  7
STANDARD
  9
$CLAYER
  8
0
  9
$CELTYPE
  6
BYBLOCK
  9
$CECOLOR
 62
   256
  9
$DIMSCALE
 40
1.0
  9
$DIMASZ
 40
0.18
  9
$DIMEXO
 40
0.0625
  9
$DIMDLI
 40
0.38
  9
$DIMRND
 40
0.0
  9
$DIMDLE
 40
0.0
  9
$DIMEXE
 40
0.18
  9
$DIMTP
 40
0.0
  9
$DIMTM
 40
0.0
  9
$DIMTXT
 40
0.18
  9
$DIMCEN
 40
0.09
  9
$DIMTSZ
 40
0.0
  9
$DIMTOL
 70
     0
  9
$DIMLIM
 70
     0
  9
$DIMTIH
 70
     1
  9
$DIMTOH
 70
     1
  9
$DIMSE1
 70
     0
  9
$DIMSE2
 70
     0
  9
$DIMTAD
 70
     0
  9
$DIMZIN
 70
     0
  9
$DIMBLK
  1

  9
$DIMASO
 70
     1
  9
$DIMSHO
 70
     1
  9
$DIMPOST
  1

  9
$DIMAPOST
  1

  9
$DIMALT
 70
     0
  9
$DIMALTD
 70
     2
  9
$DIMALTF
 40
25.4
  9
$DIMLFAC
 40
1.0
  9
$DIMTOFL
 70
     0
  9
$DIMTVP
 40
0.0
  9
$DIMTIX
 70
     0
  9
$DIMSOXD
 70
     0
  9
$DIMSAH
 70
     0
  9
$DIMBLK1
  1

  9
$DIMBLK2
  1

  9
$DIMSTYLE
  2
STANDARD
  9
$DIMCLRD
 70
     0
  9
$DIMCLRE
 70
     0
  9
$DIMCLRT
 70
     0
  9
$DIMTFAC
 40
1.0
  9
$DIMGAP
 40
0.09
  9
$LUNITS
 70
     2
  9
$LUPREC
 70
     4
  9
$SKETCHINC
 40
0.1
  9
$FILLETRAD
 40
0.5
  9
$AUNITS
 70
     0
  9
$AUPREC
 70
     0
  9
$MENU
  1
.
  9
$ELEVATION
 40
0.0
  9
$PELEVATION
 40
0.0
  9
$THICKNESS
 40
0.0
  9
$LIMCHECK
 70
     0
  9
$CHAMFERA
 40
0.5
  9
$CHAMFERB
 40
0.5
  9
$SKPOLY
 70
     0
  9
$TDCREATE
 40
2453619.496001262
  9
$TDUPDATE
 40
2453619.496001273
  9
$TDINDWG
 40
0.0000000116
  9
$TDUSRTIMER
 40
0.0000000116
  9
$USRTIMER
 70
     1
  9
$ANGBASE
 50
0.0
  9
$ANGDIR
 70
     0
  9
$PDMODE
 70
     0
  9
$PDSIZE
 40
0.0
  9
$PLINEWID
 40
0.0
  9
$COORDS
 70
     1
  9
$SPLFRAME
 70
     0
  9
$SPLINETYPE
 70
     6
  9
$SPLINESEGS
 70
     8
  9
$ATTDIA
 70
     0
  9
$ATTREQ
 70
     1
  9
$HANDLING
 70
     1
  9
$HANDSEED
  5
1589
  9
$SURFTAB1
 70
     6
  9
$SURFTAB2
 70
     6
  9
$SURFTYPE
 70
     6
  9
$SURFU
 70
     6
  9
$SURFV
 70
     6
  9
$UCSNAME
  2

  9
$UCSORG
 10
0.0
 20
0.0
 30
0.0
  9
$UCSXDIR
 10
1.0
 20
0.0
 30
0.0
  9
$UCSYDIR
 10
0.0
 20
1.0
 30
0.0
  9
$PUCSNAME
  2

  9
$PUCSORG
 10
0.0
 20
0.0
 30
0.0
  9
$PUCSXDIR
 10
1.0
 20
0.0
 30
0.0
  9
$PUCSYDIR
 10
0.0
 20
1.0
 30
0.0
  9
$USERI1
 70
     0
  9
$USERI2
 70
     0
  9
$USERI3
 70
     0
  9
$USERI4
 70
     0
  9
$USERI5
 70
     0
  9
$USERR1
 40
0.0
  9
$USERR2
 40
0.0
  9
$USERR3
 40
0.0
  9
$USERR4
 40
0.0
  9
$USERR5
 40
0.0
  9
$WORLDVIEW
 70
     1
  9
$SHADEDGE
 70
     3
  9
$SHADEDIF
 70
    70
  9
$TILEMODE
 70
     1
  9
$MAXACTVP
 70
    64
  9
$PLIMCHECK
 70
     0
  9
$PEXTMIN
 10
1.000000000000000E+20
 20
1.000000000000000E+20
 30
1.000000000000000E+20
  9
$PEXTMAX
 10
-1.000000000000000E+20
 20
-1.000000000000000E+20
 30
-1.000000000000000E+20
  9
$PLIMMIN
 10
0.0
 20
0.0
  9
$PLIMMAX
 10
12.0
 20
9.0
  9
$UNITMODE
 70
     0
  9
$VISRETAIN
 70
     1
  9
$PLINEGEN
 70
     0
  9
$PSLTSCALE
 70
     1
  0
ENDSEC
  0
SECTION
  2
TABLES
  0
TABLE
  2
VPORT
 70
     1
  0
VPORT
  2
*ACTIVE
 70
     0
 10
0.0
 20
0.0
 11
1.0
 21
1.0
 12
10.42990654205607
 22
4.5
 13
0.0
 23
0.0
 14
0.5
 24
0.5
 15
0.5
 25
0.5
 16
0.0
 26
0.0
 36
1.0
 17
0.0
 27
0.0
 37
0.0
 40
9.0
 41
1.972972972850329
 42
50.0
 43
0.0
 44
0.0
 50
0.0
 51
0.0
 71
     0
 72
   100
 73
     1
 74
     3
 75
     0
 76
     0
 77
     0
 78
     0
  0
ENDTAB
  0
TABLE
  2
LTYPE
 70
    10
  0
LTYPE
  2
CONTINUOUS
 70
     0
  3
Solid Line
 72
    65
 73
     0
 40
0.0
  0
LTYPE
  2
MCDASH1
 70
     0
  3
MiniCad+ Generated
 72
    65
 73
     6
 40
8.740551
 49
2.497134
 49
-1.248761
 49
2.497134
 49
-1.248761
 49
0.0
 49
-1.248761
  0
LTYPE
  2
MCDASH2
 70
     0
  3
MiniCad+ Generated
 72
    65
 73
     4
 40
9.989699999999999
 49
6.243417
 49
-1.248761
 49
1.248761
 49
-1.248761
  0
LTYPE
  2
MCDASH3
 70
     0
  3
MiniCad+ Generated
 72
    65
 73
     4
 40
4.994656
 49
2.497134
 49
-1.248761
 49
0.0
 49
-1.248761
  0
LTYPE
  2
MCDASH4
 70
     0
  3
MiniCad+ Generated
 72
    65
 73
     2
 40
3.745895
 49
2.497134
 49
-1.248761
  0
LTYPE
  2
MCDASH5
 70
     0
  3
MiniCad+ Generated
 72
    65
 73
     6
 40
6.243417
 49
2.497134
 49
-1.248761
 49
0.0
 49
-1.248761
 49
0.0
 49
-1.248761
  0
LTYPE
  2
MCDASH6
 70
     0
  3
MiniCad+ Generated
 72
    65
 73
     4
 40
2.497522
 49
0.0
 49
-1.248761
 49
0.0
 49
-1.248761
  0
LTYPE
  2
MCDASH7
 70
     0
  3
MiniCad+ Generated
 72
    65
 73
     2
 40
1.873141
 49
1.248761
 49
-0.6243800000000001
  0
LTYPE
  2
MCDASH8
 70
     0
  3
MiniCad+ Generated
 72
    65
 73
     6
 40
12.487222
 49
6.243417
 49
-1.248761
 49
1.248761
 49
-1.248761
 49
1.248761
 49
-1.248761
  0
LTYPE
  2
MCDASH9
 70
     0
  3
MiniCad+ Generated
 72
    65
 73
     2
 40
4.59158
 49
3.061053
 49
-1.530527
  0
ENDTAB
  0
TABLE
  2
LAYER
 70
     2
  0
LAYER
  2
0
 70
     0
 62
     7
  6
CONTINUOUS
  0
LAYER
  2
1
 70
     0
 62
     7
  6
CONTINUOUS
  0
ENDTAB
  0
TABLE
  2
STYLE
 70
     1
  0
STYLE
  2
STANDARD
 70
     0
 40
0.0
 41
1.0
 50
0.0
 71
     0
 42
0.2
  3
txt
  4

  0
ENDTAB
  0
TABLE
  2
VIEW
 70
     0
  0
ENDTAB
  0
TABLE
  2
UCS
 70
     0
  0
ENDTAB
  0
TABLE
  2
APPID
 70
     1
  0
APPID
  2
ACAD
 70
     0
  0
ENDTAB
  0
TABLE
  2
DIMSTYLE
 70
     1
  0
DIMSTYLE
  2
STANDARD
 70
     0
  3

  4

  5

  6

  7

 40
1.0
 41
0.18
 42
0.0625
 43
0.38
 44
0.18
 45
0.0
 46
0.0
 47
0.0
 48
0.0
140
0.18
141
0.09
142
0.0
143
25.4
144
1.0
145
0.0
146
1.0
147
0.09
 71
     0
 72
     0
 73
     1
 74
     1
 75
     0
 76
     0
 77
     0
 78
     0
170
     0
171
     2
172
     0
173
     0
174
     0
175
     0
176
     0
177
     0
178
     0
  0
ENDTAB
  0
ENDSEC
  0
SECTION
  2
BLOCKS
  0
BLOCK
  8
0
  2
$MODEL_SPACE
 70
     0
 10
0.0
 20
0.0
 30
0.0
  3
$MODEL_SPACE
  1

  0
ENDBLK
  5
1584
  8
0
  0
BLOCK
 67
     1
  8
0
  2
$PAPER_SPACE
 70
     0
 10
0.0
 20
0.0
 30
0.0
  3
$PAPER_SPACE
  1

  0
ENDBLK
  5
1582
 67
     1
  8
0
  0
BLOCK
  8
0
  2
$ARROW1$
 70
     0
 10
0.0
 20
0.0
 30
0.0
  3
$ARROW1$
  1

  0
SOLID
  5
2E
  8
0
 62
     0
 10
-25.4
 20
4.318
 30
0.0
 11
-25.4
 21
-4.318
 31
0.0
 12
0.0
 22
0.0
 32
0.0
 13
0.0
 23
0.0
 33
0.0
  0
ENDBLK
  5
1547
  8
0
  0
BLOCK
  8
0
  2
$ARROW2$
 70
     0
 10
0.0
 20
0.0
 30
0.0
  3
$ARROW2$
  1

  0
SOLID
  5
32
  8
0
 62
     0
 10
-25.4
 20
12.7
 30
0.0
 11
-25.4
 21
-12.7
 31
0.0
 12
0.0
 22
0.0
 32
0.0
 13
0.0
 23
0.0
 33
0.0
  0
ENDBLK
  5
1549
  8
0
  0
BLOCK
  8
0
  2
$ARROW3$
 70
     0
 10
0.0
 20
0.0
 30
0.0
  3
$ARROW3$
  1

  0
POLYLINE
  5
36
  8
0
  6
BYBLOCK
 62
     0
 66
     1
 10
0.0
 20
0.0
 30
0.0
 70
     1
 40
0.5
 41
0.5
  0
VERTEX
  5
C4F
  8
0
  6
BYBLOCK
 62
     0
 10
-6.35
 20
0.0
 30
0.0
 42
1.0
  0
VERTEX
  5
C50
  8
0
  6
BYBLOCK
 62
     0
 10
6.35
 20
0.0
 30
0.0
 42
1.0
  0
SEQEND
  5
154A
  8
0
  6
BYBLOCK
 62
     0
  0
ENDBLK
  5
154C
  8
0
  0
BLOCK
  8
0
  2
$ARROW4$
 70
     0
 10
0.0
 20
0.0
 30
0.0
  3
$ARROW4$
  1

  0
LINE
  5
3D
  8
0
  6
BYBLOCK
 62
     0
 10
12.7
 20
12.7
 30
0.0
 11
-12.7
 21
-12.7
 31
0.0
  0
ENDBLK
  5
154E
  8
0
  0
BLOCK
  8
0
  2
$ARROW5$
 70
     0
 10
0.0
 20
0.0
 30
0.0
  3
$ARROW5$
  1

  0
LINE
  5
41
  8
0
  6
BYBLOCK
 62
     0
 10
12.7
 20
12.7
 30
0.0
 11
-12.7
 21
-12.7
 31
0.0
  0
LINE
  5
42
  8
0
  6
BYBLOCK
 62
     0
 10
-12.7
 20
12.7
 30
0.0
 11
12.7
 21
-12.7
 31
0.0
  0
ENDBLK
  5
1550
  8
0
  0
BLOCK
  8
0
  2
__25
 70
     0
 10
0.0
 20
0.0
 30
0.0
  3
__25
  1

  0
LINE
  5
46
  8
0
 62
     1
 10
-4.1
 20
15.85
 30
0.0
 11
3.9
 21
15.85
 31
0.0
  0
LINE
  5
47
  8
0
 62
     1
 10
-4.1
 20
11.8927
 30
0.0
 11
-4.1
 21
15.85
 31
0.0
  0
LINE
  5
48
  8
0
 62
     1
 10
3.9
 20
11.8927
 30
0.0
 11
3.9
 21
15.85
 31
0.0
  0
ARC
  5
49
  8
0
 62
     1
 10
-0.1
 20
0.05
 30
0.0
 40
12.5
 50
108.666656
 51
71.333328
  0
LINE
  5
4A
  8
0
 62
     0
 10
-3.275
 20
0.05
 30
0.0
 11
3.075
 21
0.05
 31
0.0
  0
LINE
  5
4B
  8
0
 62
     0
 10
-0.1
 20
-3.125
 30
0.0
 11
-0.1
 21
3.225
 31
0.0
  0
LINE
  5
4C
  8
0
 62
     0
 10
-18.275
 20
0.05
 30
0.0
 11
-4.8625
 21
0.05
 31
0.0
  0
LINE
  5
4D
  8
0
 62
     0
 10
4.6625
 20
0.05
 30
0.0
 11
18.075
 21
0.05
 31
0.0
  0
LINE
  5
4E
  8
0
 62
     0
 10
-0.1
 20
18.225
 30
0.0
 11
-0.1
 21
4.8125
 31
0.0
  0
LINE
  5
4F
  8
0
 62
     0
 10
-0.1
 20
-4.7125
 30
0.0
 11
-0.1
 21
-18.125
 31
0.0
  0
ENDBLK
  5
1552
  8
0
  0
BLOCK
  8
0
  2
__30
 70
     0
 10
0.0
 20
0.0
 30
0.0
  3
__30
  1

  0
LINE
  5
53
  8
0
 62
     0
 10
-3.175
 20
0.0
 30
0.0
 11
3.175
 21
0.0
 31
0.0
  0
LINE
  5
54
  8
0
 62
     0
 10
0.0
 20
-3.175
 30
0.0
 11
0.0
 21
3.175
 31
0.0
  0
LINE
  5
55
  8
0
 62
     0
 10
-18.175
 20
0.0
 30
0.0
 11
-4.7625
 21
0.0
 31
0.0
  0
LINE
  5
56
  8
0
 62
     0
 10
4.7625
 20
0.0
 30
0.0
 11
18.175
 21
0.0
 31
0.0
  0
LINE
  5
57
  8
0
 62
     0
 10
0.0
 20
19.9
 30
0.0
 11
0.0
 21
4.7625
 31
0.0
  0
LINE
  5
58
  8
0
 62
     0
 10
0.0
 20
-4.7625
 30
0.0
 11
0.0
 21
-18.175
 31
0.0
  0
LINE
  5
59
  8
0
 62
     1
 10
-4.0
 20
18.3
 30
0.0
 11
4.0
 21
18.3
 31
0.0
  0
LINE
  5
5A
  8
0
 62
     1
 10
-4.0
 20
18.3
 30
0.0
 11
-4.0
 21
14.4568
 31
0.0
  0
LINE
  5
5B
  8
0
 62
     1
 10
4.0
 20
18.3
 30
0.0
 11
4.0
 21
14.4568
 31
0.0
  0
ARC
  5
5C
  8
0
 62
     1
 10
0.0
 20
0.0
 30
0.0
 40
15.0
 50
105.466049
 51
74.53396600000001
  0
ENDBLK
  5
1554
  8
0
  0
BLOCK
  8
0
  2
__35
 70
     0
 10
0.0
 20
0.0
 30
0.0
  3
__35
  1

  0
LINE
  5
60
  8
0
 62
     0
 10
-3.175
 20
0.0
 30
0.0
 11
3.175
 21
0.0
 31
0.0
  0
LINE
  5
61
  8
0
 62
     0
 10
0.0
 20
-3.175
 30
0.0
 11
0.0
 21
3.175
 31
0.0
  0
LINE
  5
62
  8
0
 62
     0
 10
-20.675
 20
0.0
 30
0.0
 11
-4.7625
 21
0.0
 31
0.0
  0
LINE
  5
63
  8
0
 62
     0
 10
4.7625
 20
0.0
 30
0.0
 11
20.675
 21
0.0
 31
0.0
  0
LINE
  5
64
  8
0
 62
     0
 10
0.0
 20
22.6
 30
0.0
 11
0.0
 21
4.7625
 31
0.0
  0
LINE
  5
65
  8
0
 62
     0
 10
0.0
 20
-4.7625
 30
0.0
 11
0.0
 21
-20.675
 31
0.0
  0
LINE
  5
66
  8
0
 62
     1
 10
-5.0
 20
20.8
 30
0.0
 11
5.0
 21
20.8
 31
0.0
  0
LINE
  5
67
  8
0
 62
     1
 10
-5.0
 20
20.8
 30
0.0
 11
-5.0
 21
16.7705
 31
0.0
  0
LINE
  5
68
  8
0
 62
     1
 10
5.0
 20
20.8
 30
0.0
 11
5.0
 21
16.7705
 31
0.0
  0
ARC
  5
69
  8
0
 62
     1
 10
0.0
 20
0.0
 30
0.0
 40
17.5
 50
106.601547
 51
73.398453
  0
ENDBLK
  5
1556
  8
0
  0
BLOCK
  8
0
  2
__40
 70
     0
 10
0.0
 20
0.0
 30
0.0
  3
__40
  1

  0
LINE
  5
6D
  8
0
 62
     0
 10
-3.175
 20
0.0
 30
0.0
 11
3.175
 21
0.0
 31
0.0
  0
LINE
  5
6E
  8
0
 62
     0
 10
0.0
 20
-3.175
 30
0.0
 11
0.0
 21
3.175
 31
0.0
  0
LINE
  5
6F
  8
0
 62
     0
 10
-23.175
 20
0.0
 30
0.0
 11
-4.7625
 21
0.0
 31
0.0
  0
LINE
  5
70
  8
0
 62
     0
 10
4.7625
 20
0.0
 30
0.0
 11
23.175
 21
0.0
 31
0.0
  0
LINE
  5
71
  8
0
 62
     0
 10
0.0
 20
24.5
 30
0.0
 11
0.0
 21
4.7625
 31
0.0
  0
LINE
  5
72
  8
0
 62
     0
 10
0.0
 20
-4.7625
 30
0.0
 11
0.0
 21
-23.175
 31
0.0
  0
LINE
  5
73
  8
0
 62
     1
 10
-6.0
 20
23.3
 30
0.0
 11
6.0
 21
23.3
 31
0.0
  0
LINE
  5
74
  8
0
 62
     1
 10
-6.0
 20
23.3
 30
0.0
 11
-6.0
 21
19.0788
 31
0.0
  0
LINE
  5
75
  8
0
 62
     1
 10
6.0
 20
23.3
 30
0.0
 11
6.0
 21
19.0788
 31
0.0
  0
ARC
  5
76
  8
0
 62
     1
 10
0.0
 20
0.0
 30
0.0
 40
20.0
 50
107.457642
 51
72.54235799999999
  0
ENDBLK
  5
1558
  8
0
  0
BLOCK
  8
0
  2
__45
 70
     0
 10
0.0
 20
0.0
 30
0.0
  3
__45
  1

  0
LINE
  5
7A
  8
0
 62
     0
 10
-3.175
 20
0.0
 30
0.0
 11
3.175
 21
0.0
 31
0.0
  0
LINE
  5
7B
  8
0
 62
     0
 10
0.0
 20
-3.175
 30
0.0
 11
0.0
 21
3.175
 31
0.0
  0
LINE
  5
7C
  8
0
 62
     0
 10
-25.675
 20
0.0
 30
0.0
 11
-4.7625
 21
0.0
 31
0.0
  0
LINE
  5
7D
  8
0
 62
     0
 10
4.7625
 20
0.0
 30
0.0
 11
25.675
 21
0.0
 31
0.0
  0
LINE
  5
7E
  8
0
 62
     0
 10
0.0
 20
28.2
 30
0.0
 11
0.0
 21
4.7625
 31
0.0
  0
LINE
  5
7F
  8
0
 62
     0
 10
0.0
 20
-4.7625
 30
0.0
 11
0.0
 21
-25.675
 31
0.0
  0
LINE
  5
80
  8
0
 62
     1
 10
-7.0
 20
26.3
 30
0.0
 11
7.0
 21
26.3
 31
0.0
  0
LINE
  5
81
  8
0
 62
     1
 10
-7.0
 20
26.3
 30
0.0
 11
-7.0
 21
21.3834
 31
0.0
  0
LINE
  5
82
  8
0
 62
     1
 10
7.0
 20
26.3
 30
0.0
 11
7.0
 21
21.3834
 31
0.0
  0
ARC
  5
83
  8
0
 62
     1
 10
0.0
 20
0.0
 30
0.0
 40
22.5
 50
108.126236
 51
71.873749
  0
ENDBLK
  5
155A
  8
0
  0
BLOCK
  8
0
  2
__50
 70
     0
 10
0.0
 20
0.0
 30
0.0
  3
__50
  1

  0
LINE
  5
87
  8
0
 62
     0
 10
-3.175
 20
0.0
 30
0.0
 11
3.175
 21
0.0
 31
0.0
  0
LINE
  5
88
  8
0
 62
     0
 10
0.0
 20
-3.175
 30
0.0
 11
0.0
 21
3.175
 31
0.0
  0
LINE
  5
89
  8
0
 62
     0
 10
-28.175
 20
0.0
 30
0.0
 11
-4.7625
 21
0.0
 31
0.0
  0
LINE
  5
8A
  8
0
 62
     0
 10
4.7625
 20
0.0
 30
0.0
 11
28.175
 21
0.0
 31
0.0
  0
LINE
  5
8B
  8
0
 62
     0
 10
0.0
 20
31.05
 30
0.0
 11
0.0
 21
4.7625
 31
0.0
  0
LINE
  5
8C
  8
0
 62
     0
 10
0.0
 20
-4.7625
 30
0.0
 11
0.0
 21
-28.175
 31
0.0
  0
LINE
  5
8D
  8
0
 62
     1
 10
-7.0
 20
28.8
 30
0.0
 11
7.0
 21
28.8
 31
0.0
  0
LINE
  5
8E
  8
0
 62
     1
 10
-7.0
 20
28.8
 30
0.0
 11
-7.0
 21
24.0
 31
0.0
  0
LINE
  5
8F
  8
0
 62
     1
 10
7.0
 20
28.8
 30
0.0
 11
7.0
 21
23.9999
 31
0.0
  0
ARC
  5
90
  8
0
 62
     1
 10
0.0
 20
0.0
 30
0.0
 40
25.0
 50
106.260208
 51
73.73979199999999
  0
ENDBLK
  5
155C
  8
0
  0
BLOCK
  8
0
  2
__60
 70
     0
 10
0.0
 20
0.0
 30
0.0
  3
__60
  1

  0
LINE
  5
94
  8
0
 62
     0
 10
-3.175
 20
0.0
 30
0.0
 11
3.175
 21
0.0
 31
0.0
  0
LINE
  5
95
  8
0
 62
     0
 10
0.0
 20
-3.175
 30
0.0
 11
0.0
 21
3.175
 31
0.0
  0
LINE
  5
96
  8
0
 62
     0
 10
-33.175
 20
0.0
 30
0.0
 11
-4.7625
 21
0.0
 31
0.0
  0
LINE
  5
97
  8
0
 62
     0
 10
4.7625
 20
0.0
 30
0.0
 11
33.175
 21
0.0
 31
0.0
  0
LINE
  5
98
  8
0
 62
     0
 10
0.0
 20
37.1
 30
0.0
 11
0.0
 21
4.7625
 31
0.0
  0
LINE
  5
99
  8
0
 62
     0
 10
0.0
 20
-4.7625
 30
0.0
 11
0.0
 21
-33.175
 31
0.0
  0
LINE
  5
9A
  8
0
 62
     1
 10
-9.0
 20
34.4
 30
0.0
 11
9.0
 21
34.4
 31
0.0
  0
LINE
  5
9B
  8
0
 62
     1
 10
-9.0
 20
34.4
 30
0.0
 11
-9.0
 21
28.6182
 31
0.0
  0
LINE
  5
9C
  8
0
 62
     1
 10
9.0
 20
34.4
 30
0.0
 11
9.0
 21
28.6181
 31
0.0
  0
ARC
  5
9D
  8
0
 62
     1
 10
0.0
 20
0.0
 30
0.0
 40
30.0
 50
107.457581
 51
72.542419
  0
ENDBLK
  5
155E
  8
0
  0
BLOCK
  8
0
  2
__1_
 70
     0
 10
0.0
 20
0.0
 30
0.0
  3
__1_
  1

  0
LINE
  5
A1
  8
0
 62
     0
 10
-3.175
 20
0.0
 30
0.0
 11
3.175
 21
0.0
 31
0.0
  0
LINE
  5
A2
  8
0
 62
     0
 10
0.0
 20
-3.175
 30
0.0
 11
0.0
 21
3.175
 31
0.0
  0
LINE
  5
A3
  8
0
 62
     0
 10
-15.875
 20
0.0
 30
0.0
 11
-4.7625
 21
0.0
 31
0.0
  0
LINE
  5
A4
  8
0
 62
     0
 10
4.7625
 20
0.0
 30
0.0
 11
15.875
 21
0.0
 31
0.0
  0
LINE
  5
A5
  8
0
 62
     0
 10
0.0
 20
16.7
 30
0.0
 11
0.0
 21
4.7625
 31
0.0
  0
LINE
  5
A6
  8
0
 62
     0
 10
0.0
 20
-4.7625
 30
0.0
 11
0.0
 21
-15.875
 31
0.0
  0
LINE
  5
A7
  8
0
 62
     1
 10
-3.175
 20
15.59
 30
0.0
 11
3.175
 21
15.59
 31
0.0
  0
LINE
  5
A8
  8
0
 62
     1
 10
-3.175
 20
15.59
 30
0.0
 11
-3.175
 21
12.2967
 31
0.0
  0
LINE
  5
A9
  8
0
 62
     1
 10
3.175
 20
15.59
 30
0.0
 11
3.175
 21
12.2967
 31
0.0
  0
ARC
  5
AA
  8
0
 62
     1
 10
0.0
 20
0.0
 30
0.0
 40
12.7
 50
104.477554
 51
75.522446
  0
ENDBLK
  5
1560
  8
0
  0
BLOCK
  8
0
  2
_1_1_2_
 70
     0
 10
0.0
 20
0.0
 30
0.0
  3
_1_1_2_
  1

  0
LINE
  5
AE
  8
0
 62
     0
 10
-3.175
 20
0.0
 30
0.0
 11
3.175
 21
0.0
 31
0.0
  0
LINE
  5
AF
  8
0
 62
     0
 10
0.0
 20
-3.175
 30
0.0
 11
0.0
 21
3.175
 31
0.0
  0
LINE
  5
B0
  8
0
 62
     0
 10
-22.225
 20
0.0
 30
0.0
 11
-4.7625
 21
0.0
 31
0.0
  0
LINE
  5
B1
  8
0
 62
     0
 10
4.7625
 20
0.0
 30
0.0
 11
22.225
 21
0.0
 31
0.0
  0
LINE
  5
B2
  8
0
 62
     0
 10
0.0
 20
24.8
 30
0.0
 11
0.0
 21
4.7625
 31
0.0
  0
LINE
  5
B3
  8
0
 62
     0
 10
0.0
 20
-4.7625
 30
0.0
 11
0.0
 21
-22.225
 31
0.0
  0
LINE
  5
B4
  8
0
 62
     1
 10
-4.7625
 20
23.35
 30
0.0
 11
4.7625
 21
23.35
 31
0.0
  0
LINE
  5
B5
  8
0
 62
     1
 10
-4.7625
 20
23.35
 30
0.0
 11
-4.7625
 21
18.4451
 31
0.0
  0
LINE
  5
B6
  8
0
 62
     1
 10
4.7625
 20
23.35
 30
0.0
 11
4.7625
 21
18.4451
 31
0.0
  0
ARC
  5
B7
  8
0
 62
     1
 10
0.0
 20
0.0
 30
0.0
 40
19.05
 50
104.477554
 51
75.522446
  0
ENDBLK
  5
1562
  8
0
  0
BLOCK
  8
0
  2
_1_3_4_
 70
     0
 10
0.0
 20
0.0
 30
0.0
  3
_1_3_4_
  1

  0
LINE
  5
BB
  8
0
 62
     0
 10
-3.175
 20
0.0
 30
0.0
 11
3.175
 21
0.0
 31
0.0
  0
LINE
  5
BC
  8
0
 62
     0
 10
0.0
 20
-3.175
 30
0.0
 11
0.0
 21
3.175
 31
0.0
  0
LINE
  5
BD
  8
0
 62
     0
 10
-25.4
 20
0.0
 30
0.0
 11
-4.7625
 21
0.0
 31
0.0
  0
LINE
  5
BE
  8
0
 62
     0
 10
4.7625
 20
0.0
 30
0.0
 11
25.4
 21
0.0
 31
0.0
  0
LINE
  5
BF
  8
0
 62
     0
 10
0.0
 20
28.8
 30
0.0
 11
0.0
 21
4.7625
 31
0.0
  0
LINE
  5
C0
  8
0
 62
     0
 10
0.0
 20
-4.7625
 30
0.0
 11
0.0
 21
-25.4
 31
0.0
  0
LINE
  5
C1
  8
0
 62
     1
 10
-4.7625
 20
26.595
 30
0.0
 11
4.7625
 21
26.595
 31
0.0
  0
LINE
  5
C2
  8
0
 62
     1
 10
-4.7625
 20
26.595
 30
0.0
 11
-4.7625
 21
21.7088
 31
0.0
  0
LINE
  5
C3
  8
0
 62
     1
 10
4.7625
 20
26.595
 30
0.0
 11
4.7625
 21
21.7087
 31
0.0
  0
ARC
  5
C4
  8
0
 62
     1
 10
0.0
 20
0.0
 30
0.0
 40
22.225
 50
102.373581
 51
77.626434
  0
ENDBLK
  5
1564
  8
0
  0
BLOCK
  8
0
  2
__2_
 70
     0
 10
0.0
 20
0.0
 30
0.0
  3
__2_
  1

  0
LINE
  5
C8
  8
0
 62
     0
 10
-3.175
 20
0.0
 30
0.0
 11
3.175
 21
0.0
 31
0.0
  0
LINE
  5
C9
  8
0
 62
     0
 10
0.0
 20
-3.175
 30
0.0
 11
0.0
 21
3.175
 31
0.0
  0
LINE
  5
CA
  8
0
 62
     0
 10
-28.575
 20
0.0
 30
0.0
 11
-4.7625
 21
0.0
 31
0.0
  0
LINE
  5
CB
  8
0
 62
     0
 10
4.7625
 20
0.0
 30
0.0
 11
28.575
 21
0.0
 31
0.0
  0
LINE
  5
CC
  8
0
 62
     0
 10
0.0
 20
32.8
 30
0.0
 11
0.0
 21
4.7625
 31
0.0
  0
LINE
  5
CD
  8
0
 62
     0
 10
0.0
 20
-4.7625
 30
0.0
 11
0.0
 21
-28.575
 31
0.0
  0
LINE
  5
CE
  8
0
 62
     1
 10
-6.35
 20
31.06
 30
0.0
 11
6.35
 21
31.06
 31
0.0
  0
LINE
  5
CF
  8
0
 62
     1
 10
-6.35
 20
31.06
 30
0.0
 11
-6.35
 21
24.5934
 31
0.0
  0
LINE
  5
D0
  8
0
 62
     1
 10
6.35
 20
31.06
 30
0.0
 11
6.35
 21
24.5934
 31
0.0
  0
ARC
  5
D1
  8
0
 62
     1
 10
0.0
 20
0.0
 30
0.0
 40
25.4
 50
104.477554
 51
75.522446
  0
ENDBLK
  5
1566
  8
0
  0
BLOCK
  8
0
  2
__1_1_4_
 70
     0
 10
0.0
 20
0.0
 30
0.0
  3
__1_1_4_
  1

  0
LINE
  5
D5
  8
0
 62
     0
 10
-3.175
 20
0.0
 30
0.0
 11
3.175
 21
0.0
 31
0.0
  0
LINE
  5
D6
  8
0
 62
     0
 10
0.0
 20
-3.175
 30
0.0
 11
0.0
 21
3.175
 31
0.0
  0
LINE
  5
D7
  8
0
 62
     0
 10
-19.05
 20
0.0
 30
0.0
 11
-4.7625
 21
0.0
 31
0.0
  0
LINE
  5
D8
  8
0
 62
     0
 10
4.7625
 20
0.0
 30
0.0
 11
19.05
 21
0.0
 31
0.0
  0
LINE
  5
D9
  8
0
 62
     0
 10
0.0
 20
20.0
 30
0.0
 11
0.0
 21
4.7625
 31
0.0
  0
LINE
  5
DA
  8
0
 62
     0
 10
0.0
 20
-4.7625
 30
0.0
 11
0.0
 21
-19.05
 31
0.0
  0
LINE
  5
DB
  8
0
 62
     1
 10
-3.175
 20
18.845
 30
0.0
 11
3.175
 21
18.845
 31
0.0
  0
LINE
  5
DC
  8
0
 62
     1
 10
-3.175
 20
18.845
 30
0.0
 11
-3.175
 21
15.5543
 31
0.0
  0
LINE
  5
DD
  8
0
 62
     1
 10
3.175
 20
18.845
 30
0.0
 11
3.175
 21
15.5543
 31
0.0
  0
ARC
  5
DE
  8
0
 62
     1
 10
0.0
 20
0.0
 30
0.0
 40
15.875
 50
101.536957
 51
78.463043
  0
ENDBLK
  5
1568
  8
0
  0
BLOCK
  8
0
  2
_FORMATO_A1_
 70
     0
 10
0.0
 20
0.0
 30
0.0
  3
_FORMATO_A1_
  1

  0
LINE
  5
E2
  8
0
 62
     0
 10
-75.76349999999999
 20
58.0
 30
0.0
 11
-75.76349999999999
 21
48.0
 31
0.0
  0
LINE
  5
E3
  8
0
 62
     0
 10
-205.0
 20
39.6204
 30
0.0
 11
-155.0
 21
39.6204
 31
0.0
  0
LINE
  5
E4
  8
0
 62
     2
 10
-200.2495
 20
45.5372
 30
0.0
 11
-200.2495
 21
52.0372
 31
0.0
  0
LINE
  5
E5
  8
0
 62
     2
 10
-200.2495
 20
52.0372
 30
0.0
 11
-198.6495
 21
52.0372
 31
0.0
  0
LINE
  5
E6
  8
0
 62
     2
 10
-200.2495
 20
45.5372
 30
0.0
 11
-198.6495
 21
45.5372
 31
0.0
  0
LINE
  5
E7
  8
0
 62
     2
 10
-198.6495
 20
52.0372
 30
0.0
 11
-198.6495
 21
51.5372
 31
0.0
  0
LINE
  5
E8
  8
0
 62
     2
 10
-197.1495
 20
45.5372
 30
0.0
 11
-195.5495
 21
45.5372
 31
0.0
  0
LINE
  5
E9
  8
0
 62
     2
 10
-194.0495
 20
45.5372
 30
0.0
 11
-192.4495
 21
45.5372
 31
0.0
  0
LINE
  5
EA
  8
0
 62
     2
 10
-192.4514
 20
50.049
 30
0.0
 11
-192.4495
 21
45.5372
 31
0.0
  0
LINE
  5
EB
  8
0
 62
     2
 10
-187.1519
 20
52.0372
 30
0.0
 11
-187.1519
 21
45.5372
 31
0.0
  0
LINE
  5
EC
  8
0
 62
     2
 10
-187.1519
 20
45.5372
 30
0.0
 11
-187.1495
 21
45.5372
 31
0.0
  0
LINE
  5
ED
  8
0
 62
     2
 10
-187.1519
 20
45.5372
 30
0.0
 11
-188.6496
 21
45.5372
 31
0.0
  0
LINE
  5
EE
  8
0
 62
     2
 10
-187.1519
 20
52.0372
 30
0.0
 11
-188.6522
 21
52.0372
 31
0.0
  0
LINE
  5
EF
  8
0
 62
     2
 10
-188.6521
 20
51.8534
 30
0.0
 11
-188.6522
 21
52.0372
 31
0.0
  0
LINE
  5
F0
  8
0
 62
     2
 10
-188.6496
 20
45.7209
 30
0.0
 11
-188.6496
 21
45.5372
 31
0.0
  0
LINE
  5
F1
  8
0
 62
     2
 10
-188.6518
 20
45.7194
 30
0.0
 11
-188.6496
 21
45.7209
 31
0.0
  0
LINE
  5
F2
  8
0
 62
     2
 10
-186.8519
 20
45.5372
 30
0.0
 11
-186.8519
 21
52.0372
 31
0.0
  0
LINE
  5
F3
  8
0
 62
     2
 10
-185.3519
 20
52.0372
 30
0.0
 11
-186.8519
 21
52.0372
 31
0.0
  0
LINE
  5
F4
  8
0
 62
     2
 10
-185.3519
 20
45.5372
 30
0.0
 11
-186.8519
 21
45.5372
 31
0.0
  0
LINE
  5
F5
  8
0
 62
     2
 10
-185.3519
 20
49.4822
 30
0.0
 11
-185.3519
 21
45.5372
 31
0.0
  0
LINE
  5
F6
  8
0
 62
     2
 10
-183.8519
 20
50.6989
 30
0.0
 11
-183.8519
 21
52.2372
 31
0.0
  0
LINE
  5
F7
  8
0
 62
     2
 10
-185.3519
 20
51.5772
 30
0.0
 11
-185.3519
 21
52.0372
 31
0.0
  0
LINE
  5
F8
  8
0
 62
     2
 10
-192.4519
 20
52.2365
 30
0.0
 11
-191.8519
 21
52.2365
 31
0.0
  0
LINE
  5
F9
  8
0
 62
     2
 10
-192.4519
 20
52.2365
 30
0.0
 11
-192.4519
 21
53.7365
 31
0.0
  0
LINE
  5
FA
  8
0
 62
     2
 10
-182.3519
 20
48.9365
 30
0.0
 11
-182.3519
 21
53.7365
 31
0.0
  0
LINE
  5
FB
  8
0
 62
     2
 10
-191.8519
 20
52.2365
 30
0.0
 11
-191.8519
 21
53.1365
 31
0.0
  0
LINE
  5
FC
  8
0
 62
     2
 10
-181.9519
 20
53.7365
 30
0.0
 11
-181.9519
 21
45.5372
 31
0.0
  0
LINE
  5
FD
  8
0
 62
     2
 10
-181.9519
 20
53.7365
 30
0.0
 11
-180.4519
 21
53.7365
 31
0.0
  0
LINE
  5
FE
  8
0
 62
     2
 10
-181.9519
 20
45.5372
 30
0.0
 11
-180.4519
 21
45.5372
 31
0.0
  0
LINE
  5
FF
  8
0
 62
     2
 10
-180.4519
 20
45.5372
 30
0.0
 11
-180.4519
 21
46.0195
 31
0.0
  0
LINE
  5
100
  8
0
 62
     2
 10
-180.4519
 20
51.5553
 30
0.0
 11
-180.4519
 21
53.7365
 31
0.0
  0
LINE
  5
101
  8
0
 62
     2
 10
-175.3008
 20
48.1564
 30
0.0
 11
-171.5996
 21
48.1564
 31
0.0
  0
LINE
  5
102
  8
0
 62
     2
 10
-171.7383
 20
47.5564
 30
0.0
 11
-173.5638
 21
47.5564
 31
0.0
  0
LINE
  5
103
  8
0
 62
     2
 10
-173.4288
 20
49.5564
 30
0.0
 11
-175.2749
 21
49.5564
 31
0.0
  0
LINE
  5
104
  8
0
 62
     2
 10
-166.2519
 20
52.0372
 30
0.0
 11
-166.2519
 21
50.7372
 31
0.0
  0
LINE
  5
105
  8
0
 62
     2
 10
-166.2519
 20
52.0372
 30
0.0
 11
-167.0519
 21
52.0372
 31
0.0
  0
LINE
  5
106
  8
0
 62
     2
 10
-166.2519
 20
50.7372
 30
0.0
 11
-167.0519
 21
50.7372
 31
0.0
  0
LINE
  5
107
  8
0
 62
     2
 10
-167.0519
 20
52.0372
 30
0.0
 11
-167.0519
 21
53.1372
 31
0.0
  0
LINE
  5
108
  8
0
 62
     2
 10
-167.0519
 20
53.1372
 30
0.0
 11
-168.6519
 21
53.1372
 31
0.0
  0
LINE
  5
109
  8
0
 62
     2
 10
-168.6519
 20
52.0372
 30
0.0
 11
-168.6519
 21
53.1372
 31
0.0
  0
LINE
  5
10A
  8
0
 62
     2
 10
-168.6519
 20
52.0372
 30
0.0
 11
-169.7519
 21
52.0372
 31
0.0
  0
LINE
  5
10B
  8
0
 62
     2
 10
-169.7519
 20
52.0372
 30
0.0
 11
-169.7519
 21
53.1372
 31
0.0
  0
LINE
  5
10C
  8
0
 62
     2
 10
-169.7519
 20
53.1372
 30
0.0
 11
-171.3519
 21
53.1372
 31
0.0
  0
LINE
  5
10D
  8
0
 62
     2
 10
-171.3519
 20
52.0372
 30
0.0
 11
-171.3519
 21
53.1372
 31
0.0
  0
LINE
  5
10E
  8
0
 62
     2
 10
-171.3519
 20
52.0372
 30
0.0
 11
-172.1519
 21
52.0372
 31
0.0
  0
LINE
  5
10F
  8
0
 62
     2
 10
-172.0473
 20
50.7372
 30
0.0
 11
-171.3519
 21
50.7372
 31
0.0
  0
LINE
  5
110
  8
0
 62
     2
 10
-171.3519
 20
50.7372
 30
0.0
 11
-171.3519
 21
47.0775
 31
0.0
  0
LINE
  5
111
  8
0
 62
     2
 10
-168.6519
 20
50.7372
 30
0.0
 11
-168.6519
 21
46.9529
 31
0.0
  0
LINE
  5
112
  8
0
 62
     2
 10
-169.7519
 20
47.5583
 30
0.0
 11
-169.7519
 21
50.7372
 31
0.0
  0
LINE
  5
113
  8
0
 62
     2
 10
-169.7519
 20
50.7372
 30
0.0
 11
-168.6519
 21
50.7372
 31
0.0
  0
LINE
  5
114
  8
0
 62
     2
 10
-166.2519
 20
46.7067
 30
0.0
 11
-166.2519
 21
45.5067
 31
0.0
  0
LINE
  5
115
  8
0
 62
     2
 10
-167.0519
 20
47.1184
 30
0.0
 11
-167.0519
 21
50.7372
 31
0.0
  0
LINE
  5
116
  8
0
 62
     2
 10
-166.2528
 20
46.7061
 30
0.0
 11
-166.2519
 21
46.7067
 31
0.0
  0
LINE
  5
117
  8
0
 62
     2
 10
-168.9519
 20
46.7067
 30
0.0
 11
-168.9519
 21
45.5074
 31
0.0
  0
LINE
  5
118
  8
0
 62
     2
 10
-169.751
 20
47.1184
 30
0.0
 11
-169.7519
 21
47.5583
 31
0.0
  0
LINE
  5
119
  8
0
 62
     2
 10
-194.0495
 20
49.9873
 30
0.0
 11
-194.0495
 21
45.5372
 31
0.0
  0
LINE
  5
11A
  8
0
 62
     2
 10
-195.5495
 20
45.5372
 30
0.0
 11
-195.5495
 21
49.9873
 31
0.0
  0
LINE
  5
11B
  8
0
 62
     2
 10
-197.1495
 20
49.9873
 30
0.0
 11
-197.1495
 21
45.5372
 31
0.0
  0
LINE
  5
11C
  8
0
 62
     2
 10
-198.6495
 20
49.9873
 30
0.0
 11
-198.6495
 21
45.5372
 31
0.0
  0
LINE
  5
11D
  8
0
 62
     2
 10
-191.8519
 20
53.1365
 30
0.0
 11
-182.9519
 21
53.1365
 31
0.0
  0
LINE
  5
11E
  8
0
 62
     2
 10
-182.3519
 20
53.7365
 30
0.0
 11
-192.4519
 21
53.7365
 31
0.0
  0
LINE
  5
11F
  8
0
 62
     2
 10
-182.9519
 20
53.1365
 30
0.0
 11
-182.9519
 21
48.9365
 31
0.0
  0
LINE
  5
120
  8
0
 62
     2
 10
-200.2495
 20
44.3372
 30
0.0
 11
-200.2495
 21
44.9372
 31
0.0
  0
LINE
  5
121
  8
0
 62
     2
 10
-185.4495
 20
44.9372
 30
0.0
 11
-182.9519
 21
48.9365
 31
0.0
  0
LINE
  5
122
  8
0
 62
     2
 10
-200.2495
 20
44.9372
 30
0.0
 11
-185.4495
 21
44.9372
 31
0.0
  0
LINE
  5
123
  8
0
 62
     2
 10
-182.3519
 20
48.9365
 30
0.0
 11
-185.2242
 21
44.3372
 31
0.0
  0
LINE
  5
124
  8
0
 62
     2
 10
-185.2242
 20
44.3372
 30
0.0
 11
-200.2495
 21
44.3372
 31
0.0
  0
LINE
  5
125
  8
0
  6
MCDASH6
 62
     0
 10
-70.88079999999999
 20
66.0
 30
0.0
 11
-29.6641
 21
66.0
 31
0.0
  0
LINE
  5
126
  8
0
  6
MCDASH6
 62
     0
 10
-115.5
 20
62.0
 30
0.0
 11
-29.6641
 21
62.0
 31
0.0
  0
LINE
  5
127
  8
0
 62
     0
 10
-52.6641
 20
36.0
 30
0.0
 11
-27.6641
 21
36.0
 31
0.0
  0
LINE
  5
128
  8
0
 62
     0
 10
-52.6641
 20
15.0
 30
0.0
 11
-5.0
 21
15.0
 31
0.0
  0
LINE
  5
129
  8
0
 62
     0
 10
-52.6641
 20
25.0
 30
0.0
 11
-27.6641
 21
25.0
 31
0.0
  0
LINE
  5
12A
  8
0
 62
     0
 10
-52.6641
 20
5.0
 30
0.0
 11
-52.6641
 21
58.0
 31
0.0
  0
LINE
  5
12B
  8
0
 62
     0
 10
-117.5
 20
70.0
 30
0.0
 11
-117.5
 21
58.0
 31
0.0
  0
LINE
  5
12C
  8
0
 62
     0
 10
-75.76349999999999
 20
36.0
 30
0.0
 11
-52.6641
 21
36.0
 31
0.0
  0
LINE
  5
12D
  8
0
 62
     0
 10
-75.76349999999999
 20
48.0
 30
0.0
 11
-75.76349999999999
 21
36.0
 31
0.0
  0
LINE
  5
12E
  8
0
 62
     0
 10
-95.96469999999999
 20
58.0
 30
0.0
 11
-95.96469999999999
 21
48.0
 31
0.0
  0
LINE
  5
12F
  8
0
 62
     0
 10
-27.6641
 20
58.0
 30
0.0
 11
-205.0
 21
58.0
 31
0.0
  0
LINE
  5
130
  8
0
 62
     0
 10
-155.0
 20
36.0
 30
0.0
 11
-95.96469999999999
 21
36.0
 31
0.0
  0
LINE
  5
131
  8
0
 62
     0
 10
-155.0
 20
58.0
 30
0.0
 11
-155.0
 21
5.0
 31
0.0
  0
LINE
  5
132
  8
0
 62
     0
 10
-27.6641
 20
70.0
 30
0.0
 11
-27.6641
 21
5.0
 31
0.0
  0
LINE
  5
133
  8
0
 62
     0
 10
-27.6641
 20
70.0
 30
0.0
 11
-29.898
 21
70.0
 31
0.0
  0
LINE
  5
134
  8
0
  6
MCDASH6
 62
     0
 10
-203.0
 20
62.0
 30
0.0
 11
-119.5
 21
62.0
 31
0.0
  0
LINE
  5
135
  8
0
  6
MCDASH6
 62
     0
 10
-157.4615
 20
66.0
 30
0.0
 11
-119.5
 21
66.0
 31
0.0
  0
LINE
  5
136
  8
0
  6
MCDASH6
 62
     0
 10
-152.8
 20
27.5
 30
0.0
 11
-54.8641
 21
27.5
 31
0.0
  0
LINE
  5
137
  8
0
  6
MCDASH6
 62
     0
 10
-152.8
 20
20.0
 30
0.0
 11
-54.8641
 21
20.0
 31
0.0
  0
LINE
  5
138
  8
0
  6
MCDASH6
 62
     0
 10
-152.8
 20
12.5
 30
0.0
 11
-54.8641
 21
12.5
 31
0.0
  0
LINE
  5
139
  8
0
 62
     0
 10
-205.0
 20
5.0
 30
0.0
 11
-205.0
 21
70.0
 31
0.0
  0
LINE
  5
13A
  8
0
 62
     0
 10
-155.0
 20
30.0156
 30
0.0
 11
-205.0
 21
30.0156
 31
0.0
  0
LINE
  5
13B
  8
0
 62
     0
 10
-205.0
 20
20.4107
 30
0.0
 11
-167.9465
 21
20.4107
 31
0.0
  0
LINE
  5
13C
  8
0
 62
     0
 10
-205.0
 20
5.0
 30
0.0
 11
-5.0
 21
5.0
 31
0.0
  0
LINE
  5
13D
  8
0
 62
     2
 10
-13.2993
 20
70.0
 30
0.0
 11
-13.2993
 21
177.585
 31
0.0
  0
LINE
  5
13E
  8
0
 62
     0
 10
-205.0
 20
70.0
 30
0.0
 11
-5.0
 21
70.0
 31
0.0
  0
LINE
  5
13F
  8
0
 62
     2
 10
-21.5987
 20
70.0
 30
0.0
 11
-21.5987
 21
177.585
 31
0.0
  0
LINE
  5
140
  8
0
  6
MCDASH6
 62
     0
 10
-129.8594
 20
44.0
 30
0.0
 11
-97.8908
 21
44.0
 31
0.0
  0
LINE
  5
141
  8
0
  6
MCDASH6
 62
     0
 10
-97.8908
 20
40.0
 30
0.0
 11
-152.1931
 21
40.0
 31
0.0
  0
LINE
  5
142
  8
0
 62
     0
 10
-167.9465
 20
20.4107
 30
0.0
 11
-167.9465
 21
5.0
 31
0.0
  0
LINE
  5
143
  8
0
 62
     0
 10
-167.9465
 20
20.4107
 30
0.0
 11
-155.0
 21
20.4107
 31
0.0
  0
LINE
  5
144
  8
0
 62
     0
 10
-155.0
 20
48.0
 30
0.0
 11
-95.96469999999999
 21
48.0
 31
0.0
  0
LINE
  5
145
  8
0
 62
     0
 10
-121.2612
 20
58.0
 30
0.0
 11
-121.2612
 21
48.0
 31
0.0
  0
LINE
  5
146
  8
0
 62
     2
 10
-29.898
 20
76.6211
 30
0.0
 11
-5.0
 21
76.6211
 31
0.0
  0
LINE
  5
147
  8
0
 62
     2
 10
-29.898
 20
92.2179
 30
0.0
 11
-5.0
 21
92.2179
 31
0.0
  0
LINE
  5
148
  8
0
 62
     2
 10
-29.898
 20
109.5487
 30
0.0
 11
-5.0
 21
109.5487
 31
0.0
  0
LINE
  5
149
  8
0
 62
     2
 10
-172.1519
 20
52.0372
 30
0.0
 11
-172.1519
 21
50.908
 31
0.0
  0
LINE
  5
14A
  8
0
 62
     2
 10
-29.898
 20
187.6211
 30
0.0
 11
-5.0
 21
187.6211
 31
0.0
  0
LINE
  5
14B
  8
0
 62
     2
 10
-29.898
 20
203.2179
 30
0.0
 11
-5.0
 21
203.2179
 31
0.0
  0
LINE
  5
14C
  8
0
 62
     2
 10
-29.898
 20
220.5487
 30
0.0
 11
-5.0
 21
220.5487
 31
0.0
  0
LINE
  5
14D
  8
0
 62
     2
 10
-32.2998
 20
180.5663
 30
0.0
 11
-29.898
 21
180.5663
 31
0.0
  0
LINE
  5
14E
  8
0
 62
     2
 10
-29.898
 20
203.2179
 30
0.0
 11
-29.898
 21
187.6211
 31
0.0
  0
LINE
  5
14F
  8
0
 62
     2
 10
-29.898
 20
220.5487
 30
0.0
 11
-29.898
 21
203.2179
 31
0.0
  0
LINE
  5
150
  8
0
 62
     2
 10
-9.149699999999999
 20
177.585
 30
0.0
 11
-9.149699999999999
 21
70.0
 31
0.0
  0
LINE
  5
151
  8
0
 62
     2
 10
-17.449
 20
177.585
 30
0.0
 11
-17.449
 21
70.0
 31
0.0
  0
LINE
  5
152
  8
0
 62
     2
 10
-25.7484
 20
177.585
 30
0.0
 11
-25.7484
 21
70.0
 31
0.0
  0
LINE
  5
153
  8
0
 62
     2
 10
-29.898
 20
177.585
 30
0.0
 11
-29.898
 21
70.0
 31
0.0
  0
LINE
  5
154
  8
0
 62
     2
 10
-5.0
 20
177.585
 30
0.0
 11
-32.2998
 21
177.585
 31
0.0
  0
LINE
  5
155
  8
0
 62
     2
 10
-21.5987
 20
180.5663
 30
0.0
 11
-21.5987
 21
289.9475
 31
0.0
  0
LINE
  5
156
  8
0
 62
     2
 10
-13.2993
 20
180.5663
 30
0.0
 11
-13.2993
 21
289.9475
 31
0.0
  0
LINE
  5
157
  8
0
 62
     2
 10
-29.898
 20
180.5663
 30
0.0
 11
-5.0
 21
180.5663
 31
0.0
  0
LINE
  5
158
  8
0
 62
     0
 10
-95.96469999999999
 20
48.0
 30
0.0
 11
-95.96469999999999
 21
36.0
 31
0.0
  0
LINE
  5
159
  8
0
 62
     0
 10
-95.96469999999999
 20
48.0
 30
0.0
 11
-27.6641
 21
48.0
 31
0.0
  0
LINE
  5
15A
  8
0
 62
     0
 10
-95.96469999999999
 20
36.0
 30
0.0
 11
-75.76349999999999
 21
36.0
 31
0.0
  0
LINE
  5
15B
  8
0
 62
     2
 10
-9.149699999999999
 20
289.9475
 30
0.0
 11
-9.149699999999999
 21
180.5663
 31
0.0
  0
LINE
  5
15C
  8
0
 62
     2
 10
-17.449
 20
289.9475
 30
0.0
 11
-17.449
 21
180.5663
 31
0.0
  0
LINE
  5
15D
  8
0
 62
     2
 10
-25.7484
 20
289.9475
 30
0.0
 11
-25.7484
 21
180.5663
 31
0.0
  0
LINE
  5
15E
  8
0
 62
     2
 10
-29.898
 20
289.9475
 30
0.0
 11
-29.898
 21
180.5663
 31
0.0
  0
LINE
  5
15F
  8
0
 62
     2
 10
-29.898
 20
289.9475
 30
0.0
 11
-29.898
 21
220.5487
 31
0.0
  0
LINE
  5
160
  8
0
 62
     2
 10
-32.1999
 20
289.9475
 30
0.0
 11
-5.0
 21
289.9475
 31
0.0
  0
LINE
  5
161
  8
0
 62
     0
 10
-5.0
 20
5.0
 30
0.0
 11
-5.0
 21
589.0
 31
0.0
  0
LINE
  5
162
  8
0
 62
     0
 10
-836.0
 20
589.0
 30
0.0
 11
-836.0
 21
297.0
 31
0.0
  0
LINE
  5
163
  8
0
 62
     0
 10
-5.0
 20
589.0
 30
0.0
 11
-210.0
 21
589.0
 31
0.0
  0
LINE
  5
164
  8
0
 62
     0
 10
-836.0
 20
5.0
 30
0.0
 11
-825.0
 21
5.0
 31
0.0
  0
LINE
  5
165
  8
0
 62
     2
 10
-841.0
 20
594.0
 30
0.0
 11
-841.0
 21
297.0
 31
0.0
  0
LINE
  5
166
  8
0
 62
     2
 10
0.0
 20
594.0
 30
0.0
 11
-210.0
 21
594.0
 31
0.0
  0
LINE
  5
167
  8
0
 62
     2
 10
0.0
 20
0.0
 30
0.0
 11
0.0
 21
594.0
 31
0.0
  0
LINE
  5
168
  8
0
 62
     2
 10
-841.0
 20
0.0
 30
0.0
 11
-825.0
 21
0.0
 31
0.0
  0
LINE
  5
169
  8
0
 62
     0
 10
-620.0
 20
0.0
 30
0.0
 11
-620.0
 21
5.0
 31
0.0
  0
LINE
  5
16A
  8
0
 62
     2
 10
-620.0
 20
0.0
 30
0.0
 11
-415.0
 21
0.0
 31
0.0
  0
LINE
  5
16B
  8
0
 62
     0
 10
-620.0
 20
5.0
 30
0.0
 11
-415.0
 21
5.0
 31
0.0
  0
LINE
  5
16C
  8
0
 62
     0
 10
-825.0
 20
0.0
 30
0.0
 11
-825.0
 21
5.0
 31
0.0
  0
LINE
  5
16D
  8
0
 62
     2
 10
-825.0
 20
0.0
 30
0.0
 11
-620.0
 21
0.0
 31
0.0
  0
LINE
  5
16E
  8
0
 62
     0
 10
-825.0
 20
5.0
 30
0.0
 11
-620.0
 21
5.0
 31
0.0
  0
LINE
  5
16F
  8
0
 62
     0
 10
-210.0
 20
0.0
 30
0.0
 11
-210.0
 21
5.0
 31
0.0
  0
LINE
  5
170
  8
0
 62
     2
 10
-210.0
 20
0.0
 30
0.0
 11
0.0
 21
0.0
 31
0.0
  0
LINE
  5
171
  8
0
 62
     0
 10
-210.0
 20
5.0
 30
0.0
 11
-5.0
 21
5.0
 31
0.0
  0
LINE
  5
172
  8
0
 62
     0
 10
-415.0
 20
0.0
 30
0.0
 11
-415.0
 21
5.0
 31
0.0
  0
LINE
  5
173
  8
0
 62
     2
 10
-415.0
 20
0.0
 30
0.0
 11
-210.0
 21
0.0
 31
0.0
  0
LINE
  5
174
  8
0
 62
     0
 10
-415.0
 20
5.0
 30
0.0
 11
-210.0
 21
5.0
 31
0.0
  0
LINE
  5
175
  8
0
 62
     0
 10
-5.0
 20
297.0
 30
0.0
 11
0.0
 21
297.0
 31
0.0
  0
LINE
  5
176
  8
0
 62
     0
 10
-841.0
 20
297.0
 30
0.0
 11
-836.0
 21
297.0
 31
0.0
  0
LINE
  5
177
  8
0
 62
     2
 10
-841.0
 20
297.0
 30
0.0
 11
-841.0
 21
0.0
 31
0.0
  0
LINE
  5
178
  8
0
 62
     0
 10
-836.0
 20
297.0
 30
0.0
 11
-836.0
 21
5.0
 31
0.0
  0
LINE
  5
179
  8
0
 62
     0
 10
-620.0
 20
589.0
 30
0.0
 11
-620.0
 21
594.0
 31
0.0
  0
LINE
  5
17A
  8
0
 62
     0
 10
-620.0
 20
589.0
 30
0.0
 11
-825.0
 21
589.0
 31
0.0
  0
LINE
  5
17B
  8
0
 62
     2
 10
-620.0
 20
594.0
 30
0.0
 11
-825.0
 21
594.0
 31
0.0
  0
LINE
  5
17C
  8
0
 62
     0
 10
-825.0
 20
589.0
 30
0.0
 11
-825.0
 21
594.0
 31
0.0
  0
LINE
  5
17D
  8
0
 62
     0
 10
-825.0
 20
589.0
 30
0.0
 11
-836.0
 21
589.0
 31
0.0
  0
LINE
  5
17E
  8
0
 62
     2
 10
-825.0
 20
594.0
 30
0.0
 11
-841.0
 21
594.0
 31
0.0
  0
LINE
  5
17F
  8
0
 62
     0
 10
-210.0
 20
589.0
 30
0.0
 11
-210.0
 21
594.0
 31
0.0
  0
LINE
  5
180
  8
0
 62
     0
 10
-210.0
 20
589.0
 30
0.0
 11
-415.0
 21
589.0
 31
0.0
  0
LINE
  5
181
  8
0
 62
     2
 10
-210.0
 20
594.0
 30
0.0
 11
-415.0
 21
594.0
 31
0.0
  0
LINE
  5
182
  8
0
 62
     0
 10
-415.0
 20
589.0
 30
0.0
 11
-415.0
 21
594.0
 31
0.0
  0
LINE
  5
183
  8
0
 62
     0
 10
-415.0
 20
589.0
 30
0.0
 11
-620.0
 21
589.0
 31
0.0
  0
LINE
  5
184
  8
0
 62
     2
 10
-415.0
 20
594.0
 30
0.0
 11
-620.0
 21
594.0
 31
0.0
  0
ARC
  5
185
  8
0
 62
     2
 10
-197.8995
 20
49.9873
 30
0.0
 40
0.75
 50
0.0
 51
180.0
  0
ARC
  5
186
  8
0
 62
     2
 10
-194.7995
 20
49.9873
 30
0.0
 40
0.75
 50
0.0
 51
180.0
  0
ARC
  5
187
  8
0
 62
     2
 10
-194.5495
 20
50.1372
 30
0.0
 40
2.1
 50
357.594086
 51
135.640259
  0
ARC
  5
188
  8
0
 62
     2
 10
-197.3257
 20
50.6385
 30
0.0
 40
1.6
 50
37.179565
 51
145.828903
  0
ARC
  5
189
  8
0
 62
     2
 10
-184.1531
 20
49.5373
 30
0.0
 40
1.2
 50
75.459991
 51
182.633209
  0
ARC
  5
18A
  8
0
 62
     2
 10
-184.1344
 20
50.8447
 30
0.0
 40
1.4208
 50
78.52979999999999
 51
148.969177
  0
ARC
  5
18B
  8
0
 62
     2
 10
-166.9519
 20
47.0559
 30
0.0
 40
1.7
 50
180.0
 51
294.316177
  0
ARC
  5
18C
  8
0
 62
     2
 10
-166.552
 20
47.1067
 30
0.0
 40
0.5
 50
178.662582
 51
306.759903
  0
ARC
  5
18D
  8
0
 62
     2
 10
-169.652
 20
47.0566
 30
0.0
 40
1.7
 50
180.0
 51
294.320496
  0
ARC
  5
18E
  8
0
 62
     2
 10
-169.2511
 20
47.1067
 30
0.0
 40
0.5
 50
178.662582
 51
306.759903
  0
POLYLINE
  5
18F
  8
0
 62
     2
 66
     1
 10
0.0
 20
0.0
 30
0.0
 70
     1
  0
VERTEX
  5
C52
  8
0
 62
     2
 10
-189.5519
 20
50.7872
 30
0.0
  0
VERTEX
  5
C53
  8
0
 62
     2
 10
-189.55199
 20
50.7872
 30
0.0
  0
VERTEX
  5
C54
  8
0
 62
     2
 10
-189.5696
 20
50.7869
 30
0.0
  0
VERTEX
  5
C55
  8
0
 62
     2
 10
-189.56969
 20
50.7869
 30
0.0
  0
VERTEX
  5
C56
  8
0
 62
     2
 10
-189.5873
 20
50.7859
 30
0.0
  0
VERTEX
  5
C57
  8
0
 62
     2
 10
-189.60486
 20
50.7843
 30
0.0
  0
VERTEX
  5
C58
  8
0
 62
     2
 10
-189.6049
 20
50.7843
 30
0.0
  0
VERTEX
  5
C59
  8
0
 62
     2
 10
-189.62245
 20
50.78211
 30
0.0
  0
VERTEX
  5
C5A
  8
0
 62
     2
 10
-189.6225
 20
50.7821
 30
0.0
  0
VERTEX
  5
C5B
  8
0
 62
     2
 10
-189.62258
 20
50.78209
 30
0.0
  0
VERTEX
  5
C5C
  8
0
 62
     2
 10
-189.6574
 20
50.7759
 30
0.0
  0
VERTEX
  5
C5D
  8
0
 62
     2
 10
-189.69173
 20
50.76742
 30
0.0
  0
VERTEX
  5
C5E
  8
0
 62
     2
 10
-189.6918
 20
50.7674
 30
0.0
  0
VERTEX
  5
C5F
  8
0
 62
     2
 10
-189.70872
 20
50.76233
 30
0.0
  0
VERTEX
  5
C60
  8
0
 62
     2
 10
-189.7088
 20
50.7623
 30
0.0
  0
VERTEX
  5
C61
  8
0
 62
     2
 10
-189.72554
 20
50.75672
 30
0.0
  0
VERTEX
  5
C62
  8
0
 62
     2
 10
-189.7256
 20
50.7567
 30
0.0
  0
VERTEX
  5
C63
  8
0
 62
     2
 10
-189.7435
 20
50.75004
 30
0.0
  0
VERTEX
  5
C64
  8
0
 62
     2
 10
-189.7436
 20
50.75
 30
0.0
  0
VERTEX
  5
C65
  8
0
 62
     2
 10
-189.76128
 20
50.74271
 30
0.0
  0
VERTEX
  5
C66
  8
0
 62
     2
 10
-189.7613
 20
50.7427
 30
0.0
  0
VERTEX
  5
C67
  8
0
 62
     2
 10
-189.76131
 20
50.7427
 30
0.0
  0
VERTEX
  5
C68
  8
0
 62
     2
 10
-189.7788
 20
50.7349
 30
0.0
  0
VERTEX
  5
C69
  8
0
 62
     2
 10
-189.79592
 20
50.72654
 30
0.0
  0
VERTEX
  5
C6A
  8
0
 62
     2
 10
-189.796
 20
50.7265
 30
0.0
  0
VERTEX
  5
C6B
  8
0
 62
     2
 10
-189.79608
 20
50.72646
 30
0.0
  0
VERTEX
  5
C6C
  8
0
 62
     2
 10
-189.813
 20
50.7177
 30
0.0
  0
VERTEX
  5
C6D
  8
0
 62
     2
 10
-189.82969
 20
50.70831
 30
0.0
  0
VERTEX
  5
C6E
  8
0
 62
     2
 10
-189.8297
 20
50.7083
 30
0.0
  0
VERTEX
  5
C6F
  8
0
 62
     2
 10
-189.84614
 20
50.69844
 30
0.0
  0
VERTEX
  5
C70
  8
0
 62
     2
 10
-189.8462
 20
50.6984
 30
0.0
  0
VERTEX
  5
C71
  8
0
 62
     2
 10
-189.84621
 20
50.6984
 30
0.0
  0
VERTEX
  5
C72
  8
0
 62
     2
 10
-189.8624
 20
50.6881
 30
0.0
  0
VERTEX
  5
C73
  8
0
 62
     2
 10
-189.87828
 20
50.67752
 30
0.0
  0
VERTEX
  5
C74
  8
0
 62
     2
 10
-189.8783
 20
50.6775
 30
0.0
  0
VERTEX
  5
C75
  8
0
 62
     2
 10
-189.87839
 20
50.67744
 30
0.0
  0
VERTEX
  5
C76
  8
0
 62
     2
 10
-189.8939
 20
50.6664
 30
0.0
  0
VERTEX
  5
C77
  8
0
 62
     2
 10
-189.91117
 20
50.65342
 30
0.0
  0
VERTEX
  5
C78
  8
0
 62
     2
 10
-189.9112
 20
50.6534
 30
0.0
  0
VERTEX
  5
C79
  8
0
 62
     2
 10
-189.91127
 20
50.65334
 30
0.0
  0
VERTEX
  5
C7A
  8
0
 62
     2
 10
-189.9282
 20
50.6399
 30
0.0
  0
VERTEX
  5
C7B
  8
0
 62
     2
 10
-189.92822
 20
50.63988
 30
0.0
  0
VERTEX
  5
C7C
  8
0
 62
     2
 10
-189.9448
 20
50.6261
 30
0.0
  0
VERTEX
  5
C7D
  8
0
 62
     2
 10
-189.94492
 20
50.626
 30
0.0
  0
VERTEX
  5
C7E
  8
0
 62
     2
 10
-189.9611
 20
50.6118
 30
0.0
  0
VERTEX
  5
C7F
  8
0
 62
     2
 10
-189.977
 20
50.5971
 30
0.0
  0
VERTEX
  5
C80
  8
0
 62
     2
 10
-189.9926
 20
50.5821
 30
0.0
  0
VERTEX
  5
C81
  8
0
 62
     2
 10
-190.0079
 20
50.5668
 30
0.0
  0
VERTEX
  5
C82
  8
0
 62
     2
 10
-190.00795
 20
50.56675
 30
0.0
  0
VERTEX
  5
C83
  8
0
 62
     2
 10
-190.0229
 20
50.5511
 30
0.0
  0
VERTEX
  5
C84
  8
0
 62
     2
 10
-190.03749
 20
50.53511
 30
0.0
  0
VERTEX
  5
C85
  8
0
 62
     2
 10
-190.0375
 20
50.5351
 30
0.0
  0
VERTEX
  5
C86
  8
0
 62
     2
 10
-190.05175
 20
50.51896
 30
0.0
  0
VERTEX
  5
C87
  8
0
 62
     2
 10
-190.0518
 20
50.5189
 30
0.0
  0
VERTEX
  5
C88
  8
0
 62
     2
 10
-190.05188
 20
50.51881
 30
0.0
  0
VERTEX
  5
C89
  8
0
 62
     2
 10
-190.0677
 20
50.5002
 30
0.0
  0
VERTEX
  5
C8A
  8
0
 62
     2
 10
-190.06777
 20
50.50011
 30
0.0
  0
VERTEX
  5
C8B
  8
0
 62
     2
 10
-190.0832
 20
50.4811
 30
0.0
  0
VERTEX
  5
C8C
  8
0
 62
     2
 10
-190.09824
 20
50.46178
 30
0.0
  0
VERTEX
  5
C8D
  8
0
 62
     2
 10
-190.0983
 20
50.4617
 30
0.0
  0
VERTEX
  5
C8E
  8
0
 62
     2
 10
-190.09832
 20
50.46167
 30
0.0
  0
VERTEX
  5
C8F
  8
0
 62
     2
 10
-190.1131
 20
50.442
 30
0.0
  0
VERTEX
  5
C90
  8
0
 62
     2
 10
-190.11312
 20
50.44197
 30
0.0
  0
VERTEX
  5
C91
  8
0
 62
     2
 10
-190.1275
 20
50.4221
 30
0.0
  0
VERTEX
  5
C92
  8
0
 62
     2
 10
-190.1275
 20
50.42209
 30
0.0
  0
VERTEX
  5
C93
  8
0
 62
     2
 10
-190.1416
 20
50.4019
 30
0.0
  0
VERTEX
  5
C94
  8
0
 62
     2
 10
-190.14163
 20
50.40185
 30
0.0
  0
VERTEX
  5
C95
  8
0
 62
     2
 10
-190.1553
 20
50.3815
 30
0.0
  0
VERTEX
  5
C96
  8
0
 62
     2
 10
-190.15531
 20
50.38148
 30
0.0
  0
VERTEX
  5
C97
  8
0
 62
     2
 10
-190.1687
 20
50.3608
 30
0.0
  0
VERTEX
  5
C98
  8
0
 62
     2
 10
-190.16873
 20
50.36076
 30
0.0
  0
VERTEX
  5
C99
  8
0
 62
     2
 10
-190.1818
 20
50.34
 30
0.0
  0
VERTEX
  5
C9A
  8
0
 62
     2
 10
-190.19448
 20
50.31893
 30
0.0
  0
VERTEX
  5
C9B
  8
0
 62
     2
 10
-190.1945
 20
50.3189
 30
0.0
  0
VERTEX
  5
C9C
  8
0
 62
     2
 10
-190.20838
 20
50.29503
 30
0.0
  0
VERTEX
  5
C9D
  8
0
 62
     2
 10
-190.2084
 20
50.295
 30
0.0
  0
VERTEX
  5
C9E
  8
0
 62
     2
 10
-190.22184
 20
50.27111
 30
0.0
  0
VERTEX
  5
C9F
  8
0
 62
     2
 10
-190.2219
 20
50.271
 30
0.0
  0
VERTEX
  5
CA0
  8
0
 62
     2
 10
-190.23506
 20
50.24687
 30
0.0
  0
VERTEX
  5
CA1
  8
0
 62
     2
 10
-190.2351
 20
50.2468
 30
0.0
  0
VERTEX
  5
CA2
  8
0
 62
     2
 10
-190.24786
 20
50.22247
 30
0.0
  0
VERTEX
  5
CA3
  8
0
 62
     2
 10
-190.2479
 20
50.2224
 30
0.0
  0
VERTEX
  5
CA4
  8
0
 62
     2
 10
-190.24792
 20
50.22236
 30
0.0
  0
VERTEX
  5
CA5
  8
0
 62
     2
 10
-190.2604
 20
50.1978
 30
0.0
  0
VERTEX
  5
CA6
  8
0
 62
     2
 10
-190.26042
 20
50.19776
 30
0.0
  0
VERTEX
  5
CA7
  8
0
 62
     2
 10
-190.2725
 20
50.173
 30
0.0
  0
VERTEX
  5
CA8
  8
0
 62
     2
 10
-190.28426
 20
50.14809
 30
0.0
  0
VERTEX
  5
CA9
  8
0
 62
     2
 10
-190.2843
 20
50.148
 30
0.0
  0
VERTEX
  5
CAA
  8
0
 62
     2
 10
-190.2957
 20
50.12291
 30
0.0
  0
VERTEX
  5
CAB
  8
0
 62
     2
 10
-190.2957
 20
50.1229
 30
0.0
  0
VERTEX
  5
CAC
  8
0
 62
     2
 10
-190.29572
 20
50.12286
 30
0.0
  0
VERTEX
  5
CAD
  8
0
 62
     2
 10
-190.3068
 20
50.0977
 30
0.0
  0
VERTEX
  5
CAE
  8
0
 62
     2
 10
-190.30683
 20
50.09763
 30
0.0
  0
VERTEX
  5
CAF
  8
0
 62
     2
 10
-190.3176
 20
50.0723
 30
0.0
  0
VERTEX
  5
CB0
  8
0
 62
     2
 10
-190.32907
 20
50.04437
 30
0.0
  0
VERTEX
  5
CB1
  8
0
 62
     2
 10
-190.3291
 20
50.0443
 30
0.0
  0
VERTEX
  5
CB2
  8
0
 62
     2
 10
-190.34029
 20
50.01622
 30
0.0
  0
VERTEX
  5
CB3
  8
0
 62
     2
 10
-190.3403
 20
50.0162
 30
0.0
  0
VERTEX
  5
CB4
  8
0
 62
     2
 10
-190.35109
 20
49.98792
 30
0.0
  0
VERTEX
  5
CB5
  8
0
 62
     2
 10
-190.3511
 20
49.9879
 30
0.0
  0
VERTEX
  5
CB6
  8
0
 62
     2
 10
-190.35112
 20
49.98784
 30
0.0
  0
VERTEX
  5
CB7
  8
0
 62
     2
 10
-190.3615
 20
49.9595
 30
0.0
  0
VERTEX
  5
CB8
  8
0
 62
     2
 10
-190.3615
 20
49.95949
 30
0.0
  0
VERTEX
  5
CB9
  8
0
 62
     2
 10
-190.3716
 20
49.931
 30
0.0
  0
VERTEX
  5
CBA
  8
0
 62
     2
 10
-190.38139
 20
49.90233
 30
0.0
  0
VERTEX
  5
CBB
  8
0
 62
     2
 10
-190.3814
 20
49.9023
 30
0.0
  0
VERTEX
  5
CBC
  8
0
 62
     2
 10
-190.38141
 20
49.90227
 30
0.0
  0
VERTEX
  5
CBD
  8
0
 62
     2
 10
-190.3909
 20
49.8735
 30
0.0
  0
VERTEX
  5
CBE
  8
0
 62
     2
 10
-190.39092
 20
49.87344
 30
0.0
  0
VERTEX
  5
CBF
  8
0
 62
     2
 10
-190.4001
 20
49.8447
 30
0.0
  0
VERTEX
  5
CC0
  8
0
 62
     2
 10
-190.40889
 20
49.81584
 30
0.0
  0
VERTEX
  5
CC1
  8
0
 62
     2
 10
-190.4089
 20
49.8158
 30
0.0
  0
VERTEX
  5
CC2
  8
0
 62
     2
 10
-190.40894
 20
49.81568
 30
0.0
  0
VERTEX
  5
CC3
  8
0
 62
     2
 10
-190.4174
 20
49.7867
 30
0.0
  0
VERTEX
  5
CC4
  8
0
 62
     2
 10
-190.42619
 20
49.75544
 30
0.0
  0
VERTEX
  5
CC5
  8
0
 62
     2
 10
-190.4262
 20
49.7554
 30
0.0
  0
VERTEX
  5
CC6
  8
0
 62
     2
 10
-190.43468
 20
49.72417
 30
0.0
  0
VERTEX
  5
CC7
  8
0
 62
     2
 10
-190.4347
 20
49.7241
 30
0.0
  0
VERTEX
  5
CC8
  8
0
 62
     2
 10
-190.43471
 20
49.72405
 30
0.0
  0
VERTEX
  5
CC9
  8
0
 62
     2
 10
-190.4429
 20
49.6927
 30
0.0
  0
VERTEX
  5
CCA
  8
0
 62
     2
 10
-190.45069
 20
49.66125
 30
0.0
  0
VERTEX
  5
CCB
  8
0
 62
     2
 10
-190.4507
 20
49.6612
 30
0.0
  0
VERTEX
  5
CCC
  8
0
 62
     2
 10
-190.45071
 20
49.66116
 30
0.0
  0
VERTEX
  5
CCD
  8
0
 62
     2
 10
-190.4581
 20
49.6296
 30
0.0
  0
VERTEX
  5
CCE
  8
0
 62
     2
 10
-190.45811
 20
49.62956
 30
0.0
  0
VERTEX
  5
CCF
  8
0
 62
     2
 10
-190.4653
 20
49.598
 30
0.0
  0
VERTEX
  5
CD0
  8
0
 62
     2
 10
-190.4653
 20
49.59798
 30
0.0
  0
VERTEX
  5
CD1
  8
0
 62
     2
 10
-190.4722
 20
49.5662
 30
0.0
  0
VERTEX
  5
CD2
  8
0
 62
     2
 10
-190.4722
 20
49.56618
 30
0.0
  0
VERTEX
  5
CD3
  8
0
 62
     2
 10
-190.4787
 20
49.5344
 30
0.0
  0
VERTEX
  5
CD4
  8
0
 62
     2
 10
-190.47871
 20
49.53436
 30
0.0
  0
VERTEX
  5
CD5
  8
0
 62
     2
 10
-190.4849
 20
49.5026
 30
0.0
  0
VERTEX
  5
CD6
  8
0
 62
     2
 10
-190.48493
 20
49.50247
 30
0.0
  0
VERTEX
  5
CD7
  8
0
 62
     2
 10
-190.4909
 20
49.4707
 30
0.0
  0
VERTEX
  5
CD8
  8
0
 62
     2
 10
-190.50239
 20
49.40378
 30
0.0
  0
VERTEX
  5
CD9
  8
0
 62
     2
 10
-190.5024
 20
49.4037
 30
0.0
  0
VERTEX
  5
CDA
  8
0
 62
     2
 10
-190.51259
 20
49.33658
 30
0.0
  0
VERTEX
  5
CDB
  8
0
 62
     2
 10
-190.5126
 20
49.3365
 30
0.0
  0
VERTEX
  5
CDC
  8
0
 62
     2
 10
-190.51261
 20
49.33644
 30
0.0
  0
VERTEX
  5
CDD
  8
0
 62
     2
 10
-190.5215
 20
49.2691
 30
0.0
  0
VERTEX
  5
CDE
  8
0
 62
     2
 10
-190.5293
 20
49.20163
 30
0.0
  0
VERTEX
  5
CDF
  8
0
 62
     2
 10
-190.5293
 20
49.2016
 30
0.0
  0
VERTEX
  5
CE0
  8
0
 62
     2
 10
-190.5293
 20
49.20156
 30
0.0
  0
VERTEX
  5
CE1
  8
0
 62
     2
 10
-190.5388
 20
49.0985
 30
0.0
  0
VERTEX
  5
CE2
  8
0
 62
     2
 10
-190.5455
 20
48.9952
 30
0.0
  0
VERTEX
  5
CE3
  8
0
 62
     2
 10
-190.54071
 20
48.51509
 30
0.0
  0
VERTEX
  5
CE4
  8
0
 62
     2
 10
-190.5407
 20
48.515
 30
0.0
  0
VERTEX
  5
CE5
  8
0
 62
     2
 10
-190.47792
 20
48.039
 30
0.0
  0
VERTEX
  5
CE6
  8
0
 62
     2
 10
-190.4779
 20
48.0389
 30
0.0
  0
VERTEX
  5
CE7
  8
0
 62
     2
 10
-190.47141
 20
48.00716
 30
0.0
  0
VERTEX
  5
CE8
  8
0
 62
     2
 10
-190.4714
 20
48.0071
 30
0.0
  0
VERTEX
  5
CE9
  8
0
 62
     2
 10
-190.4714
 20
48.00709
 30
0.0
  0
VERTEX
  5
CEA
  8
0
 62
     2
 10
-190.4644
 20
47.9754
 30
0.0
  0
VERTEX
  5
CEB
  8
0
 62
     2
 10
-190.45713
 20
47.94382
 30
0.0
  0
VERTEX
  5
CEC
  8
0
 62
     2
 10
-190.4571
 20
47.9437
 30
0.0
  0
VERTEX
  5
CED
  8
0
 62
     2
 10
-190.4497
 20
47.9121
 30
0.0
  0
VERTEX
  5
CEE
  8
0
 62
     2
 10
-190.44969
 20
47.91207
 30
0.0
  0
VERTEX
  5
CEF
  8
0
 62
     2
 10
-190.442
 20
47.8806
 30
0.0
  0
VERTEX
  5
CF0
  8
0
 62
     2
 10
-190.43372
 20
47.84927
 30
0.0
  0
VERTEX
  5
CF1
  8
0
 62
     2
 10
-190.4337
 20
47.8492
 30
0.0
  0
VERTEX
  5
CF2
  8
0
 62
     2
 10
-190.42503
 20
47.81802
 30
0.0
  0
VERTEX
  5
CF3
  8
0
 62
     2
 10
-190.425
 20
47.8179
 30
0.0
  0
VERTEX
  5
CF4
  8
0
 62
     2
 10
-190.41631
 20
47.78673
 30
0.0
  0
VERTEX
  5
CF5
  8
0
 62
     2
 10
-190.4163
 20
47.7867
 30
0.0
  0
VERTEX
  5
CF6
  8
0
 62
     2
 10
-190.41629
 20
47.78666
 30
0.0
  0
VERTEX
  5
CF7
  8
0
 62
     2
 10
-190.4079
 20
47.7576
 30
0.0
  0
VERTEX
  5
CF8
  8
0
 62
     2
 10
-190.40789
 20
47.75757
 30
0.0
  0
VERTEX
  5
CF9
  8
0
 62
     2
 10
-190.3989
 20
47.7287
 30
0.0
  0
VERTEX
  5
CFA
  8
0
 62
     2
 10
-190.38961
 20
47.69993
 30
0.0
  0
VERTEX
  5
CFB
  8
0
 62
     2
 10
-190.3896
 20
47.6999
 30
0.0
  0
VERTEX
  5
CFC
  8
0
 62
     2
 10
-190.3802
 20
47.6711
 30
0.0
  0
VERTEX
  5
CFD
  8
0
 62
     2
 10
-190.3705
 20
47.6424
 30
0.0
  0
VERTEX
  5
CFE
  8
0
 62
     2
 10
-190.36031
 20
47.61394
 30
0.0
  0
VERTEX
  5
CFF
  8
0
 62
     2
 10
-190.3603
 20
47.6139
 30
0.0
  0
VERTEX
  5
D00
  8
0
 62
     2
 10
-190.36027
 20
47.61381
 30
0.0
  0
VERTEX
  5
D01
  8
0
 62
     2
 10
-190.3497
 20
47.5856
 30
0.0
  0
VERTEX
  5
D02
  8
0
 62
     2
 10
-190.34967
 20
47.58551
 30
0.0
  0
VERTEX
  5
D03
  8
0
 62
     2
 10
-190.3389
 20
47.5573
 30
0.0
  0
VERTEX
  5
D04
  8
0
 62
     2
 10
-190.32784
 20
47.5292
 30
0.0
  0
VERTEX
  5
D05
  8
0
 62
     2
 10
-190.3278
 20
47.5291
 30
0.0
  0
VERTEX
  5
D06
  8
0
 62
     2
 10
-190.31622
 20
47.50126
 30
0.0
  0
VERTEX
  5
D07
  8
0
 62
     2
 10
-190.3162
 20
47.5012
 30
0.0
  0
VERTEX
  5
D08
  8
0
 62
     2
 10
-190.31618
 20
47.50115
 30
0.0
  0
VERTEX
  5
D09
  8
0
 62
     2
 10
-190.3053
 20
47.4759
 30
0.0
  0
VERTEX
  5
D0A
  8
0
 62
     2
 10
-190.30528
 20
47.47585
 30
0.0
  0
VERTEX
  5
D0B
  8
0
 62
     2
 10
-190.2942
 20
47.4506
 30
0.0
  0
VERTEX
  5
D0C
  8
0
 62
     2
 10
-190.28283
 20
47.42547
 30
0.0
  0
VERTEX
  5
D0D
  8
0
 62
     2
 10
-190.2828
 20
47.4254
 30
0.0
  0
VERTEX
  5
D0E
  8
0
 62
     2
 10
-190.27092
 20
47.40054
 30
0.0
  0
VERTEX
  5
D0F
  8
0
 62
     2
 10
-190.2709
 20
47.4005
 30
0.0
  0
VERTEX
  5
D10
  8
0
 62
     2
 10
-190.27086
 20
47.40042
 30
0.0
  0
VERTEX
  5
D11
  8
0
 62
     2
 10
-190.2587
 20
47.3758
 30
0.0
  0
VERTEX
  5
D12
  8
0
 62
     2
 10
-190.2463
 20
47.3512
 30
0.0
  0
VERTEX
  5
D13
  8
0
 62
     2
 10
-190.23362
 20
47.32674
 30
0.0
  0
VERTEX
  5
D14
  8
0
 62
     2
 10
-190.2336
 20
47.3267
 30
0.0
  0
VERTEX
  5
D15
  8
0
 62
     2
 10
-190.23359
 20
47.32667
 30
0.0
  0
VERTEX
  5
D16
  8
0
 62
     2
 10
-190.2203
 20
47.3025
 30
0.0
  0
VERTEX
  5
D17
  8
0
 62
     2
 10
-190.20662
 20
47.27854
 30
0.0
  0
VERTEX
  5
D18
  8
0
 62
     2
 10
-190.2066
 20
47.2785
 30
0.0
  0
VERTEX
  5
D19
  8
0
 62
     2
 10
-190.19285
 20
47.25479
 30
0.0
  0
VERTEX
  5
D1A
  8
0
 62
     2
 10
-190.1928
 20
47.2547
 30
0.0
  0
VERTEX
  5
D1B
  8
0
 62
     2
 10
-190.18014
 20
47.23366
 30
0.0
  0
VERTEX
  5
D1C
  8
0
 62
     2
 10
-190.1801
 20
47.2336
 30
0.0
  0
VERTEX
  5
D1D
  8
0
 62
     2
 10
-190.1801
 20
47.23359
 30
0.0
  0
VERTEX
  5
D1E
  8
0
 62
     2
 10
-190.167
 20
47.2128
 30
0.0
  0
VERTEX
  5
D1F
  8
0
 62
     2
 10
-190.15353
 20
47.19225
 30
0.0
  0
VERTEX
  5
D20
  8
0
 62
     2
 10
-190.1535
 20
47.1922
 30
0.0
  0
VERTEX
  5
D21
  8
0
 62
     2
 10
-190.13983
 20
47.17185
 30
0.0
  0
VERTEX
  5
D22
  8
0
 62
     2
 10
-190.1398
 20
47.1718
 30
0.0
  0
VERTEX
  5
D23
  8
0
 62
     2
 10
-190.13977
 20
47.17176
 30
0.0
  0
VERTEX
  5
D24
  8
0
 62
     2
 10
-190.1258
 20
47.1516
 30
0.0
  0
VERTEX
  5
D25
  8
0
 62
     2
 10
-190.12576
 20
47.15155
 30
0.0
  0
VERTEX
  5
D26
  8
0
 62
     2
 10
-190.1113
 20
47.1317
 30
0.0
  0
VERTEX
  5
D27
  8
0
 62
     2
 10
-190.0965
 20
47.1121
 30
0.0
  0
VERTEX
  5
D28
  8
0
 62
     2
 10
-190.08144
 20
47.09275
 30
0.0
  0
VERTEX
  5
D29
  8
0
 62
     2
 10
-190.0814
 20
47.0927
 30
0.0
  0
VERTEX
  5
D2A
  8
0
 62
     2
 10
-190.06592
 20
47.07353
 30
0.0
  0
VERTEX
  5
D2B
  8
0
 62
     2
 10
-190.0659
 20
47.0735
 30
0.0
  0
VERTEX
  5
D2C
  8
0
 62
     2
 10
-190.04994
 20
47.05484
 30
0.0
  0
VERTEX
  5
D2D
  8
0
 62
     2
 10
-190.0499
 20
47.0548
 30
0.0
  0
VERTEX
  5
D2E
  8
0
 62
     2
 10
-190.04985
 20
47.05474
 30
0.0
  0
VERTEX
  5
D2F
  8
0
 62
     2
 10
-190.0355
 20
47.0387
 30
0.0
  0
VERTEX
  5
D30
  8
0
 62
     2
 10
-190.0354
 20
47.03859
 30
0.0
  0
VERTEX
  5
D31
  8
0
 62
     2
 10
-190.0209
 20
47.0227
 30
0.0
  0
VERTEX
  5
D32
  8
0
 62
     2
 10
-190.02089
 20
47.02269
 30
0.0
  0
VERTEX
  5
D33
  8
0
 62
     2
 10
-190.006
 20
47.007
 30
0.0
  0
VERTEX
  5
D34
  8
0
 62
     2
 10
-189.9907
 20
46.9917
 30
0.0
  0
VERTEX
  5
D35
  8
0
 62
     2
 10
-189.975
 20
46.9768
 30
0.0
  0
VERTEX
  5
D36
  8
0
 62
     2
 10
-189.9591
 20
46.9621
 30
0.0
  0
VERTEX
  5
D37
  8
0
 62
     2
 10
-189.95906
 20
46.96207
 30
0.0
  0
VERTEX
  5
D38
  8
0
 62
     2
 10
-189.9429
 20
46.9478
 30
0.0
  0
VERTEX
  5
D39
  8
0
 62
     2
 10
-189.92628
 20
46.93406
 30
0.0
  0
VERTEX
  5
D3A
  8
0
 62
     2
 10
-189.9262
 20
46.934
 30
0.0
  0
VERTEX
  5
D3B
  8
0
 62
     2
 10
-189.92617
 20
46.93397
 30
0.0
  0
VERTEX
  5
D3C
  8
0
 62
     2
 10
-189.9091
 20
46.9206
 30
0.0
  0
VERTEX
  5
D3D
  8
0
 62
     2
 10
-189.90907
 20
46.92058
 30
0.0
  0
VERTEX
  5
D3E
  8
0
 62
     2
 10
-189.8918
 20
46.9076
 30
0.0
  0
VERTEX
  5
D3F
  8
0
 62
     2
 10
-189.87624
 20
46.89643
 30
0.0
  0
VERTEX
  5
D40
  8
0
 62
     2
 10
-189.8762
 20
46.8964
 30
0.0
  0
VERTEX
  5
D41
  8
0
 62
     2
 10
-189.86042
 20
46.88587
 30
0.0
  0
VERTEX
  5
D42
  8
0
 62
     2
 10
-189.8603
 20
46.8858
 30
0.0
  0
VERTEX
  5
D43
  8
0
 62
     2
 10
-189.86028
 20
46.88579
 30
0.0
  0
VERTEX
  5
D44
  8
0
 62
     2
 10
-189.844
 20
46.8756
 30
0.0
  0
VERTEX
  5
D45
  8
0
 62
     2
 10
-189.8277
 20
46.86576
 30
0.0
  0
VERTEX
  5
D46
  8
0
 62
     2
 10
-189.8276
 20
46.8657
 30
0.0
  0
VERTEX
  5
D47
  8
0
 62
     2
 10
-189.82751
 20
46.86564
 30
0.0
  0
VERTEX
  5
D48
  8
0
 62
     2
 10
-189.8109
 20
46.8563
 30
0.0
  0
VERTEX
  5
D49
  8
0
 62
     2
 10
-189.81089
 20
46.8563
 30
0.0
  0
VERTEX
  5
D4A
  8
0
 62
     2
 10
-189.7939
 20
46.8475
 30
0.0
  0
VERTEX
  5
D4B
  8
0
 62
     2
 10
-189.79386
 20
46.84748
 30
0.0
  0
VERTEX
  5
D4C
  8
0
 62
     2
 10
-189.7766
 20
46.8392
 30
0.0
  0
VERTEX
  5
D4D
  8
0
 62
     2
 10
-189.77657
 20
46.83919
 30
0.0
  0
VERTEX
  5
D4E
  8
0
 62
     2
 10
-189.7591
 20
46.8313
 30
0.0
  0
VERTEX
  5
D4F
  8
0
 62
     2
 10
-189.75908
 20
46.83129
 30
0.0
  0
VERTEX
  5
D50
  8
0
 62
     2
 10
-189.7414
 20
46.824
 30
0.0
  0
VERTEX
  5
D51
  8
0
 62
     2
 10
-189.72345
 20
46.81742
 30
0.0
  0
VERTEX
  5
D52
  8
0
 62
     2
 10
-189.7234
 20
46.8174
 30
0.0
  0
VERTEX
  5
D53
  8
0
 62
     2
 10
-189.72333
 20
46.81738
 30
0.0
  0
VERTEX
  5
D54
  8
0
 62
     2
 10
-189.6896
 20
46.8069
 30
0.0
  0
VERTEX
  5
D55
  8
0
 62
     2
 10
-189.68955
 20
46.80689
 30
0.0
  0
VERTEX
  5
D56
  8
0
 62
     2
 10
-189.6552
 20
46.7983
 30
0.0
  0
VERTEX
  5
D57
  8
0
 62
     2
 10
-189.65513
 20
46.79828
 30
0.0
  0
VERTEX
  5
D58
  8
0
 62
     2
 10
-189.6378
 20
46.7949
 30
0.0
  0
VERTEX
  5
D59
  8
0
 62
     2
 10
-189.62035
 20
46.79221
 30
0.0
  0
VERTEX
  5
D5A
  8
0
 62
     2
 10
-189.6203
 20
46.7922
 30
0.0
  0
VERTEX
  5
D5B
  8
0
 62
     2
 10
-189.62026
 20
46.7922
 30
0.0
  0
VERTEX
  5
D5C
  8
0
 62
     2
 10
-189.6027
 20
46.7901
 30
0.0
  0
VERTEX
  5
D5D
  8
0
 62
     2
 10
-189.60267
 20
46.7901
 30
0.0
  0
VERTEX
  5
D5E
  8
0
 62
     2
 10
-189.5851
 20
46.7884
 30
0.0
  0
VERTEX
  5
D5F
  8
0
 62
     2
 10
-189.53204
 20
46.7873
 30
0.0
  0
VERTEX
  5
D60
  8
0
 62
     2
 10
-189.532
 20
46.7873
 30
0.0
  0
VERTEX
  5
D61
  8
0
 62
     2
 10
-189.47928
 20
46.79229
 30
0.0
  0
VERTEX
  5
D62
  8
0
 62
     2
 10
-189.4792
 20
46.7923
 30
0.0
  0
VERTEX
  5
D63
  8
0
 62
     2
 10
-189.44436
 20
46.79859
 30
0.0
  0
VERTEX
  5
D64
  8
0
 62
     2
 10
-189.4443
 20
46.7986
 30
0.0
  0
VERTEX
  5
D65
  8
0
 62
     2
 10
-189.40992
 20
46.8069
 30
0.0
  0
VERTEX
  5
D66
  8
0
 62
     2
 10
-189.4099
 20
46.8069
 30
0.0
  0
VERTEX
  5
D67
  8
0
 62
     2
 10
-189.40982
 20
46.80692
 30
0.0
  0
VERTEX
  5
D68
  8
0
 62
     2
 10
-189.3929
 20
46.8119
 30
0.0
  0
VERTEX
  5
D69
  8
0
 62
     2
 10
-189.39281
 20
46.81193
 30
0.0
  0
VERTEX
  5
D6A
  8
0
 62
     2
 10
-189.3761
 20
46.8176
 30
0.0
  0
VERTEX
  5
D6B
  8
0
 62
     2
 10
-189.37608
 20
46.81761
 30
0.0
  0
VERTEX
  5
D6C
  8
0
 62
     2
 10
-189.3582
 20
46.8244
 30
0.0
  0
VERTEX
  5
D6D
  8
0
 62
     2
 10
-189.3581
 20
46.82444
 30
0.0
  0
VERTEX
  5
D6E
  8
0
 62
     2
 10
-189.3404
 20
46.8316
 30
0.0
  0
VERTEX
  5
D6F
  8
0
 62
     2
 10
-189.32296
 20
46.83937
 30
0.0
  0
VERTEX
  5
D70
  8
0
 62
     2
 10
-189.3229
 20
46.8394
 30
0.0
  0
VERTEX
  5
D71
  8
0
 62
     2
 10
-189.3057
 20
46.8478
 30
0.0
  0
VERTEX
  5
D72
  8
0
 62
     2
 10
-189.30566
 20
46.84782
 30
0.0
  0
VERTEX
  5
D73
  8
0
 62
     2
 10
-189.2888
 20
46.8567
 30
0.0
  0
VERTEX
  5
D74
  8
0
 62
     2
 10
-189.28869
 20
46.85676
 30
0.0
  0
VERTEX
  5
D75
  8
0
 62
     2
 10
-189.272
 20
46.866
 30
0.0
  0
VERTEX
  5
D76
  8
0
 62
     2
 10
-189.27186
 20
46.86608
 30
0.0
  0
VERTEX
  5
D77
  8
0
 62
     2
 10
-189.2555
 20
46.8758
 30
0.0
  0
VERTEX
  5
D78
  8
0
 62
     2
 10
-189.25545
 20
46.87583
 30
0.0
  0
VERTEX
  5
D79
  8
0
 62
     2
 10
-189.2393
 20
46.8862
 30
0.0
  0
VERTEX
  5
D7A
  8
0
 62
     2
 10
-189.23926
 20
46.88623
 30
0.0
  0
VERTEX
  5
D7B
  8
0
 62
     2
 10
-189.2235
 20
46.897
 30
0.0
  0
VERTEX
  5
D7C
  8
0
 62
     2
 10
-189.20783
 20
46.90798
 30
0.0
  0
VERTEX
  5
D7D
  8
0
 62
     2
 10
-189.2078
 20
46.908
 30
0.0
  0
VERTEX
  5
D7E
  8
0
 62
     2
 10
-189.19041
 20
46.92089
 30
0.0
  0
VERTEX
  5
D7F
  8
0
 62
     2
 10
-189.1904
 20
46.9209
 30
0.0
  0
VERTEX
  5
D80
  8
0
 62
     2
 10
-189.19036
 20
46.92093
 30
0.0
  0
VERTEX
  5
D81
  8
0
 62
     2
 10
-189.1735
 20
46.9344
 30
0.0
  0
VERTEX
  5
D82
  8
0
 62
     2
 10
-189.15695
 20
46.94826
 30
0.0
  0
VERTEX
  5
D83
  8
0
 62
     2
 10
-189.1569
 20
46.9483
 30
0.0
  0
VERTEX
  5
D84
  8
0
 62
     2
 10
-189.14064
 20
46.96246
 30
0.0
  0
VERTEX
  5
D85
  8
0
 62
     2
 10
-189.1406
 20
46.9625
 30
0.0
  0
VERTEX
  5
D86
  8
0
 62
     2
 10
-189.14059
 20
46.96251
 30
0.0
  0
VERTEX
  5
D87
  8
0
 62
     2
 10
-189.1246
 20
46.9771
 30
0.0
  0
VERTEX
  5
D88
  8
0
 62
     2
 10
-189.1091
 20
46.9922
 30
0.0
  0
VERTEX
  5
D89
  8
0
 62
     2
 10
-189.109
 20
46.9923
 30
0.0
  0
VERTEX
  5
D8A
  8
0
 62
     2
 10
-189.0939
 20
47.0076
 30
0.0
  0
VERTEX
  5
D8B
  8
0
 62
     2
 10
-189.09385
 20
47.00765
 30
0.0
  0
VERTEX
  5
D8C
  8
0
 62
     2
 10
-189.0788
 20
47.0232
 30
0.0
  0
VERTEX
  5
D8D
  8
0
 62
     2
 10
-189.0642
 20
47.03899
 30
0.0
  0
VERTEX
  5
D8E
  8
0
 62
     2
 10
-189.0641
 20
47.0391
 30
0.0
  0
VERTEX
  5
D8F
  8
0
 62
     2
 10
-189.04996
 20
47.05533
 30
0.0
  0
VERTEX
  5
D90
  8
0
 62
     2
 10
-189.0499
 20
47.0554
 30
0.0
  0
VERTEX
  5
D91
  8
0
 62
     2
 10
-189.04982
 20
47.0555
 30
0.0
  0
VERTEX
  5
D92
  8
0
 62
     2
 10
-189.0341
 20
47.0742
 30
0.0
  0
VERTEX
  5
D93
  8
0
 62
     2
 10
-189.03402
 20
47.0743
 30
0.0
  0
VERTEX
  5
D94
  8
0
 62
     2
 10
-189.0185
 20
47.0932
 30
0.0
  0
VERTEX
  5
D95
  8
0
 62
     2
 10
-189.01847
 20
47.09324
 30
0.0
  0
VERTEX
  5
D96
  8
0
 62
     2
 10
-189.0033
 20
47.1125
 30
0.0
  0
VERTEX
  5
D97
  8
0
 62
     2
 10
-189.00329
 20
47.11251
 30
0.0
  0
VERTEX
  5
D98
  8
0
 62
     2
 10
-188.9886
 20
47.1323
 30
0.0
  0
VERTEX
  5
D99
  8
0
 62
     2
 10
-188.98857
 20
47.13235
 30
0.0
  0
VERTEX
  5
D9A
  8
0
 62
     2
 10
-188.9743
 20
47.1523
 30
0.0
  0
VERTEX
  5
D9B
  8
0
 62
     2
 10
-188.97428
 20
47.15233
 30
0.0
  0
VERTEX
  5
D9C
  8
0
 62
     2
 10
-188.9601
 20
47.1724
 30
0.0
  0
VERTEX
  5
D9D
  8
0
 62
     2
 10
-188.94633
 20
47.19276
 30
0.0
  0
VERTEX
  5
D9E
  8
0
 62
     2
 10
-188.9463
 20
47.1928
 30
0.0
  0
VERTEX
  5
D9F
  8
0
 62
     2
 10
-188.94626
 20
47.19287
 30
0.0
  0
VERTEX
  5
DA0
  8
0
 62
     2
 10
-188.933
 20
47.2135
 30
0.0
  0
VERTEX
  5
DA1
  8
0
 62
     2
 10
-188.92004
 20
47.23433
 30
0.0
  0
VERTEX
  5
DA2
  8
0
 62
     2
 10
-188.92
 20
47.2344
 30
0.0
  0
VERTEX
  5
DA3
  8
0
 62
     2
 10
-188.9072
 20
47.2554
 30
0.0
  0
VERTEX
  5
DA4
  8
0
 62
     2
 10
-188.89324
 20
47.27914
 30
0.0
  0
VERTEX
  5
DA5
  8
0
 62
     2
 10
-188.8932
 20
47.2792
 30
0.0
  0
VERTEX
  5
DA6
  8
0
 62
     2
 10
-188.8932
 20
47.27921
 30
0.0
  0
VERTEX
  5
DA7
  8
0
 62
     2
 10
-188.8798
 20
47.3033
 30
0.0
  0
VERTEX
  5
DA8
  8
0
 62
     2
 10
-188.86672
 20
47.32756
 30
0.0
  0
VERTEX
  5
DA9
  8
0
 62
     2
 10
-188.8667
 20
47.3276
 30
0.0
  0
VERTEX
  5
DAA
  8
0
 62
     2
 10
-188.85382
 20
47.35186
 30
0.0
  0
VERTEX
  5
DAB
  8
0
 62
     2
 10
-188.8538
 20
47.3519
 30
0.0
  0
VERTEX
  5
DAC
  8
0
 62
     2
 10
-188.84124
 20
47.37642
 30
0.0
  0
VERTEX
  5
DAD
  8
0
 62
     2
 10
-188.8412
 20
47.3765
 30
0.0
  0
VERTEX
  5
DAE
  8
0
 62
     2
 10
-188.82924
 20
47.40122
 30
0.0
  0
VERTEX
  5
DAF
  8
0
 62
     2
 10
-188.8292
 20
47.4013
 30
0.0
  0
VERTEX
  5
DB0
  8
0
 62
     2
 10
-188.82918
 20
47.40134
 30
0.0
  0
VERTEX
  5
DB1
  8
0
 62
     2
 10
-188.8175
 20
47.4263
 30
0.0
  0
VERTEX
  5
DB2
  8
0
 62
     2
 10
-188.81744
 20
47.42642
 30
0.0
  0
VERTEX
  5
DB3
  8
0
 62
     2
 10
-188.806
 20
47.4514
 30
0.0
  0
VERTEX
  5
DB4
  8
0
 62
     2
 10
-188.79484
 20
47.47651
 30
0.0
  0
VERTEX
  5
DB5
  8
0
 62
     2
 10
-188.7948
 20
47.4766
 30
0.0
  0
VERTEX
  5
DB6
  8
0
 62
     2
 10
-188.78413
 20
47.50194
 30
0.0
  0
VERTEX
  5
DB7
  8
0
 62
     2
 10
-188.7841
 20
47.502
 30
0.0
  0
VERTEX
  5
DB8
  8
0
 62
     2
 10
-188.7727
 20
47.53
 30
0.0
  0
VERTEX
  5
DB9
  8
0
 62
     2
 10
-188.77265
 20
47.53012
 30
0.0
  0
VERTEX
  5
DBA
  8
0
 62
     2
 10
-188.7614
 20
47.5581
 30
0.0
  0
VERTEX
  5
DBB
  8
0
 62
     2
 10
-188.76136
 20
47.5582
 30
0.0
  0
VERTEX
  5
DBC
  8
0
 62
     2
 10
-188.7505
 20
47.5863
 30
0.0
  0
VERTEX
  5
DBD
  8
0
 62
     2
 10
-188.7505
 20
47.58631
 30
0.0
  0
VERTEX
  5
DBE
  8
0
 62
     2
 10
-188.7402
 20
47.6148
 30
0.0
  0
VERTEX
  5
DBF
  8
0
 62
     2
 10
-188.7302
 20
47.6434
 30
0.0
  0
VERTEX
  5
DC0
  8
0
 62
     2
 10
-188.73019
 20
47.64343
 30
0.0
  0
VERTEX
  5
DC1
  8
0
 62
     2
 10
-188.7203
 20
47.672
 30
0.0
  0
VERTEX
  5
DC2
  8
0
 62
     2
 10
-188.72029
 20
47.67203
 30
0.0
  0
VERTEX
  5
DC3
  8
0
 62
     2
 10
-188.7107
 20
47.7007
 30
0.0
  0
VERTEX
  5
DC4
  8
0
 62
     2
 10
-188.7016
 20
47.72959
 30
0.0
  0
VERTEX
  5
DC5
  8
0
 62
     2
 10
-188.7016
 20
47.7296
 30
0.0
  0
VERTEX
  5
DC6
  8
0
 62
     2
 10
-188.69291
 20
47.75857
 30
0.0
  0
VERTEX
  5
DC7
  8
0
 62
     2
 10
-188.6929
 20
47.7586
 30
0.0
  0
VERTEX
  5
DC8
  8
0
 62
     2
 10
-188.6843
 20
47.7876
 30
0.0
  0
VERTEX
  5
DC9
  8
0
 62
     2
 10
-188.68428
 20
47.78765
 30
0.0
  0
VERTEX
  5
DCA
  8
0
 62
     2
 10
-188.6753
 20
47.8188
 30
0.0
  0
VERTEX
  5
DCB
  8
0
 62
     2
 10
-188.67528
 20
47.81887
 30
0.0
  0
VERTEX
  5
DCC
  8
0
 62
     2
 10
-188.667
 20
47.8502
 30
0.0
  0
VERTEX
  5
DCD
  8
0
 62
     2
 10
-188.659
 20
47.8816
 30
0.0
  0
VERTEX
  5
DCE
  8
0
 62
     2
 10
-188.65898
 20
47.88169
 30
0.0
  0
VERTEX
  5
DCF
  8
0
 62
     2
 10
-188.651
 20
47.9131
 30
0.0
  0
VERTEX
  5
DD0
  8
0
 62
     2
 10
-188.65098
 20
47.91319
 30
0.0
  0
VERTEX
  5
DD1
  8
0
 62
     2
 10
-188.6434
 20
47.9447
 30
0.0
  0
VERTEX
  5
DD2
  8
0
 62
     2
 10
-188.6364
 20
47.97639
 30
0.0
  0
VERTEX
  5
DD3
  8
0
 62
     2
 10
-188.6364
 20
47.9764
 30
0.0
  0
VERTEX
  5
DD4
  8
0
 62
     2
 10
-188.63638
 20
47.97652
 30
0.0
  0
VERTEX
  5
DD5
  8
0
 62
     2
 10
-188.6297
 20
48.0081
 30
0.0
  0
VERTEX
  5
DD6
  8
0
 62
     2
 10
-188.6297
 20
48.00812
 30
0.0
  0
VERTEX
  5
DD7
  8
0
 62
     2
 10
-188.623
 20
48.0399
 30
0.0
  0
VERTEX
  5
DD8
  8
0
 62
     2
 10
-188.62299
 20
48.03994
 30
0.0
  0
VERTEX
  5
DD9
  8
0
 62
     2
 10
-188.6166
 20
48.0717
 30
0.0
  0
VERTEX
  5
DDA
  8
0
 62
     2
 10
-188.61081
 20
48.10354
 30
0.0
  0
VERTEX
  5
DDB
  8
0
 62
     2
 10
-188.6108
 20
48.1036
 30
0.0
  0
VERTEX
  5
DDC
  8
0
 62
     2
 10
-188.61079
 20
48.10366
 30
0.0
  0
VERTEX
  5
DDD
  8
0
 62
     2
 10
-188.5996
 20
48.1706
 30
0.0
  0
VERTEX
  5
DDE
  8
0
 62
     2
 10
-188.59959
 20
48.17065
 30
0.0
  0
VERTEX
  5
DDF
  8
0
 62
     2
 10
-188.5891
 20
48.2378
 30
0.0
  0
VERTEX
  5
DE0
  8
0
 62
     2
 10
-188.5891
 20
48.23782
 30
0.0
  0
VERTEX
  5
DE1
  8
0
 62
     2
 10
-188.5798
 20
48.3051
 30
0.0
  0
VERTEX
  5
DE2
  8
0
 62
     2
 10
-188.57979
 20
48.30519
 30
0.0
  0
VERTEX
  5
DE3
  8
0
 62
     2
 10
-188.5724
 20
48.3727
 30
0.0
  0
VERTEX
  5
DE4
  8
0
 62
     2
 10
-188.5634
 20
48.47579
 30
0.0
  0
VERTEX
  5
DE5
  8
0
 62
     2
 10
-188.5634
 20
48.4758
 30
0.0
  0
VERTEX
  5
DE6
  8
0
 62
     2
 10
-188.5562
 20
48.57907
 30
0.0
  0
VERTEX
  5
DE7
  8
0
 62
     2
 10
-188.5562
 20
48.5791
 30
0.0
  0
VERTEX
  5
DE8
  8
0
 62
     2
 10
-188.5562
 20
48.57914
 30
0.0
  0
VERTEX
  5
DE9
  8
0
 62
     2
 10
-188.5586
 20
49.0595
 30
0.0
  0
VERTEX
  5
DEA
  8
0
 62
     2
 10
-188.62379
 20
49.53543
 30
0.0
  0
VERTEX
  5
DEB
  8
0
 62
     2
 10
-188.6238
 20
49.5355
 30
0.0
  0
VERTEX
  5
DEC
  8
0
 62
     2
 10
-188.6304
 20
49.5673
 30
0.0
  0
VERTEX
  5
DED
  8
0
 62
     2
 10
-188.63042
 20
49.56737
 30
0.0
  0
VERTEX
  5
DEE
  8
0
 62
     2
 10
-188.6373
 20
49.599
 30
0.0
  0
VERTEX
  5
DEF
  8
0
 62
     2
 10
-188.64449
 20
49.63056
 30
0.0
  0
VERTEX
  5
DF0
  8
0
 62
     2
 10
-188.6445
 20
49.6306
 30
0.0
  0
VERTEX
  5
DF1
  8
0
 62
     2
 10
-188.65198
 20
49.66213
 30
0.0
  0
VERTEX
  5
DF2
  8
0
 62
     2
 10
-188.652
 20
49.6622
 30
0.0
  0
VERTEX
  5
DF3
  8
0
 62
     2
 10
-188.65202
 20
49.66227
 30
0.0
  0
VERTEX
  5
DF4
  8
0
 62
     2
 10
-188.6599
 20
49.6937
 30
0.0
  0
VERTEX
  5
DF5
  8
0
 62
     2
 10
-188.66799
 20
49.72508
 30
0.0
  0
VERTEX
  5
DF6
  8
0
 62
     2
 10
-188.668
 20
49.7251
 30
0.0
  0
VERTEX
  5
DF7
  8
0
 62
     2
 10
-188.668
 20
49.72512
 30
0.0
  0
VERTEX
  5
DF8
  8
0
 62
     2
 10
-188.6765
 20
49.7564
 30
0.0
  0
VERTEX
  5
DF9
  8
0
 62
     2
 10
-188.68538
 20
49.78752
 30
0.0
  0
VERTEX
  5
DFA
  8
0
 62
     2
 10
-188.6854
 20
49.7876
 30
0.0
  0
VERTEX
  5
DFB
  8
0
 62
     2
 10
-188.69398
 20
49.81655
 30
0.0
  0
VERTEX
  5
DFC
  8
0
 62
     2
 10
-188.694
 20
49.8166
 30
0.0
  0
VERTEX
  5
DFD
  8
0
 62
     2
 10
-188.70278
 20
49.84554
 30
0.0
  0
VERTEX
  5
DFE
  8
0
 62
     2
 10
-188.7028
 20
49.8456
 30
0.0
  0
VERTEX
  5
DFF
  8
0
 62
     2
 10
-188.70281
 20
49.84563
 30
0.0
  0
VERTEX
  5
E00
  8
0
 62
     2
 10
-188.712
 20
49.8745
 30
0.0
  0
VERTEX
  5
E01
  8
0
 62
     2
 10
-188.7215
 20
49.9032
 30
0.0
  0
VERTEX
  5
E02
  8
0
 62
     2
 10
-188.73128
 20
49.93174
 30
0.0
  0
VERTEX
  5
E03
  8
0
 62
     2
 10
-188.7313
 20
49.9318
 30
0.0
  0
VERTEX
  5
E04
  8
0
 62
     2
 10
-188.74139
 20
49.96037
 30
0.0
  0
VERTEX
  5
E05
  8
0
 62
     2
 10
-188.7414
 20
49.9604
 30
0.0
  0
VERTEX
  5
E06
  8
0
 62
     2
 10
-188.75186
 20
49.9887
 30
0.0
  0
VERTEX
  5
E07
  8
0
 62
     2
 10
-188.7519
 20
49.9888
 30
0.0
  0
VERTEX
  5
E08
  8
0
 62
     2
 10
-188.76276
 20
50.0169
 30
0.0
  0
VERTEX
  5
E09
  8
0
 62
     2
 10
-188.7628
 20
50.017
 30
0.0
  0
VERTEX
  5
E0A
  8
0
 62
     2
 10
-188.76281
 20
50.01702
 30
0.0
  0
VERTEX
  5
E0B
  8
0
 62
     2
 10
-188.774
 20
50.0451
 30
0.0
  0
VERTEX
  5
E0C
  8
0
 62
     2
 10
-188.78549
 20
50.07306
 30
0.0
  0
VERTEX
  5
E0D
  8
0
 62
     2
 10
-188.7855
 20
50.0731
 30
0.0
  0
VERTEX
  5
E0E
  8
0
 62
     2
 10
-188.79627
 20
50.09843
 30
0.0
  0
VERTEX
  5
E0F
  8
0
 62
     2
 10
-188.7963
 20
50.0985
 30
0.0
  0
VERTEX
  5
E10
  8
0
 62
     2
 10
-188.80747
 20
50.12363
 30
0.0
  0
VERTEX
  5
E11
  8
0
 62
     2
 10
-188.8075
 20
50.1237
 30
0.0
  0
VERTEX
  5
E12
  8
0
 62
     2
 10
-188.80752
 20
50.12374
 30
0.0
  0
VERTEX
  5
E13
  8
0
 62
     2
 10
-188.819
 20
50.1488
 30
0.0
  0
VERTEX
  5
E14
  8
0
 62
     2
 10
-188.83076
 20
50.17372
 30
0.0
  0
VERTEX
  5
E15
  8
0
 62
     2
 10
-188.8308
 20
50.1738
 30
0.0
  0
VERTEX
  5
E16
  8
0
 62
     2
 10
-188.84284
 20
50.19848
 30
0.0
  0
VERTEX
  5
E17
  8
0
 62
     2
 10
-188.8429
 20
50.1986
 30
0.0
  0
VERTEX
  5
E18
  8
0
 62
     2
 10
-188.85538
 20
50.22306
 30
0.0
  0
VERTEX
  5
E19
  8
0
 62
     2
 10
-188.8554
 20
50.2231
 30
0.0
  0
VERTEX
  5
E1A
  8
0
 62
     2
 10
-188.85544
 20
50.22317
 30
0.0
  0
VERTEX
  5
E1B
  8
0
 62
     2
 10
-188.8682
 20
50.2475
 30
0.0
  0
VERTEX
  5
E1C
  8
0
 62
     2
 10
-188.8814
 20
50.27179
 30
0.0
  0
VERTEX
  5
E1D
  8
0
 62
     2
 10
-188.8814
 20
50.2718
 30
0.0
  0
VERTEX
  5
E1E
  8
0
 62
     2
 10
-188.88146
 20
50.27191
 30
0.0
  0
VERTEX
  5
E1F
  8
0
 62
     2
 10
-188.8949
 20
50.2958
 30
0.0
  0
VERTEX
  5
E20
  8
0
 62
     2
 10
-188.89494
 20
50.29586
 30
0.0
  0
VERTEX
  5
E21
  8
0
 62
     2
 10
-188.9089
 20
50.3196
 30
0.0
  0
VERTEX
  5
E22
  8
0
 62
     2
 10
-188.90893
 20
50.31966
 30
0.0
  0
VERTEX
  5
E23
  8
0
 62
     2
 10
-188.9217
 20
50.3406
 30
0.0
  0
VERTEX
  5
E24
  8
0
 62
     2
 10
-188.93469
 20
50.36148
 30
0.0
  0
VERTEX
  5
E25
  8
0
 62
     2
 10
-188.9347
 20
50.3615
 30
0.0
  0
VERTEX
  5
E26
  8
0
 62
     2
 10
-188.93473
 20
50.36155
 30
0.0
  0
VERTEX
  5
E27
  8
0
 62
     2
 10
-188.9481
 20
50.3821
 30
0.0
  0
VERTEX
  5
E28
  8
0
 62
     2
 10
-188.94813
 20
50.38214
 30
0.0
  0
VERTEX
  5
E29
  8
0
 62
     2
 10
-188.9619
 20
50.4025
 30
0.0
  0
VERTEX
  5
E2A
  8
0
 62
     2
 10
-188.97597
 20
50.42265
 30
0.0
  0
VERTEX
  5
E2B
  8
0
 62
     2
 10
-188.976
 20
50.4227
 30
0.0
  0
VERTEX
  5
E2C
  8
0
 62
     2
 10
-188.99038
 20
50.44257
 30
0.0
  0
VERTEX
  5
E2D
  8
0
 62
     2
 10
-188.9904
 20
50.4426
 30
0.0
  0
VERTEX
  5
E2E
  8
0
 62
     2
 10
-188.99041
 20
50.44262
 30
0.0
  0
VERTEX
  5
E2F
  8
0
 62
     2
 10
-189.0051
 20
50.4623
 30
0.0
  0
VERTEX
  5
E30
  8
0
 62
     2
 10
-189.02027
 20
50.48156
 30
0.0
  0
VERTEX
  5
E31
  8
0
 62
     2
 10
-189.0203
 20
50.4816
 30
0.0
  0
VERTEX
  5
E32
  8
0
 62
     2
 10
-189.03587
 20
50.50066
 30
0.0
  0
VERTEX
  5
E33
  8
0
 62
     2
 10
-189.0359
 20
50.5007
 30
0.0
  0
VERTEX
  5
E34
  8
0
 62
     2
 10
-189.03596
 20
50.50077
 30
0.0
  0
VERTEX
  5
E35
  8
0
 62
     2
 10
-189.0518
 20
50.5195
 30
0.0
  0
VERTEX
  5
E36
  8
0
 62
     2
 10
-189.05185
 20
50.51956
 30
0.0
  0
VERTEX
  5
E37
  8
0
 62
     2
 10
-189.0661
 20
50.5357
 30
0.0
  0
VERTEX
  5
E38
  8
0
 62
     2
 10
-189.0808
 20
50.5516
 30
0.0
  0
VERTEX
  5
E39
  8
0
 62
     2
 10
-189.0958
 20
50.5672
 30
0.0
  0
VERTEX
  5
E3A
  8
0
 62
     2
 10
-189.111
 20
50.5826
 30
0.0
  0
VERTEX
  5
E3B
  8
0
 62
     2
 10
-189.1266
 20
50.5976
 30
0.0
  0
VERTEX
  5
E3C
  8
0
 62
     2
 10
-189.12664
 20
50.59764
 30
0.0
  0
VERTEX
  5
E3D
  8
0
 62
     2
 10
-189.1426
 20
50.6123
 30
0.0
  0
VERTEX
  5
E3E
  8
0
 62
     2
 10
-189.14264
 20
50.61234
 30
0.0
  0
VERTEX
  5
E3F
  8
0
 62
     2
 10
-189.1589
 20
50.6265
 30
0.0
  0
VERTEX
  5
E40
  8
0
 62
     2
 10
-189.17548
 20
50.64028
 30
0.0
  0
VERTEX
  5
E41
  8
0
 62
     2
 10
-189.1755
 20
50.6403
 30
0.0
  0
VERTEX
  5
E42
  8
0
 62
     2
 10
-189.19247
 20
50.65368
 30
0.0
  0
VERTEX
  5
E43
  8
0
 62
     2
 10
-189.1925
 20
50.6537
 30
0.0
  0
VERTEX
  5
E44
  8
0
 62
     2
 10
-189.20987
 20
50.66668
 30
0.0
  0
VERTEX
  5
E45
  8
0
 62
     2
 10
-189.2099
 20
50.6667
 30
0.0
  0
VERTEX
  5
E46
  8
0
 62
     2
 10
-189.22541
 20
50.67774
 30
0.0
  0
VERTEX
  5
E47
  8
0
 62
     2
 10
-189.2255
 20
50.6778
 30
0.0
  0
VERTEX
  5
E48
  8
0
 62
     2
 10
-189.24138
 20
50.68849
 30
0.0
  0
VERTEX
  5
E49
  8
0
 62
     2
 10
-189.2414
 20
50.6885
 30
0.0
  0
VERTEX
  5
E4A
  8
0
 62
     2
 10
-189.25759
 20
50.6988
 30
0.0
  0
VERTEX
  5
E4B
  8
0
 62
     2
 10
-189.2576
 20
50.6988
 30
0.0
  0
VERTEX
  5
E4C
  8
0
 62
     2
 10
-189.25761
 20
50.69881
 30
0.0
  0
VERTEX
  5
E4D
  8
0
 62
     2
 10
-189.2741
 20
50.7086
 30
0.0
  0
VERTEX
  5
E4E
  8
0
 62
     2
 10
-189.27415
 20
50.70863
 30
0.0
  0
VERTEX
  5
E4F
  8
0
 62
     2
 10
-189.2908
 20
50.7179
 30
0.0
  0
VERTEX
  5
E50
  8
0
 62
     2
 10
-189.29092
 20
50.71797
 30
0.0
  0
VERTEX
  5
E51
  8
0
 62
     2
 10
-189.3078
 20
50.7268
 30
0.0
  0
VERTEX
  5
E52
  8
0
 62
     2
 10
-189.3251
 20
50.7352
 30
0.0
  0
VERTEX
  5
E53
  8
0
 62
     2
 10
-189.34259
 20
50.743
 30
0.0
  0
VERTEX
  5
E54
  8
0
 62
     2
 10
-189.3426
 20
50.743
 30
0.0
  0
VERTEX
  5
E55
  8
0
 62
     2
 10
-189.34265
 20
50.74302
 30
0.0
  0
VERTEX
  5
E56
  8
0
 62
     2
 10
-189.3603
 20
50.7502
 30
0.0
  0
VERTEX
  5
E57
  8
0
 62
     2
 10
-189.3604
 20
50.75024
 30
0.0
  0
VERTEX
  5
E58
  8
0
 62
     2
 10
-189.3783
 20
50.7569
 30
0.0
  0
VERTEX
  5
E59
  8
0
 62
     2
 10
-189.41205
 20
50.76759
 30
0.0
  0
VERTEX
  5
E5A
  8
0
 62
     2
 10
-189.4121
 20
50.7676
 30
0.0
  0
VERTEX
  5
E5B
  8
0
 62
     2
 10
-189.4464
 20
50.77598
 30
0.0
  0
VERTEX
  5
E5C
  8
0
 62
     2
 10
-189.4465
 20
50.776
 30
0.0
  0
VERTEX
  5
E5D
  8
0
 62
     2
 10
-189.44655
 20
50.77601
 30
0.0
  0
VERTEX
  5
E5E
  8
0
 62
     2
 10
-189.4639
 20
50.7793
 30
0.0
  0
VERTEX
  5
E5F
  8
0
 62
     2
 10
-189.48136
 20
50.7821
 30
0.0
  0
VERTEX
  5
E60
  8
0
 62
     2
 10
-189.4814
 20
50.7821
 30
0.0
  0
VERTEX
  5
E61
  8
0
 62
     2
 10
-189.48145
 20
50.78211
 30
0.0
  0
VERTEX
  5
E62
  8
0
 62
     2
 10
-189.499
 20
50.7843
 30
0.0
  0
VERTEX
  5
E63
  8
0
 62
     2
 10
-189.49904
 20
50.7843
 30
0.0
  0
VERTEX
  5
E64
  8
0
 62
     2
 10
-189.5166
 20
50.7859
 30
0.0
  0
VERTEX
  5
E65
  8
0
 62
     2
 10
-189.51661
 20
50.7859
 30
0.0
  0
VERTEX
  5
E66
  8
0
 62
     2
 10
-189.5342
 20
50.7869
 30
0.0
  0
VERTEX
  5
E67
  8
0
 62
     2
 10
-189.5343
 20
50.7869
 30
0.0
  0
VERTEX
  5
E68
  8
0
 62
     2
 10
-189.5519
 20
50.7872
 30
0.0
  0
SEQEND
  5
1569
  8
0
 62
     2
  0
POLYLINE
  5
3A8
  8
0
 62
     2
 66
     1
 10
0.0
 20
0.0
 30
0.0
 70
     1
  0
VERTEX
  5
E6A
  8
0
 62
     2
 10
-179.5535
 20
50.7872
 30
0.0
  0
VERTEX
  5
E6B
  8
0
 62
     2
 10
-179.55359
 20
50.7872
 30
0.0
  0
VERTEX
  5
E6C
  8
0
 62
     2
 10
-179.5712
 20
50.7869
 30
0.0
  0
VERTEX
  5
E6D
  8
0
 62
     2
 10
-179.57129
 20
50.7869
 30
0.0
  0
VERTEX
  5
E6E
  8
0
 62
     2
 10
-179.5889
 20
50.7859
 30
0.0
  0
VERTEX
  5
E6F
  8
0
 62
     2
 10
-179.60646
 20
50.7843
 30
0.0
  0
VERTEX
  5
E70
  8
0
 62
     2
 10
-179.6065
 20
50.7843
 30
0.0
  0
VERTEX
  5
E71
  8
0
 62
     2
 10
-179.62405
 20
50.78211
 30
0.0
  0
VERTEX
  5
E72
  8
0
 62
     2
 10
-179.6241
 20
50.7821
 30
0.0
  0
VERTEX
  5
E73
  8
0
 62
     2
 10
-179.62418
 20
50.78209
 30
0.0
  0
VERTEX
  5
E74
  8
0
 62
     2
 10
-179.659
 20
50.7759
 30
0.0
  0
VERTEX
  5
E75
  8
0
 62
     2
 10
-179.69333
 20
50.76742
 30
0.0
  0
VERTEX
  5
E76
  8
0
 62
     2
 10
-179.6934
 20
50.7674
 30
0.0
  0
VERTEX
  5
E77
  8
0
 62
     2
 10
-179.71032
 20
50.76233
 30
0.0
  0
VERTEX
  5
E78
  8
0
 62
     2
 10
-179.7104
 20
50.7623
 30
0.0
  0
VERTEX
  5
E79
  8
0
 62
     2
 10
-179.72714
 20
50.75672
 30
0.0
  0
VERTEX
  5
E7A
  8
0
 62
     2
 10
-179.7272
 20
50.7567
 30
0.0
  0
VERTEX
  5
E7B
  8
0
 62
     2
 10
-179.7451
 20
50.75004
 30
0.0
  0
VERTEX
  5
E7C
  8
0
 62
     2
 10
-179.7452
 20
50.75
 30
0.0
  0
VERTEX
  5
E7D
  8
0
 62
     2
 10
-179.76288
 20
50.74271
 30
0.0
  0
VERTEX
  5
E7E
  8
0
 62
     2
 10
-179.7629
 20
50.7427
 30
0.0
  0
VERTEX
  5
E7F
  8
0
 62
     2
 10
-179.76291
 20
50.7427
 30
0.0
  0
VERTEX
  5
E80
  8
0
 62
     2
 10
-179.7804
 20
50.7349
 30
0.0
  0
VERTEX
  5
E81
  8
0
 62
     2
 10
-179.79752
 20
50.72654
 30
0.0
  0
VERTEX
  5
E82
  8
0
 62
     2
 10
-179.7976
 20
50.7265
 30
0.0
  0
VERTEX
  5
E83
  8
0
 62
     2
 10
-179.79768
 20
50.72646
 30
0.0
  0
VERTEX
  5
E84
  8
0
 62
     2
 10
-179.8146
 20
50.7177
 30
0.0
  0
VERTEX
  5
E85
  8
0
 62
     2
 10
-179.83129
 20
50.70831
 30
0.0
  0
VERTEX
  5
E86
  8
0
 62
     2
 10
-179.8313
 20
50.7083
 30
0.0
  0
VERTEX
  5
E87
  8
0
 62
     2
 10
-179.84774
 20
50.69844
 30
0.0
  0
VERTEX
  5
E88
  8
0
 62
     2
 10
-179.8478
 20
50.6984
 30
0.0
  0
VERTEX
  5
E89
  8
0
 62
     2
 10
-179.84781
 20
50.6984
 30
0.0
  0
VERTEX
  5
E8A
  8
0
 62
     2
 10
-179.864
 20
50.6881
 30
0.0
  0
VERTEX
  5
E8B
  8
0
 62
     2
 10
-179.87988
 20
50.67752
 30
0.0
  0
VERTEX
  5
E8C
  8
0
 62
     2
 10
-179.8799
 20
50.6775
 30
0.0
  0
VERTEX
  5
E8D
  8
0
 62
     2
 10
-179.87999
 20
50.67744
 30
0.0
  0
VERTEX
  5
E8E
  8
0
 62
     2
 10
-179.8955
 20
50.6664
 30
0.0
  0
VERTEX
  5
E8F
  8
0
 62
     2
 10
-179.91277
 20
50.65342
 30
0.0
  0
VERTEX
  5
E90
  8
0
 62
     2
 10
-179.9128
 20
50.6534
 30
0.0
  0
VERTEX
  5
E91
  8
0
 62
     2
 10
-179.91287
 20
50.65334
 30
0.0
  0
VERTEX
  5
E92
  8
0
 62
     2
 10
-179.9298
 20
50.6399
 30
0.0
  0
VERTEX
  5
E93
  8
0
 62
     2
 10
-179.92982
 20
50.63988
 30
0.0
  0
VERTEX
  5
E94
  8
0
 62
     2
 10
-179.9464
 20
50.6261
 30
0.0
  0
VERTEX
  5
E95
  8
0
 62
     2
 10
-179.94652
 20
50.626
 30
0.0
  0
VERTEX
  5
E96
  8
0
 62
     2
 10
-179.9627
 20
50.6118
 30
0.0
  0
VERTEX
  5
E97
  8
0
 62
     2
 10
-179.9786
 20
50.5971
 30
0.0
  0
VERTEX
  5
E98
  8
0
 62
     2
 10
-179.9942
 20
50.5821
 30
0.0
  0
VERTEX
  5
E99
  8
0
 62
     2
 10
-180.0095
 20
50.5668
 30
0.0
  0
VERTEX
  5
E9A
  8
0
 62
     2
 10
-180.00955
 20
50.56675
 30
0.0
  0
VERTEX
  5
E9B
  8
0
 62
     2
 10
-180.0245
 20
50.5511
 30
0.0
  0
VERTEX
  5
E9C
  8
0
 62
     2
 10
-180.03909
 20
50.53511
 30
0.0
  0
VERTEX
  5
E9D
  8
0
 62
     2
 10
-180.0391
 20
50.5351
 30
0.0
  0
VERTEX
  5
E9E
  8
0
 62
     2
 10
-180.05335
 20
50.51896
 30
0.0
  0
VERTEX
  5
E9F
  8
0
 62
     2
 10
-180.0534
 20
50.5189
 30
0.0
  0
VERTEX
  5
EA0
  8
0
 62
     2
 10
-180.05348
 20
50.51881
 30
0.0
  0
VERTEX
  5
EA1
  8
0
 62
     2
 10
-180.0693
 20
50.5002
 30
0.0
  0
VERTEX
  5
EA2
  8
0
 62
     2
 10
-180.06937
 20
50.50011
 30
0.0
  0
VERTEX
  5
EA3
  8
0
 62
     2
 10
-180.0848
 20
50.4811
 30
0.0
  0
VERTEX
  5
EA4
  8
0
 62
     2
 10
-180.09984
 20
50.46178
 30
0.0
  0
VERTEX
  5
EA5
  8
0
 62
     2
 10
-180.0999
 20
50.4617
 30
0.0
  0
VERTEX
  5
EA6
  8
0
 62
     2
 10
-180.09992
 20
50.46167
 30
0.0
  0
VERTEX
  5
EA7
  8
0
 62
     2
 10
-180.1147
 20
50.442
 30
0.0
  0
VERTEX
  5
EA8
  8
0
 62
     2
 10
-180.11472
 20
50.44197
 30
0.0
  0
VERTEX
  5
EA9
  8
0
 62
     2
 10
-180.1291
 20
50.4221
 30
0.0
  0
VERTEX
  5
EAA
  8
0
 62
     2
 10
-180.1291
 20
50.42209
 30
0.0
  0
VERTEX
  5
EAB
  8
0
 62
     2
 10
-180.1432
 20
50.4019
 30
0.0
  0
VERTEX
  5
EAC
  8
0
 62
     2
 10
-180.14323
 20
50.40185
 30
0.0
  0
VERTEX
  5
EAD
  8
0
 62
     2
 10
-180.1569
 20
50.3815
 30
0.0
  0
VERTEX
  5
EAE
  8
0
 62
     2
 10
-180.15691
 20
50.38148
 30
0.0
  0
VERTEX
  5
EAF
  8
0
 62
     2
 10
-180.1703
 20
50.3608
 30
0.0
  0
VERTEX
  5
EB0
  8
0
 62
     2
 10
-180.17033
 20
50.36076
 30
0.0
  0
VERTEX
  5
EB1
  8
0
 62
     2
 10
-180.1834
 20
50.34
 30
0.0
  0
VERTEX
  5
EB2
  8
0
 62
     2
 10
-180.19608
 20
50.31893
 30
0.0
  0
VERTEX
  5
EB3
  8
0
 62
     2
 10
-180.1961
 20
50.3189
 30
0.0
  0
VERTEX
  5
EB4
  8
0
 62
     2
 10
-180.20998
 20
50.29503
 30
0.0
  0
VERTEX
  5
EB5
  8
0
 62
     2
 10
-180.21
 20
50.295
 30
0.0
  0
VERTEX
  5
EB6
  8
0
 62
     2
 10
-180.22344
 20
50.27111
 30
0.0
  0
VERTEX
  5
EB7
  8
0
 62
     2
 10
-180.2235
 20
50.271
 30
0.0
  0
VERTEX
  5
EB8
  8
0
 62
     2
 10
-180.23666
 20
50.24687
 30
0.0
  0
VERTEX
  5
EB9
  8
0
 62
     2
 10
-180.2367
 20
50.2468
 30
0.0
  0
VERTEX
  5
EBA
  8
0
 62
     2
 10
-180.24946
 20
50.22247
 30
0.0
  0
VERTEX
  5
EBB
  8
0
 62
     2
 10
-180.2495
 20
50.2224
 30
0.0
  0
VERTEX
  5
EBC
  8
0
 62
     2
 10
-180.24952
 20
50.22236
 30
0.0
  0
VERTEX
  5
EBD
  8
0
 62
     2
 10
-180.262
 20
50.1978
 30
0.0
  0
VERTEX
  5
EBE
  8
0
 62
     2
 10
-180.26202
 20
50.19776
 30
0.0
  0
VERTEX
  5
EBF
  8
0
 62
     2
 10
-180.2741
 20
50.173
 30
0.0
  0
VERTEX
  5
EC0
  8
0
 62
     2
 10
-180.28586
 20
50.14809
 30
0.0
  0
VERTEX
  5
EC1
  8
0
 62
     2
 10
-180.2859
 20
50.148
 30
0.0
  0
VERTEX
  5
EC2
  8
0
 62
     2
 10
-180.2973
 20
50.12291
 30
0.0
  0
VERTEX
  5
EC3
  8
0
 62
     2
 10
-180.2973
 20
50.1229
 30
0.0
  0
VERTEX
  5
EC4
  8
0
 62
     2
 10
-180.29732
 20
50.12286
 30
0.0
  0
VERTEX
  5
EC5
  8
0
 62
     2
 10
-180.3084
 20
50.0977
 30
0.0
  0
VERTEX
  5
EC6
  8
0
 62
     2
 10
-180.30843
 20
50.09763
 30
0.0
  0
VERTEX
  5
EC7
  8
0
 62
     2
 10
-180.3192
 20
50.0723
 30
0.0
  0
VERTEX
  5
EC8
  8
0
 62
     2
 10
-180.33067
 20
50.04437
 30
0.0
  0
VERTEX
  5
EC9
  8
0
 62
     2
 10
-180.3307
 20
50.0443
 30
0.0
  0
VERTEX
  5
ECA
  8
0
 62
     2
 10
-180.34189
 20
50.01622
 30
0.0
  0
VERTEX
  5
ECB
  8
0
 62
     2
 10
-180.3419
 20
50.0162
 30
0.0
  0
VERTEX
  5
ECC
  8
0
 62
     2
 10
-180.35269
 20
49.98792
 30
0.0
  0
VERTEX
  5
ECD
  8
0
 62
     2
 10
-180.3527
 20
49.9879
 30
0.0
  0
VERTEX
  5
ECE
  8
0
 62
     2
 10
-180.35272
 20
49.98784
 30
0.0
  0
VERTEX
  5
ECF
  8
0
 62
     2
 10
-180.3631
 20
49.9595
 30
0.0
  0
VERTEX
  5
ED0
  8
0
 62
     2
 10
-180.3631
 20
49.95949
 30
0.0
  0
VERTEX
  5
ED1
  8
0
 62
     2
 10
-180.3732
 20
49.931
 30
0.0
  0
VERTEX
  5
ED2
  8
0
 62
     2
 10
-180.38299
 20
49.90233
 30
0.0
  0
VERTEX
  5
ED3
  8
0
 62
     2
 10
-180.383
 20
49.9023
 30
0.0
  0
VERTEX
  5
ED4
  8
0
 62
     2
 10
-180.38301
 20
49.90227
 30
0.0
  0
VERTEX
  5
ED5
  8
0
 62
     2
 10
-180.3925
 20
49.8735
 30
0.0
  0
VERTEX
  5
ED6
  8
0
 62
     2
 10
-180.39252
 20
49.87344
 30
0.0
  0
VERTEX
  5
ED7
  8
0
 62
     2
 10
-180.4017
 20
49.8447
 30
0.0
  0
VERTEX
  5
ED8
  8
0
 62
     2
 10
-180.41049
 20
49.81584
 30
0.0
  0
VERTEX
  5
ED9
  8
0
 62
     2
 10
-180.4105
 20
49.8158
 30
0.0
  0
VERTEX
  5
EDA
  8
0
 62
     2
 10
-180.41054
 20
49.81568
 30
0.0
  0
VERTEX
  5
EDB
  8
0
 62
     2
 10
-180.419
 20
49.7867
 30
0.0
  0
VERTEX
  5
EDC
  8
0
 62
     2
 10
-180.42779
 20
49.75544
 30
0.0
  0
VERTEX
  5
EDD
  8
0
 62
     2
 10
-180.4278
 20
49.7554
 30
0.0
  0
VERTEX
  5
EDE
  8
0
 62
     2
 10
-180.43628
 20
49.72417
 30
0.0
  0
VERTEX
  5
EDF
  8
0
 62
     2
 10
-180.4363
 20
49.7241
 30
0.0
  0
VERTEX
  5
EE0
  8
0
 62
     2
 10
-180.43631
 20
49.72405
 30
0.0
  0
VERTEX
  5
EE1
  8
0
 62
     2
 10
-180.4445
 20
49.6927
 30
0.0
  0
VERTEX
  5
EE2
  8
0
 62
     2
 10
-180.45229
 20
49.66125
 30
0.0
  0
VERTEX
  5
EE3
  8
0
 62
     2
 10
-180.4523
 20
49.6612
 30
0.0
  0
VERTEX
  5
EE4
  8
0
 62
     2
 10
-180.45231
 20
49.66116
 30
0.0
  0
VERTEX
  5
EE5
  8
0
 62
     2
 10
-180.4597
 20
49.6296
 30
0.0
  0
VERTEX
  5
EE6
  8
0
 62
     2
 10
-180.45971
 20
49.62956
 30
0.0
  0
VERTEX
  5
EE7
  8
0
 62
     2
 10
-180.4669
 20
49.598
 30
0.0
  0
VERTEX
  5
EE8
  8
0
 62
     2
 10
-180.4669
 20
49.59798
 30
0.0
  0
VERTEX
  5
EE9
  8
0
 62
     2
 10
-180.4738
 20
49.5662
 30
0.0
  0
VERTEX
  5
EEA
  8
0
 62
     2
 10
-180.4738
 20
49.56618
 30
0.0
  0
VERTEX
  5
EEB
  8
0
 62
     2
 10
-180.4803
 20
49.5344
 30
0.0
  0
VERTEX
  5
EEC
  8
0
 62
     2
 10
-180.48031
 20
49.53436
 30
0.0
  0
VERTEX
  5
EED
  8
0
 62
     2
 10
-180.4865
 20
49.5026
 30
0.0
  0
VERTEX
  5
EEE
  8
0
 62
     2
 10
-180.48653
 20
49.50247
 30
0.0
  0
VERTEX
  5
EEF
  8
0
 62
     2
 10
-180.4925
 20
49.4707
 30
0.0
  0
VERTEX
  5
EF0
  8
0
 62
     2
 10
-180.50399
 20
49.40378
 30
0.0
  0
VERTEX
  5
EF1
  8
0
 62
     2
 10
-180.504
 20
49.4037
 30
0.0
  0
VERTEX
  5
EF2
  8
0
 62
     2
 10
-180.51419
 20
49.33658
 30
0.0
  0
VERTEX
  5
EF3
  8
0
 62
     2
 10
-180.5142
 20
49.3365
 30
0.0
  0
VERTEX
  5
EF4
  8
0
 62
     2
 10
-180.51421
 20
49.33644
 30
0.0
  0
VERTEX
  5
EF5
  8
0
 62
     2
 10
-180.5231
 20
49.2691
 30
0.0
  0
VERTEX
  5
EF6
  8
0
 62
     2
 10
-180.5309
 20
49.20163
 30
0.0
  0
VERTEX
  5
EF7
  8
0
 62
     2
 10
-180.5309
 20
49.2016
 30
0.0
  0
VERTEX
  5
EF8
  8
0
 62
     2
 10
-180.5309
 20
49.20156
 30
0.0
  0
VERTEX
  5
EF9
  8
0
 62
     2
 10
-180.5404
 20
49.0985
 30
0.0
  0
VERTEX
  5
EFA
  8
0
 62
     2
 10
-180.5471
 20
48.9952
 30
0.0
  0
VERTEX
  5
EFB
  8
0
 62
     2
 10
-180.54231
 20
48.51509
 30
0.0
  0
VERTEX
  5
EFC
  8
0
 62
     2
 10
-180.5423
 20
48.515
 30
0.0
  0
VERTEX
  5
EFD
  8
0
 62
     2
 10
-180.47952
 20
48.039
 30
0.0
  0
VERTEX
  5
EFE
  8
0
 62
     2
 10
-180.4795
 20
48.0389
 30
0.0
  0
VERTEX
  5
EFF
  8
0
 62
     2
 10
-180.47301
 20
48.00716
 30
0.0
  0
VERTEX
  5
F00
  8
0
 62
     2
 10
-180.473
 20
48.0071
 30
0.0
  0
VERTEX
  5
F01
  8
0
 62
     2
 10
-180.473
 20
48.00709
 30
0.0
  0
VERTEX
  5
F02
  8
0
 62
     2
 10
-180.466
 20
47.9754
 30
0.0
  0
VERTEX
  5
F03
  8
0
 62
     2
 10
-180.45873
 20
47.94382
 30
0.0
  0
VERTEX
  5
F04
  8
0
 62
     2
 10
-180.4587
 20
47.9437
 30
0.0
  0
VERTEX
  5
F05
  8
0
 62
     2
 10
-180.4513
 20
47.9121
 30
0.0
  0
VERTEX
  5
F06
  8
0
 62
     2
 10
-180.45129
 20
47.91207
 30
0.0
  0
VERTEX
  5
F07
  8
0
 62
     2
 10
-180.4436
 20
47.8806
 30
0.0
  0
VERTEX
  5
F08
  8
0
 62
     2
 10
-180.43532
 20
47.84927
 30
0.0
  0
VERTEX
  5
F09
  8
0
 62
     2
 10
-180.4353
 20
47.8492
 30
0.0
  0
VERTEX
  5
F0A
  8
0
 62
     2
 10
-180.42663
 20
47.81802
 30
0.0
  0
VERTEX
  5
F0B
  8
0
 62
     2
 10
-180.4266
 20
47.8179
 30
0.0
  0
VERTEX
  5
F0C
  8
0
 62
     2
 10
-180.41791
 20
47.78673
 30
0.0
  0
VERTEX
  5
F0D
  8
0
 62
     2
 10
-180.4179
 20
47.7867
 30
0.0
  0
VERTEX
  5
F0E
  8
0
 62
     2
 10
-180.41789
 20
47.78666
 30
0.0
  0
VERTEX
  5
F0F
  8
0
 62
     2
 10
-180.4095
 20
47.7576
 30
0.0
  0
VERTEX
  5
F10
  8
0
 62
     2
 10
-180.40949
 20
47.75757
 30
0.0
  0
VERTEX
  5
F11
  8
0
 62
     2
 10
-180.4005
 20
47.7287
 30
0.0
  0
VERTEX
  5
F12
  8
0
 62
     2
 10
-180.39121
 20
47.69993
 30
0.0
  0
VERTEX
  5
F13
  8
0
 62
     2
 10
-180.3912
 20
47.6999
 30
0.0
  0
VERTEX
  5
F14
  8
0
 62
     2
 10
-180.3818
 20
47.6711
 30
0.0
  0
VERTEX
  5
F15
  8
0
 62
     2
 10
-180.3721
 20
47.6424
 30
0.0
  0
VERTEX
  5
F16
  8
0
 62
     2
 10
-180.36191
 20
47.61394
 30
0.0
  0
VERTEX
  5
F17
  8
0
 62
     2
 10
-180.3619
 20
47.6139
 30
0.0
  0
VERTEX
  5
F18
  8
0
 62
     2
 10
-180.36187
 20
47.61381
 30
0.0
  0
VERTEX
  5
F19
  8
0
 62
     2
 10
-180.3513
 20
47.5856
 30
0.0
  0
VERTEX
  5
F1A
  8
0
 62
     2
 10
-180.35127
 20
47.58551
 30
0.0
  0
VERTEX
  5
F1B
  8
0
 62
     2
 10
-180.3405
 20
47.5573
 30
0.0
  0
VERTEX
  5
F1C
  8
0
 62
     2
 10
-180.32944
 20
47.5292
 30
0.0
  0
VERTEX
  5
F1D
  8
0
 62
     2
 10
-180.3294
 20
47.5291
 30
0.0
  0
VERTEX
  5
F1E
  8
0
 62
     2
 10
-180.31782
 20
47.50126
 30
0.0
  0
VERTEX
  5
F1F
  8
0
 62
     2
 10
-180.3178
 20
47.5012
 30
0.0
  0
VERTEX
  5
F20
  8
0
 62
     2
 10
-180.31778
 20
47.50115
 30
0.0
  0
VERTEX
  5
F21
  8
0
 62
     2
 10
-180.3069
 20
47.4759
 30
0.0
  0
VERTEX
  5
F22
  8
0
 62
     2
 10
-180.30688
 20
47.47585
 30
0.0
  0
VERTEX
  5
F23
  8
0
 62
     2
 10
-180.2958
 20
47.4506
 30
0.0
  0
VERTEX
  5
F24
  8
0
 62
     2
 10
-180.28443
 20
47.42547
 30
0.0
  0
VERTEX
  5
F25
  8
0
 62
     2
 10
-180.2844
 20
47.4254
 30
0.0
  0
VERTEX
  5
F26
  8
0
 62
     2
 10
-180.27252
 20
47.40054
 30
0.0
  0
VERTEX
  5
F27
  8
0
 62
     2
 10
-180.2725
 20
47.4005
 30
0.0
  0
VERTEX
  5
F28
  8
0
 62
     2
 10
-180.27246
 20
47.40042
 30
0.0
  0
VERTEX
  5
F29
  8
0
 62
     2
 10
-180.2603
 20
47.3758
 30
0.0
  0
VERTEX
  5
F2A
  8
0
 62
     2
 10
-180.2479
 20
47.3512
 30
0.0
  0
VERTEX
  5
F2B
  8
0
 62
     2
 10
-180.23522
 20
47.32674
 30
0.0
  0
VERTEX
  5
F2C
  8
0
 62
     2
 10
-180.2352
 20
47.3267
 30
0.0
  0
VERTEX
  5
F2D
  8
0
 62
     2
 10
-180.23519
 20
47.32667
 30
0.0
  0
VERTEX
  5
F2E
  8
0
 62
     2
 10
-180.2219
 20
47.3025
 30
0.0
  0
VERTEX
  5
F2F
  8
0
 62
     2
 10
-180.20822
 20
47.27854
 30
0.0
  0
VERTEX
  5
F30
  8
0
 62
     2
 10
-180.2082
 20
47.2785
 30
0.0
  0
VERTEX
  5
F31
  8
0
 62
     2
 10
-180.19445
 20
47.25479
 30
0.0
  0
VERTEX
  5
F32
  8
0
 62
     2
 10
-180.1944
 20
47.2547
 30
0.0
  0
VERTEX
  5
F33
  8
0
 62
     2
 10
-180.18174
 20
47.23366
 30
0.0
  0
VERTEX
  5
F34
  8
0
 62
     2
 10
-180.1817
 20
47.2336
 30
0.0
  0
VERTEX
  5
F35
  8
0
 62
     2
 10
-180.1817
 20
47.23359
 30
0.0
  0
VERTEX
  5
F36
  8
0
 62
     2
 10
-180.1686
 20
47.2128
 30
0.0
  0
VERTEX
  5
F37
  8
0
 62
     2
 10
-180.15513
 20
47.19225
 30
0.0
  0
VERTEX
  5
F38
  8
0
 62
     2
 10
-180.1551
 20
47.1922
 30
0.0
  0
VERTEX
  5
F39
  8
0
 62
     2
 10
-180.14143
 20
47.17185
 30
0.0
  0
VERTEX
  5
F3A
  8
0
 62
     2
 10
-180.1414
 20
47.1718
 30
0.0
  0
VERTEX
  5
F3B
  8
0
 62
     2
 10
-180.14137
 20
47.17176
 30
0.0
  0
VERTEX
  5
F3C
  8
0
 62
     2
 10
-180.1274
 20
47.1516
 30
0.0
  0
VERTEX
  5
F3D
  8
0
 62
     2
 10
-180.12736
 20
47.15155
 30
0.0
  0
VERTEX
  5
F3E
  8
0
 62
     2
 10
-180.1129
 20
47.1317
 30
0.0
  0
VERTEX
  5
F3F
  8
0
 62
     2
 10
-180.0981
 20
47.1121
 30
0.0
  0
VERTEX
  5
F40
  8
0
 62
     2
 10
-180.08304
 20
47.09275
 30
0.0
  0
VERTEX
  5
F41
  8
0
 62
     2
 10
-180.083
 20
47.0927
 30
0.0
  0
VERTEX
  5
F42
  8
0
 62
     2
 10
-180.06752
 20
47.07353
 30
0.0
  0
VERTEX
  5
F43
  8
0
 62
     2
 10
-180.0675
 20
47.0735
 30
0.0
  0
VERTEX
  5
F44
  8
0
 62
     2
 10
-180.05154
 20
47.05484
 30
0.0
  0
VERTEX
  5
F45
  8
0
 62
     2
 10
-180.0515
 20
47.0548
 30
0.0
  0
VERTEX
  5
F46
  8
0
 62
     2
 10
-180.05145
 20
47.05474
 30
0.0
  0
VERTEX
  5
F47
  8
0
 62
     2
 10
-180.0371
 20
47.0387
 30
0.0
  0
VERTEX
  5
F48
  8
0
 62
     2
 10
-180.037
 20
47.03859
 30
0.0
  0
VERTEX
  5
F49
  8
0
 62
     2
 10
-180.0225
 20
47.0227
 30
0.0
  0
VERTEX
  5
F4A
  8
0
 62
     2
 10
-180.02249
 20
47.02269
 30
0.0
  0
VERTEX
  5
F4B
  8
0
 62
     2
 10
-180.0076
 20
47.007
 30
0.0
  0
VERTEX
  5
F4C
  8
0
 62
     2
 10
-179.9923
 20
46.9917
 30
0.0
  0
VERTEX
  5
F4D
  8
0
 62
     2
 10
-179.9766
 20
46.9768
 30
0.0
  0
VERTEX
  5
F4E
  8
0
 62
     2
 10
-179.9607
 20
46.9621
 30
0.0
  0
VERTEX
  5
F4F
  8
0
 62
     2
 10
-179.96066
 20
46.96207
 30
0.0
  0
VERTEX
  5
F50
  8
0
 62
     2
 10
-179.9445
 20
46.9478
 30
0.0
  0
VERTEX
  5
F51
  8
0
 62
     2
 10
-179.92788
 20
46.93406
 30
0.0
  0
VERTEX
  5
F52
  8
0
 62
     2
 10
-179.9278
 20
46.934
 30
0.0
  0
VERTEX
  5
F53
  8
0
 62
     2
 10
-179.92777
 20
46.93397
 30
0.0
  0
VERTEX
  5
F54
  8
0
 62
     2
 10
-179.9107
 20
46.9206
 30
0.0
  0
VERTEX
  5
F55
  8
0
 62
     2
 10
-179.91067
 20
46.92058
 30
0.0
  0
VERTEX
  5
F56
  8
0
 62
     2
 10
-179.8934
 20
46.9076
 30
0.0
  0
VERTEX
  5
F57
  8
0
 62
     2
 10
-179.87784
 20
46.89643
 30
0.0
  0
VERTEX
  5
F58
  8
0
 62
     2
 10
-179.8778
 20
46.8964
 30
0.0
  0
VERTEX
  5
F59
  8
0
 62
     2
 10
-179.86202
 20
46.88587
 30
0.0
  0
VERTEX
  5
F5A
  8
0
 62
     2
 10
-179.8619
 20
46.8858
 30
0.0
  0
VERTEX
  5
F5B
  8
0
 62
     2
 10
-179.86188
 20
46.88579
 30
0.0
  0
VERTEX
  5
F5C
  8
0
 62
     2
 10
-179.8456
 20
46.8756
 30
0.0
  0
VERTEX
  5
F5D
  8
0
 62
     2
 10
-179.8293
 20
46.86576
 30
0.0
  0
VERTEX
  5
F5E
  8
0
 62
     2
 10
-179.8292
 20
46.8657
 30
0.0
  0
VERTEX
  5
F5F
  8
0
 62
     2
 10
-179.82911
 20
46.86564
 30
0.0
  0
VERTEX
  5
F60
  8
0
 62
     2
 10
-179.8125
 20
46.8563
 30
0.0
  0
VERTEX
  5
F61
  8
0
 62
     2
 10
-179.81249
 20
46.8563
 30
0.0
  0
VERTEX
  5
F62
  8
0
 62
     2
 10
-179.7955
 20
46.8475
 30
0.0
  0
VERTEX
  5
F63
  8
0
 62
     2
 10
-179.79546
 20
46.84748
 30
0.0
  0
VERTEX
  5
F64
  8
0
 62
     2
 10
-179.7782
 20
46.8392
 30
0.0
  0
VERTEX
  5
F65
  8
0
 62
     2
 10
-179.77817
 20
46.83919
 30
0.0
  0
VERTEX
  5
F66
  8
0
 62
     2
 10
-179.7607
 20
46.8313
 30
0.0
  0
VERTEX
  5
F67
  8
0
 62
     2
 10
-179.76068
 20
46.83129
 30
0.0
  0
VERTEX
  5
F68
  8
0
 62
     2
 10
-179.743
 20
46.824
 30
0.0
  0
VERTEX
  5
F69
  8
0
 62
     2
 10
-179.72505
 20
46.81742
 30
0.0
  0
VERTEX
  5
F6A
  8
0
 62
     2
 10
-179.725
 20
46.8174
 30
0.0
  0
VERTEX
  5
F6B
  8
0
 62
     2
 10
-179.72493
 20
46.81738
 30
0.0
  0
VERTEX
  5
F6C
  8
0
 62
     2
 10
-179.6912
 20
46.8069
 30
0.0
  0
VERTEX
  5
F6D
  8
0
 62
     2
 10
-179.69115
 20
46.80689
 30
0.0
  0
VERTEX
  5
F6E
  8
0
 62
     2
 10
-179.6568
 20
46.7983
 30
0.0
  0
VERTEX
  5
F6F
  8
0
 62
     2
 10
-179.65673
 20
46.79828
 30
0.0
  0
VERTEX
  5
F70
  8
0
 62
     2
 10
-179.6394
 20
46.7949
 30
0.0
  0
VERTEX
  5
F71
  8
0
 62
     2
 10
-179.62195
 20
46.79221
 30
0.0
  0
VERTEX
  5
F72
  8
0
 62
     2
 10
-179.6219
 20
46.7922
 30
0.0
  0
VERTEX
  5
F73
  8
0
 62
     2
 10
-179.62186
 20
46.7922
 30
0.0
  0
VERTEX
  5
F74
  8
0
 62
     2
 10
-179.6043
 20
46.7901
 30
0.0
  0
VERTEX
  5
F75
  8
0
 62
     2
 10
-179.60427
 20
46.7901
 30
0.0
  0
VERTEX
  5
F76
  8
0
 62
     2
 10
-179.5867
 20
46.7884
 30
0.0
  0
VERTEX
  5
F77
  8
0
 62
     2
 10
-179.53364
 20
46.7873
 30
0.0
  0
VERTEX
  5
F78
  8
0
 62
     2
 10
-179.5336
 20
46.7873
 30
0.0
  0
VERTEX
  5
F79
  8
0
 62
     2
 10
-179.48088
 20
46.79229
 30
0.0
  0
VERTEX
  5
F7A
  8
0
 62
     2
 10
-179.4808
 20
46.7923
 30
0.0
  0
VERTEX
  5
F7B
  8
0
 62
     2
 10
-179.44596
 20
46.79859
 30
0.0
  0
VERTEX
  5
F7C
  8
0
 62
     2
 10
-179.4459
 20
46.7986
 30
0.0
  0
VERTEX
  5
F7D
  8
0
 62
     2
 10
-179.41152
 20
46.8069
 30
0.0
  0
VERTEX
  5
F7E
  8
0
 62
     2
 10
-179.4115
 20
46.8069
 30
0.0
  0
VERTEX
  5
F7F
  8
0
 62
     2
 10
-179.41142
 20
46.80692
 30
0.0
  0
VERTEX
  5
F80
  8
0
 62
     2
 10
-179.3945
 20
46.8119
 30
0.0
  0
VERTEX
  5
F81
  8
0
 62
     2
 10
-179.39441
 20
46.81193
 30
0.0
  0
VERTEX
  5
F82
  8
0
 62
     2
 10
-179.3777
 20
46.8176
 30
0.0
  0
VERTEX
  5
F83
  8
0
 62
     2
 10
-179.37768
 20
46.81761
 30
0.0
  0
VERTEX
  5
F84
  8
0
 62
     2
 10
-179.3598
 20
46.8244
 30
0.0
  0
VERTEX
  5
F85
  8
0
 62
     2
 10
-179.3597
 20
46.82444
 30
0.0
  0
VERTEX
  5
F86
  8
0
 62
     2
 10
-179.342
 20
46.8316
 30
0.0
  0
VERTEX
  5
F87
  8
0
 62
     2
 10
-179.32456
 20
46.83937
 30
0.0
  0
VERTEX
  5
F88
  8
0
 62
     2
 10
-179.3245
 20
46.8394
 30
0.0
  0
VERTEX
  5
F89
  8
0
 62
     2
 10
-179.3073
 20
46.8478
 30
0.0
  0
VERTEX
  5
F8A
  8
0
 62
     2
 10
-179.30726
 20
46.84782
 30
0.0
  0
VERTEX
  5
F8B
  8
0
 62
     2
 10
-179.2904
 20
46.8567
 30
0.0
  0
VERTEX
  5
F8C
  8
0
 62
     2
 10
-179.29029
 20
46.85676
 30
0.0
  0
VERTEX
  5
F8D
  8
0
 62
     2
 10
-179.2736
 20
46.866
 30
0.0
  0
VERTEX
  5
F8E
  8
0
 62
     2
 10
-179.27346
 20
46.86608
 30
0.0
  0
VERTEX
  5
F8F
  8
0
 62
     2
 10
-179.2571
 20
46.8758
 30
0.0
  0
VERTEX
  5
F90
  8
0
 62
     2
 10
-179.25705
 20
46.87583
 30
0.0
  0
VERTEX
  5
F91
  8
0
 62
     2
 10
-179.2409
 20
46.8862
 30
0.0
  0
VERTEX
  5
F92
  8
0
 62
     2
 10
-179.24086
 20
46.88623
 30
0.0
  0
VERTEX
  5
F93
  8
0
 62
     2
 10
-179.2251
 20
46.897
 30
0.0
  0
VERTEX
  5
F94
  8
0
 62
     2
 10
-179.20943
 20
46.90798
 30
0.0
  0
VERTEX
  5
F95
  8
0
 62
     2
 10
-179.2094
 20
46.908
 30
0.0
  0
VERTEX
  5
F96
  8
0
 62
     2
 10
-179.19201
 20
46.92089
 30
0.0
  0
VERTEX
  5
F97
  8
0
 62
     2
 10
-179.192
 20
46.9209
 30
0.0
  0
VERTEX
  5
F98
  8
0
 62
     2
 10
-179.19196
 20
46.92093
 30
0.0
  0
VERTEX
  5
F99
  8
0
 62
     2
 10
-179.1751
 20
46.9344
 30
0.0
  0
VERTEX
  5
F9A
  8
0
 62
     2
 10
-179.15855
 20
46.94826
 30
0.0
  0
VERTEX
  5
F9B
  8
0
 62
     2
 10
-179.1585
 20
46.9483
 30
0.0
  0
VERTEX
  5
F9C
  8
0
 62
     2
 10
-179.14224
 20
46.96246
 30
0.0
  0
VERTEX
  5
F9D
  8
0
 62
     2
 10
-179.1422
 20
46.9625
 30
0.0
  0
VERTEX
  5
F9E
  8
0
 62
     2
 10
-179.14219
 20
46.96251
 30
0.0
  0
VERTEX
  5
F9F
  8
0
 62
     2
 10
-179.1262
 20
46.9771
 30
0.0
  0
VERTEX
  5
FA0
  8
0
 62
     2
 10
-179.1107
 20
46.9922
 30
0.0
  0
VERTEX
  5
FA1
  8
0
 62
     2
 10
-179.1106
 20
46.9923
 30
0.0
  0
VERTEX
  5
FA2
  8
0
 62
     2
 10
-179.0955
 20
47.0076
 30
0.0
  0
VERTEX
  5
FA3
  8
0
 62
     2
 10
-179.09545
 20
47.00765
 30
0.0
  0
VERTEX
  5
FA4
  8
0
 62
     2
 10
-179.0804
 20
47.0232
 30
0.0
  0
VERTEX
  5
FA5
  8
0
 62
     2
 10
-179.0658
 20
47.03899
 30
0.0
  0
VERTEX
  5
FA6
  8
0
 62
     2
 10
-179.0657
 20
47.0391
 30
0.0
  0
VERTEX
  5
FA7
  8
0
 62
     2
 10
-179.05156
 20
47.05533
 30
0.0
  0
VERTEX
  5
FA8
  8
0
 62
     2
 10
-179.0515
 20
47.0554
 30
0.0
  0
VERTEX
  5
FA9
  8
0
 62
     2
 10
-179.05142
 20
47.0555
 30
0.0
  0
VERTEX
  5
FAA
  8
0
 62
     2
 10
-179.0357
 20
47.0742
 30
0.0
  0
VERTEX
  5
FAB
  8
0
 62
     2
 10
-179.03562
 20
47.0743
 30
0.0
  0
VERTEX
  5
FAC
  8
0
 62
     2
 10
-179.0201
 20
47.0932
 30
0.0
  0
VERTEX
  5
FAD
  8
0
 62
     2
 10
-179.02007
 20
47.09324
 30
0.0
  0
VERTEX
  5
FAE
  8
0
 62
     2
 10
-179.0049
 20
47.1125
 30
0.0
  0
VERTEX
  5
FAF
  8
0
 62
     2
 10
-179.00489
 20
47.11251
 30
0.0
  0
VERTEX
  5
FB0
  8
0
 62
     2
 10
-178.9902
 20
47.1323
 30
0.0
  0
VERTEX
  5
FB1
  8
0
 62
     2
 10
-178.99017
 20
47.13235
 30
0.0
  0
VERTEX
  5
FB2
  8
0
 62
     2
 10
-178.9759
 20
47.1523
 30
0.0
  0
VERTEX
  5
FB3
  8
0
 62
     2
 10
-178.97588
 20
47.15233
 30
0.0
  0
VERTEX
  5
FB4
  8
0
 62
     2
 10
-178.9617
 20
47.1724
 30
0.0
  0
VERTEX
  5
FB5
  8
0
 62
     2
 10
-178.94793
 20
47.19276
 30
0.0
  0
VERTEX
  5
FB6
  8
0
 62
     2
 10
-178.9479
 20
47.1928
 30
0.0
  0
VERTEX
  5
FB7
  8
0
 62
     2
 10
-178.94786
 20
47.19287
 30
0.0
  0
VERTEX
  5
FB8
  8
0
 62
     2
 10
-178.9346
 20
47.2135
 30
0.0
  0
VERTEX
  5
FB9
  8
0
 62
     2
 10
-178.92164
 20
47.23433
 30
0.0
  0
VERTEX
  5
FBA
  8
0
 62
     2
 10
-178.9216
 20
47.2344
 30
0.0
  0
VERTEX
  5
FBB
  8
0
 62
     2
 10
-178.9088
 20
47.2554
 30
0.0
  0
VERTEX
  5
FBC
  8
0
 62
     2
 10
-178.89484
 20
47.27914
 30
0.0
  0
VERTEX
  5
FBD
  8
0
 62
     2
 10
-178.8948
 20
47.2792
 30
0.0
  0
VERTEX
  5
FBE
  8
0
 62
     2
 10
-178.8948
 20
47.27921
 30
0.0
  0
VERTEX
  5
FBF
  8
0
 62
     2
 10
-178.8814
 20
47.3033
 30
0.0
  0
VERTEX
  5
FC0
  8
0
 62
     2
 10
-178.86832
 20
47.32756
 30
0.0
  0
VERTEX
  5
FC1
  8
0
 62
     2
 10
-178.8683
 20
47.3276
 30
0.0
  0
VERTEX
  5
FC2
  8
0
 62
     2
 10
-178.85542
 20
47.35186
 30
0.0
  0
VERTEX
  5
FC3
  8
0
 62
     2
 10
-178.8554
 20
47.3519
 30
0.0
  0
VERTEX
  5
FC4
  8
0
 62
     2
 10
-178.84284
 20
47.37642
 30
0.0
  0
VERTEX
  5
FC5
  8
0
 62
     2
 10
-178.8428
 20
47.3765
 30
0.0
  0
VERTEX
  5
FC6
  8
0
 62
     2
 10
-178.83084
 20
47.40122
 30
0.0
  0
VERTEX
  5
FC7
  8
0
 62
     2
 10
-178.8308
 20
47.4013
 30
0.0
  0
VERTEX
  5
FC8
  8
0
 62
     2
 10
-178.83078
 20
47.40134
 30
0.0
  0
VERTEX
  5
FC9
  8
0
 62
     2
 10
-178.8191
 20
47.4263
 30
0.0
  0
VERTEX
  5
FCA
  8
0
 62
     2
 10
-178.81904
 20
47.42642
 30
0.0
  0
VERTEX
  5
FCB
  8
0
 62
     2
 10
-178.8076
 20
47.4514
 30
0.0
  0
VERTEX
  5
FCC
  8
0
 62
     2
 10
-178.79644
 20
47.47651
 30
0.0
  0
VERTEX
  5
FCD
  8
0
 62
     2
 10
-178.7964
 20
47.4766
 30
0.0
  0
VERTEX
  5
FCE
  8
0
 62
     2
 10
-178.78573
 20
47.50194
 30
0.0
  0
VERTEX
  5
FCF
  8
0
 62
     2
 10
-178.7857
 20
47.502
 30
0.0
  0
VERTEX
  5
FD0
  8
0
 62
     2
 10
-178.7743
 20
47.53
 30
0.0
  0
VERTEX
  5
FD1
  8
0
 62
     2
 10
-178.77425
 20
47.53012
 30
0.0
  0
VERTEX
  5
FD2
  8
0
 62
     2
 10
-178.763
 20
47.5581
 30
0.0
  0
VERTEX
  5
FD3
  8
0
 62
     2
 10
-178.76296
 20
47.5582
 30
0.0
  0
VERTEX
  5
FD4
  8
0
 62
     2
 10
-178.7521
 20
47.5863
 30
0.0
  0
VERTEX
  5
FD5
  8
0
 62
     2
 10
-178.7521
 20
47.58631
 30
0.0
  0
VERTEX
  5
FD6
  8
0
 62
     2
 10
-178.7418
 20
47.6148
 30
0.0
  0
VERTEX
  5
FD7
  8
0
 62
     2
 10
-178.7318
 20
47.6434
 30
0.0
  0
VERTEX
  5
FD8
  8
0
 62
     2
 10
-178.73179
 20
47.64343
 30
0.0
  0
VERTEX
  5
FD9
  8
0
 62
     2
 10
-178.7219
 20
47.672
 30
0.0
  0
VERTEX
  5
FDA
  8
0
 62
     2
 10
-178.72189
 20
47.67203
 30
0.0
  0
VERTEX
  5
FDB
  8
0
 62
     2
 10
-178.7123
 20
47.7007
 30
0.0
  0
VERTEX
  5
FDC
  8
0
 62
     2
 10
-178.7032
 20
47.72959
 30
0.0
  0
VERTEX
  5
FDD
  8
0
 62
     2
 10
-178.7032
 20
47.7296
 30
0.0
  0
VERTEX
  5
FDE
  8
0
 62
     2
 10
-178.69451
 20
47.75857
 30
0.0
  0
VERTEX
  5
FDF
  8
0
 62
     2
 10
-178.6945
 20
47.7586
 30
0.0
  0
VERTEX
  5
FE0
  8
0
 62
     2
 10
-178.6859
 20
47.7876
 30
0.0
  0
VERTEX
  5
FE1
  8
0
 62
     2
 10
-178.68588
 20
47.78765
 30
0.0
  0
VERTEX
  5
FE2
  8
0
 62
     2
 10
-178.6769
 20
47.8188
 30
0.0
  0
VERTEX
  5
FE3
  8
0
 62
     2
 10
-178.67688
 20
47.81887
 30
0.0
  0
VERTEX
  5
FE4
  8
0
 62
     2
 10
-178.6686
 20
47.8502
 30
0.0
  0
VERTEX
  5
FE5
  8
0
 62
     2
 10
-178.6606
 20
47.8816
 30
0.0
  0
VERTEX
  5
FE6
  8
0
 62
     2
 10
-178.66058
 20
47.88169
 30
0.0
  0
VERTEX
  5
FE7
  8
0
 62
     2
 10
-178.6526
 20
47.9131
 30
0.0
  0
VERTEX
  5
FE8
  8
0
 62
     2
 10
-178.65258
 20
47.91319
 30
0.0
  0
VERTEX
  5
FE9
  8
0
 62
     2
 10
-178.645
 20
47.9447
 30
0.0
  0
VERTEX
  5
FEA
  8
0
 62
     2
 10
-178.638
 20
47.97639
 30
0.0
  0
VERTEX
  5
FEB
  8
0
 62
     2
 10
-178.638
 20
47.9764
 30
0.0
  0
VERTEX
  5
FEC
  8
0
 62
     2
 10
-178.63798
 20
47.97652
 30
0.0
  0
VERTEX
  5
FED
  8
0
 62
     2
 10
-178.6313
 20
48.0081
 30
0.0
  0
VERTEX
  5
FEE
  8
0
 62
     2
 10
-178.6313
 20
48.00812
 30
0.0
  0
VERTEX
  5
FEF
  8
0
 62
     2
 10
-178.6246
 20
48.0399
 30
0.0
  0
VERTEX
  5
FF0
  8
0
 62
     2
 10
-178.62459
 20
48.03994
 30
0.0
  0
VERTEX
  5
FF1
  8
0
 62
     2
 10
-178.6182
 20
48.0717
 30
0.0
  0
VERTEX
  5
FF2
  8
0
 62
     2
 10
-178.61241
 20
48.10354
 30
0.0
  0
VERTEX
  5
FF3
  8
0
 62
     2
 10
-178.6124
 20
48.1036
 30
0.0
  0
VERTEX
  5
FF4
  8
0
 62
     2
 10
-178.61239
 20
48.10366
 30
0.0
  0
VERTEX
  5
FF5
  8
0
 62
     2
 10
-178.6012
 20
48.1706
 30
0.0
  0
VERTEX
  5
FF6
  8
0
 62
     2
 10
-178.60119
 20
48.17065
 30
0.0
  0
VERTEX
  5
FF7
  8
0
 62
     2
 10
-178.5907
 20
48.2378
 30
0.0
  0
VERTEX
  5
FF8
  8
0
 62
     2
 10
-178.5907
 20
48.23782
 30
0.0
  0
VERTEX
  5
FF9
  8
0
 62
     2
 10
-178.5814
 20
48.3051
 30
0.0
  0
VERTEX
  5
FFA
  8
0
 62
     2
 10
-178.58139
 20
48.30519
 30
0.0
  0
VERTEX
  5
FFB
  8
0
 62
     2
 10
-178.574
 20
48.3727
 30
0.0
  0
VERTEX
  5
FFC
  8
0
 62
     2
 10
-178.565
 20
48.47579
 30
0.0
  0
VERTEX
  5
FFD
  8
0
 62
     2
 10
-178.565
 20
48.4758
 30
0.0
  0
VERTEX
  5
FFE
  8
0
 62
     2
 10
-178.5578
 20
48.57907
 30
0.0
  0
VERTEX
  5
FFF
  8
0
 62
     2
 10
-178.5578
 20
48.5791
 30
0.0
  0
VERTEX
  5
1000
  8
0
 62
     2
 10
-178.5578
 20
48.57914
 30
0.0
  0
VERTEX
  5
1001
  8
0
 62
     2
 10
-178.5602
 20
49.0595
 30
0.0
  0
VERTEX
  5
1002
  8
0
 62
     2
 10
-178.62539
 20
49.53543
 30
0.0
  0
VERTEX
  5
1003
  8
0
 62
     2
 10
-178.6254
 20
49.5355
 30
0.0
  0
VERTEX
  5
1004
  8
0
 62
     2
 10
-178.632
 20
49.5673
 30
0.0
  0
VERTEX
  5
1005
  8
0
 62
     2
 10
-178.63202
 20
49.56737
 30
0.0
  0
VERTEX
  5
1006
  8
0
 62
     2
 10
-178.6389
 20
49.599
 30
0.0
  0
VERTEX
  5
1007
  8
0
 62
     2
 10
-178.64609
 20
49.63056
 30
0.0
  0
VERTEX
  5
1008
  8
0
 62
     2
 10
-178.6461
 20
49.6306
 30
0.0
  0
VERTEX
  5
1009
  8
0
 62
     2
 10
-178.65358
 20
49.66213
 30
0.0
  0
VERTEX
  5
100A
  8
0
 62
     2
 10
-178.6536
 20
49.6622
 30
0.0
  0
VERTEX
  5
100B
  8
0
 62
     2
 10
-178.65362
 20
49.66227
 30
0.0
  0
VERTEX
  5
100C
  8
0
 62
     2
 10
-178.6615
 20
49.6937
 30
0.0
  0
VERTEX
  5
100D
  8
0
 62
     2
 10
-178.66959
 20
49.72508
 30
0.0
  0
VERTEX
  5
100E
  8
0
 62
     2
 10
-178.6696
 20
49.7251
 30
0.0
  0
VERTEX
  5
100F
  8
0
 62
     2
 10
-178.6696
 20
49.72512
 30
0.0
  0
VERTEX
  5
1010
  8
0
 62
     2
 10
-178.6781
 20
49.7564
 30
0.0
  0
VERTEX
  5
1011
  8
0
 62
     2
 10
-178.68698
 20
49.78752
 30
0.0
  0
VERTEX
  5
1012
  8
0
 62
     2
 10
-178.687
 20
49.7876
 30
0.0
  0
VERTEX
  5
1013
  8
0
 62
     2
 10
-178.69558
 20
49.81655
 30
0.0
  0
VERTEX
  5
1014
  8
0
 62
     2
 10
-178.6956
 20
49.8166
 30
0.0
  0
VERTEX
  5
1015
  8
0
 62
     2
 10
-178.70438
 20
49.84554
 30
0.0
  0
VERTEX
  5
1016
  8
0
 62
     2
 10
-178.7044
 20
49.8456
 30
0.0
  0
VERTEX
  5
1017
  8
0
 62
     2
 10
-178.70441
 20
49.84563
 30
0.0
  0
VERTEX
  5
1018
  8
0
 62
     2
 10
-178.7136
 20
49.8745
 30
0.0
  0
VERTEX
  5
1019
  8
0
 62
     2
 10
-178.7231
 20
49.9032
 30
0.0
  0
VERTEX
  5
101A
  8
0
 62
     2
 10
-178.73288
 20
49.93174
 30
0.0
  0
VERTEX
  5
101B
  8
0
 62
     2
 10
-178.7329
 20
49.9318
 30
0.0
  0
VERTEX
  5
101C
  8
0
 62
     2
 10
-178.74299
 20
49.96037
 30
0.0
  0
VERTEX
  5
101D
  8
0
 62
     2
 10
-178.743
 20
49.9604
 30
0.0
  0
VERTEX
  5
101E
  8
0
 62
     2
 10
-178.75346
 20
49.9887
 30
0.0
  0
VERTEX
  5
101F
  8
0
 62
     2
 10
-178.7535
 20
49.9888
 30
0.0
  0
VERTEX
  5
1020
  8
0
 62
     2
 10
-178.76436
 20
50.0169
 30
0.0
  0
VERTEX
  5
1021
  8
0
 62
     2
 10
-178.7644
 20
50.017
 30
0.0
  0
VERTEX
  5
1022
  8
0
 62
     2
 10
-178.76441
 20
50.01702
 30
0.0
  0
VERTEX
  5
1023
  8
0
 62
     2
 10
-178.7756
 20
50.0451
 30
0.0
  0
VERTEX
  5
1024
  8
0
 62
     2
 10
-178.78709
 20
50.07306
 30
0.0
  0
VERTEX
  5
1025
  8
0
 62
     2
 10
-178.7871
 20
50.0731
 30
0.0
  0
VERTEX
  5
1026
  8
0
 62
     2
 10
-178.79787
 20
50.09843
 30
0.0
  0
VERTEX
  5
1027
  8
0
 62
     2
 10
-178.7979
 20
50.0985
 30
0.0
  0
VERTEX
  5
1028
  8
0
 62
     2
 10
-178.80907
 20
50.12363
 30
0.0
  0
VERTEX
  5
1029
  8
0
 62
     2
 10
-178.8091
 20
50.1237
 30
0.0
  0
VERTEX
  5
102A
  8
0
 62
     2
 10
-178.80912
 20
50.12374
 30
0.0
  0
VERTEX
  5
102B
  8
0
 62
     2
 10
-178.8206
 20
50.1488
 30
0.0
  0
VERTEX
  5
102C
  8
0
 62
     2
 10
-178.83236
 20
50.17372
 30
0.0
  0
VERTEX
  5
102D
  8
0
 62
     2
 10
-178.8324
 20
50.1738
 30
0.0
  0
VERTEX
  5
102E
  8
0
 62
     2
 10
-178.84444
 20
50.19848
 30
0.0
  0
VERTEX
  5
102F
  8
0
 62
     2
 10
-178.8445
 20
50.1986
 30
0.0
  0
VERTEX
  5
1030
  8
0
 62
     2
 10
-178.85698
 20
50.22306
 30
0.0
  0
VERTEX
  5
1031
  8
0
 62
     2
 10
-178.857
 20
50.2231
 30
0.0
  0
VERTEX
  5
1032
  8
0
 62
     2
 10
-178.85704
 20
50.22317
 30
0.0
  0
VERTEX
  5
1033
  8
0
 62
     2
 10
-178.8698
 20
50.2475
 30
0.0
  0
VERTEX
  5
1034
  8
0
 62
     2
 10
-178.883
 20
50.27179
 30
0.0
  0
VERTEX
  5
1035
  8
0
 62
     2
 10
-178.883
 20
50.2718
 30
0.0
  0
VERTEX
  5
1036
  8
0
 62
     2
 10
-178.88306
 20
50.27191
 30
0.0
  0
VERTEX
  5
1037
  8
0
 62
     2
 10
-178.8965
 20
50.2958
 30
0.0
  0
VERTEX
  5
1038
  8
0
 62
     2
 10
-178.89654
 20
50.29586
 30
0.0
  0
VERTEX
  5
1039
  8
0
 62
     2
 10
-178.9105
 20
50.3196
 30
0.0
  0
VERTEX
  5
103A
  8
0
 62
     2
 10
-178.91053
 20
50.31966
 30
0.0
  0
VERTEX
  5
103B
  8
0
 62
     2
 10
-178.9233
 20
50.3406
 30
0.0
  0
VERTEX
  5
103C
  8
0
 62
     2
 10
-178.93629
 20
50.36148
 30
0.0
  0
VERTEX
  5
103D
  8
0
 62
     2
 10
-178.9363
 20
50.3615
 30
0.0
  0
VERTEX
  5
103E
  8
0
 62
     2
 10
-178.93633
 20
50.36155
 30
0.0
  0
VERTEX
  5
103F
  8
0
 62
     2
 10
-178.9497
 20
50.3821
 30
0.0
  0
VERTEX
  5
1040
  8
0
 62
     2
 10
-178.94973
 20
50.38214
 30
0.0
  0
VERTEX
  5
1041
  8
0
 62
     2
 10
-178.9635
 20
50.4025
 30
0.0
  0
VERTEX
  5
1042
  8
0
 62
     2
 10
-178.97757
 20
50.42265
 30
0.0
  0
VERTEX
  5
1043
  8
0
 62
     2
 10
-178.9776
 20
50.4227
 30
0.0
  0
VERTEX
  5
1044
  8
0
 62
     2
 10
-178.99198
 20
50.44257
 30
0.0
  0
VERTEX
  5
1045
  8
0
 62
     2
 10
-178.992
 20
50.4426
 30
0.0
  0
VERTEX
  5
1046
  8
0
 62
     2
 10
-178.99201
 20
50.44262
 30
0.0
  0
VERTEX
  5
1047
  8
0
 62
     2
 10
-179.0067
 20
50.4623
 30
0.0
  0
VERTEX
  5
1048
  8
0
 62
     2
 10
-179.02187
 20
50.48156
 30
0.0
  0
VERTEX
  5
1049
  8
0
 62
     2
 10
-179.0219
 20
50.4816
 30
0.0
  0
VERTEX
  5
104A
  8
0
 62
     2
 10
-179.03747
 20
50.50066
 30
0.0
  0
VERTEX
  5
104B
  8
0
 62
     2
 10
-179.0375
 20
50.5007
 30
0.0
  0
VERTEX
  5
104C
  8
0
 62
     2
 10
-179.03756
 20
50.50077
 30
0.0
  0
VERTEX
  5
104D
  8
0
 62
     2
 10
-179.0534
 20
50.5195
 30
0.0
  0
VERTEX
  5
104E
  8
0
 62
     2
 10
-179.05345
 20
50.51956
 30
0.0
  0
VERTEX
  5
104F
  8
0
 62
     2
 10
-179.0677
 20
50.5357
 30
0.0
  0
VERTEX
  5
1050
  8
0
 62
     2
 10
-179.0824
 20
50.5516
 30
0.0
  0
VERTEX
  5
1051
  8
0
 62
     2
 10
-179.0974
 20
50.5672
 30
0.0
  0
VERTEX
  5
1052
  8
0
 62
     2
 10
-179.1126
 20
50.5826
 30
0.0
  0
VERTEX
  5
1053
  8
0
 62
     2
 10
-179.1282
 20
50.5976
 30
0.0
  0
VERTEX
  5
1054
  8
0
 62
     2
 10
-179.12824
 20
50.59764
 30
0.0
  0
VERTEX
  5
1055
  8
0
 62
     2
 10
-179.1442
 20
50.6123
 30
0.0
  0
VERTEX
  5
1056
  8
0
 62
     2
 10
-179.14424
 20
50.61234
 30
0.0
  0
VERTEX
  5
1057
  8
0
 62
     2
 10
-179.1605
 20
50.6265
 30
0.0
  0
VERTEX
  5
1058
  8
0
 62
     2
 10
-179.17708
 20
50.64028
 30
0.0
  0
VERTEX
  5
1059
  8
0
 62
     2
 10
-179.1771
 20
50.6403
 30
0.0
  0
VERTEX
  5
105A
  8
0
 62
     2
 10
-179.19407
 20
50.65368
 30
0.0
  0
VERTEX
  5
105B
  8
0
 62
     2
 10
-179.1941
 20
50.6537
 30
0.0
  0
VERTEX
  5
105C
  8
0
 62
     2
 10
-179.21147
 20
50.66668
 30
0.0
  0
VERTEX
  5
105D
  8
0
 62
     2
 10
-179.2115
 20
50.6667
 30
0.0
  0
VERTEX
  5
105E
  8
0
 62
     2
 10
-179.22701
 20
50.67774
 30
0.0
  0
VERTEX
  5
105F
  8
0
 62
     2
 10
-179.2271
 20
50.6778
 30
0.0
  0
VERTEX
  5
1060
  8
0
 62
     2
 10
-179.24298
 20
50.68849
 30
0.0
  0
VERTEX
  5
1061
  8
0
 62
     2
 10
-179.243
 20
50.6885
 30
0.0
  0
VERTEX
  5
1062
  8
0
 62
     2
 10
-179.25919
 20
50.6988
 30
0.0
  0
VERTEX
  5
1063
  8
0
 62
     2
 10
-179.2592
 20
50.6988
 30
0.0
  0
VERTEX
  5
1064
  8
0
 62
     2
 10
-179.25921
 20
50.69881
 30
0.0
  0
VERTEX
  5
1065
  8
0
 62
     2
 10
-179.2757
 20
50.7086
 30
0.0
  0
VERTEX
  5
1066
  8
0
 62
     2
 10
-179.27575
 20
50.70863
 30
0.0
  0
VERTEX
  5
1067
  8
0
 62
     2
 10
-179.2924
 20
50.7179
 30
0.0
  0
VERTEX
  5
1068
  8
0
 62
     2
 10
-179.29252
 20
50.71797
 30
0.0
  0
VERTEX
  5
1069
  8
0
 62
     2
 10
-179.3094
 20
50.7268
 30
0.0
  0
VERTEX
  5
106A
  8
0
 62
     2
 10
-179.3267
 20
50.7352
 30
0.0
  0
VERTEX
  5
106B
  8
0
 62
     2
 10
-179.34419
 20
50.743
 30
0.0
  0
VERTEX
  5
106C
  8
0
 62
     2
 10
-179.3442
 20
50.743
 30
0.0
  0
VERTEX
  5
106D
  8
0
 62
     2
 10
-179.34425
 20
50.74302
 30
0.0
  0
VERTEX
  5
106E
  8
0
 62
     2
 10
-179.3619
 20
50.7502
 30
0.0
  0
VERTEX
  5
106F
  8
0
 62
     2
 10
-179.362
 20
50.75024
 30
0.0
  0
VERTEX
  5
1070
  8
0
 62
     2
 10
-179.3799
 20
50.7569
 30
0.0
  0
VERTEX
  5
1071
  8
0
 62
     2
 10
-179.41365
 20
50.76759
 30
0.0
  0
VERTEX
  5
1072
  8
0
 62
     2
 10
-179.4137
 20
50.7676
 30
0.0
  0
VERTEX
  5
1073
  8
0
 62
     2
 10
-179.448
 20
50.77598
 30
0.0
  0
VERTEX
  5
1074
  8
0
 62
     2
 10
-179.4481
 20
50.776
 30
0.0
  0
VERTEX
  5
1075
  8
0
 62
     2
 10
-179.44815
 20
50.77601
 30
0.0
  0
VERTEX
  5
1076
  8
0
 62
     2
 10
-179.4655
 20
50.7793
 30
0.0
  0
VERTEX
  5
1077
  8
0
 62
     2
 10
-179.48296
 20
50.7821
 30
0.0
  0
VERTEX
  5
1078
  8
0
 62
     2
 10
-179.483
 20
50.7821
 30
0.0
  0
VERTEX
  5
1079
  8
0
 62
     2
 10
-179.48305
 20
50.78211
 30
0.0
  0
VERTEX
  5
107A
  8
0
 62
     2
 10
-179.5006
 20
50.7843
 30
0.0
  0
VERTEX
  5
107B
  8
0
 62
     2
 10
-179.50064
 20
50.7843
 30
0.0
  0
VERTEX
  5
107C
  8
0
 62
     2
 10
-179.5182
 20
50.7859
 30
0.0
  0
VERTEX
  5
107D
  8
0
 62
     2
 10
-179.51821
 20
50.7859
 30
0.0
  0
VERTEX
  5
107E
  8
0
 62
     2
 10
-179.5358
 20
50.7869
 30
0.0
  0
VERTEX
  5
107F
  8
0
 62
     2
 10
-179.5359
 20
50.7869
 30
0.0
  0
VERTEX
  5
1080
  8
0
 62
     2
 10
-179.5535
 20
50.7872
 30
0.0
  0
SEQEND
  5
156A
  8
0
 62
     2
  0
POLYLINE
  5
5C1
  8
0
 62
     2
 66
     1
 10
0.0
 20
0.0
 30
0.0
  0
VERTEX
  5
1082
  8
0
 62
     2
 10
-188.6518
 20
45.7194
 30
0.0
  0
VERTEX
  5
1083
  8
0
 62
     2
 10
-188.66963
 20
45.70685
 30
0.0
  0
VERTEX
  5
1084
  8
0
 62
     2
 10
-188.6697
 20
45.7068
 30
0.0
  0
VERTEX
  5
1085
  8
0
 62
     2
 10
-188.68749
 20
45.69438
 30
0.0
  0
VERTEX
  5
1086
  8
0
 62
     2
 10
-188.6876
 20
45.6943
 30
0.0
  0
VERTEX
  5
1087
  8
0
 62
     2
 10
-188.70548
 20
45.68181
 30
0.0
  0
VERTEX
  5
1088
  8
0
 62
     2
 10
-188.7055
 20
45.6818
 30
0.0
  0
VERTEX
  5
1089
  8
0
 62
     2
 10
-188.7235
 20
45.6694
 30
0.0
  0
VERTEX
  5
108A
  8
0
 62
     2
 10
-188.72355
 20
45.66937
 30
0.0
  0
VERTEX
  5
108B
  8
0
 62
     2
 10
-188.7415
 20
45.6571
 30
0.0
  0
VERTEX
  5
108C
  8
0
 62
     2
 10
-188.75958
 20
45.64502
 30
0.0
  0
VERTEX
  5
108D
  8
0
 62
     2
 10
-188.7596
 20
45.645
 30
0.0
  0
VERTEX
  5
108E
  8
0
 62
     2
 10
-188.75969
 20
45.64494
 30
0.0
  0
VERTEX
  5
108F
  8
0
 62
     2
 10
-188.7778
 20
45.633
 30
0.0
  0
VERTEX
  5
1090
  8
0
 62
     2
 10
-188.79608
 20
45.62112
 30
0.0
  0
VERTEX
  5
1091
  8
0
 62
     2
 10
-188.7961
 20
45.6211
 30
0.0
  0
VERTEX
  5
1092
  8
0
 62
     2
 10
-188.79619
 20
45.62104
 30
0.0
  0
VERTEX
  5
1093
  8
0
 62
     2
 10
-188.8145
 20
45.6095
 30
0.0
  0
VERTEX
  5
1094
  8
0
 62
     2
 10
-188.81459
 20
45.60944
 30
0.0
  0
VERTEX
  5
1095
  8
0
 62
     2
 10
-188.8331
 20
45.5981
 30
0.0
  0
VERTEX
  5
1096
  8
0
 62
     2
 10
-188.83316
 20
45.59806
 30
0.0
  0
VERTEX
  5
1097
  8
0
 62
     2
 10
-188.8878
 20
45.5663
 30
0.0
  0
VERTEX
  5
1098
  8
0
 62
     2
 10
-188.88787
 20
45.56626
 30
0.0
  0
VERTEX
  5
1099
  8
0
 62
     2
 10
-188.9437
 20
45.5366
 30
0.0
  0
VERTEX
  5
109A
  8
0
 62
     2
 10
-189.00079
 20
45.50901
 30
0.0
  0
VERTEX
  5
109B
  8
0
 62
     2
 10
-189.0008
 20
45.509
 30
0.0
  0
VERTEX
  5
109C
  8
0
 62
     2
 10
-189.05885
 20
45.48342
 30
0.0
  0
VERTEX
  5
109D
  8
0
 62
     2
 10
-189.0589
 20
45.4834
 30
0.0
  0
VERTEX
  5
109E
  8
0
 62
     2
 10
-189.22882
 20
45.42145
 30
0.0
  0
VERTEX
  5
109F
  8
0
 62
     2
 10
-189.40396
 20
45.37631
 30
0.0
  0
VERTEX
  5
10A0
  8
0
 62
     2
 10
-189.404
 20
45.3763
 30
0.0
  0
VERTEX
  5
10A1
  8
0
 62
     2
 10
-189.40404
 20
45.37629
 30
0.0
  0
VERTEX
  5
10A2
  8
0
 62
     2
 10
-189.58273
 20
45.3484
 30
0.0
  0
VERTEX
  5
10A3
  8
0
 62
     2
 10
-189.7633
 20
45.338
 30
0.0
  0
VERTEX
  5
10A4
  8
0
 62
     2
 10
-189.94154
 20
45.34799
 30
0.0
  0
VERTEX
  5
10A5
  8
0
 62
     2
 10
-189.9416
 20
45.348
 30
0.0
  0
VERTEX
  5
10A6
  8
0
 62
     2
 10
-189.94162
 20
45.348
 30
0.0
  0
VERTEX
  5
10A7
  8
0
 62
     2
 10
-190.1177
 20
45.3779
 30
0.0
  0
VERTEX
  5
10A8
  8
0
 62
     2
 10
-190.11773
 20
45.37791
 30
0.0
  0
VERTEX
  5
10A9
  8
0
 62
     2
 10
-190.2114
 20
45.4019
 30
0.0
  0
VERTEX
  5
10AA
  8
0
 62
     2
 10
-190.21141
 20
45.4019
 30
0.0
  0
VERTEX
  5
10AB
  8
0
 62
     2
 10
-190.3036
 20
45.431
 30
0.0
  0
VERTEX
  5
10AC
  8
0
 62
     2
 10
-190.39434
 20
45.46508
 30
0.0
  0
VERTEX
  5
10AD
  8
0
 62
     2
 10
-190.3944
 20
45.4651
 30
0.0
  0
VERTEX
  5
10AE
  8
0
 62
     2
 10
-190.39444
 20
45.46512
 30
0.0
  0
VERTEX
  5
10AF
  8
0
 62
     2
 10
-190.4834
 20
45.5037
 30
0.0
  0
VERTEX
  5
10B0
  8
0
 62
     2
 10
-190.57063
 20
45.54666
 30
0.0
  0
VERTEX
  5
10B1
  8
0
 62
     2
 10
-190.5707
 20
45.5467
 30
0.0
  0
VERTEX
  5
10B2
  8
0
 62
     2
 10
-190.6558
 20
45.5937
 30
0.0
  0
VERTEX
  5
10B3
  8
0
 62
     2
 10
-190.7385
 20
45.6445
 30
0.0
  0
VERTEX
  5
10B4
  8
0
 62
     2
 10
-190.73853
 20
45.64452
 30
0.0
  0
VERTEX
  5
10B5
  8
0
 62
     2
 10
-190.8189
 20
45.699
 30
0.0
  0
VERTEX
  5
10B6
  8
0
 62
     2
 10
-190.89837
 20
45.75818
 30
0.0
  0
VERTEX
  5
10B7
  8
0
 62
     2
 10
-190.8984
 20
45.7582
 30
0.0
  0
VERTEX
  5
10B8
  8
0
 62
     2
 10
-190.97525
 20
45.82066
 30
0.0
  0
VERTEX
  5
10B9
  8
0
 62
     2
 10
-190.9753
 20
45.8207
 30
0.0
  0
VERTEX
  5
10BA
  8
0
 62
     2
 10
-190.97534
 20
45.82074
 30
0.0
  0
VERTEX
  5
10BB
  8
0
 62
     2
 10
-191.0493
 20
45.8862
 30
0.0
  0
VERTEX
  5
10BC
  8
0
 62
     2
 10
-191.04938
 20
45.88627
 30
0.0
  0
VERTEX
  5
10BD
  8
0
 62
     2
 10
-191.1207
 20
45.9547
 30
0.0
  0
VERTEX
  5
10BE
  8
0
 62
     2
 10
-191.18927
 20
46.02587
 30
0.0
  0
VERTEX
  5
10BF
  8
0
 62
     2
 10
-191.1893
 20
46.0259
 30
0.0
  0
VERTEX
  5
10C0
  8
0
 62
     2
 10
-191.25518
 20
46.09948
 30
0.0
  0
VERTEX
  5
10C1
  8
0
 62
     2
 10
-191.2552
 20
46.0995
 30
0.0
  0
VERTEX
  5
10C2
  8
0
 62
     2
 10
-191.31849
 20
46.17539
 30
0.0
  0
VERTEX
  5
10C3
  8
0
 62
     2
 10
-191.3185
 20
46.1754
 30
0.0
  0
VERTEX
  5
10C4
  8
0
 62
     2
 10
-191.31855
 20
46.17547
 30
0.0
  0
VERTEX
  5
10C5
  8
0
 62
     2
 10
-191.3792
 20
46.2535
 30
0.0
  0
VERTEX
  5
10C6
  8
0
 62
     2
 10
-191.43734
 20
46.33342
 30
0.0
  0
VERTEX
  5
10C7
  8
0
 62
     2
 10
-191.4374
 20
46.3335
 30
0.0
  0
VERTEX
  5
10C8
  8
0
 62
     2
 10
-191.49296
 20
46.41514
 30
0.0
  0
VERTEX
  5
10C9
  8
0
 62
     2
 10
-191.493
 20
46.4152
 30
0.0
  0
VERTEX
  5
10CA
  8
0
 62
     2
 10
-191.49304
 20
46.41525
 30
0.0
  0
VERTEX
  5
10CB
  8
0
 62
     2
 10
-191.5561
 20
46.5148
 30
0.0
  0
VERTEX
  5
10CC
  8
0
 62
     2
 10
-191.6158
 20
46.6166
 30
0.0
  0
VERTEX
  5
10CD
  8
0
 62
     2
 10
-191.67199
 20
46.72027
 30
0.0
  0
VERTEX
  5
10CE
  8
0
 62
     2
 10
-191.672
 20
46.7203
 30
0.0
  0
VERTEX
  5
10CF
  8
0
 62
     2
 10
-191.67204
 20
46.72038
 30
0.0
  0
VERTEX
  5
10D0
  8
0
 62
     2
 10
-191.7248
 20
46.8257
 30
0.0
  0
VERTEX
  5
10D1
  8
0
 62
     2
 10
-191.72481
 20
46.82573
 30
0.0
  0
VERTEX
  5
10D2
  8
0
 62
     2
 10
-191.7742
 20
46.9328
 30
0.0
  0
VERTEX
  5
10D3
  8
0
 62
     2
 10
-191.77422
 20
46.93286
 30
0.0
  0
VERTEX
  5
10D4
  8
0
 62
     2
 10
-191.8204
 20
47.0413
 30
0.0
  0
VERTEX
  5
10D5
  8
0
 62
     2
 10
-191.86338
 20
47.15114
 30
0.0
  0
VERTEX
  5
10D6
  8
0
 62
     2
 10
-191.8634
 20
47.1512
 30
0.0
  0
VERTEX
  5
10D7
  8
0
 62
     2
 10
-191.86342
 20
47.15126
 30
0.0
  0
VERTEX
  5
10D8
  8
0
 62
     2
 10
-191.9032
 20
47.2623
 30
0.0
  0
VERTEX
  5
10D9
  8
0
 62
     2
 10
-191.9399
 20
47.37439
 30
0.0
  0
VERTEX
  5
10DA
  8
0
 62
     2
 10
-191.9399
 20
47.3744
 30
0.0
  0
VERTEX
  5
10DB
  8
0
 62
     2
 10
-191.9399
 20
47.37441
 30
0.0
  0
VERTEX
  5
10DC
  8
0
 62
     2
 10
-191.9735
 20
47.4874
 30
0.0
  0
VERTEX
  5
10DD
  8
0
 62
     2
 10
-191.9735
 20
47.48741
 30
0.0
  0
VERTEX
  5
10DE
  8
0
 62
     2
 10
-192.026
 20
47.6906
 30
0.0
  0
VERTEX
  5
10DF
  8
0
 62
     2
 10
-192.0691
 20
47.89599
 30
0.0
  0
VERTEX
  5
10E0
  8
0
 62
     2
 10
-192.0691
 20
47.896
 30
0.0
  0
VERTEX
  5
10E1
  8
0
 62
     2
 10
-192.10299
 20
48.10294
 30
0.0
  0
VERTEX
  5
10E2
  8
0
 62
     2
 10
-192.103
 20
48.103
 30
0.0
  0
VERTEX
  5
10E3
  8
0
 62
     2
 10
-192.10301
 20
48.10305
 30
0.0
  0
VERTEX
  5
10E4
  8
0
 62
     2
 10
-192.1278
 20
48.3113
 30
0.0
  0
VERTEX
  5
10E5
  8
0
 62
     2
 10
-192.1278
 20
48.31131
 30
0.0
  0
VERTEX
  5
10E6
  8
0
 62
     2
 10
-192.1419
 20
49.0856
 30
0.0
  0
VERTEX
  5
10E7
  8
0
 62
     2
 10
-192.0343
 20
49.8525
 30
0.0
  0
VERTEX
  5
10E8
  8
0
 62
     2
 10
-192.0078
 20
49.96339
 30
0.0
  0
VERTEX
  5
10E9
  8
0
 62
     2
 10
-192.0078
 20
49.9634
 30
0.0
  0
VERTEX
  5
10EA
  8
0
 62
     2
 10
-192.00779
 20
49.96342
 30
0.0
  0
VERTEX
  5
10EB
  8
0
 62
     2
 10
-191.9784
 20
50.0736
 30
0.0
  0
VERTEX
  5
10EC
  8
0
 62
     2
 10
-191.9462
 20
50.18299
 30
0.0
  0
VERTEX
  5
10ED
  8
0
 62
     2
 10
-191.9462
 20
50.183
 30
0.0
  0
VERTEX
  5
10EE
  8
0
 62
     2
 10
-191.9462
 20
50.18301
 30
0.0
  0
VERTEX
  5
10EF
  8
0
 62
     2
 10
-191.9111
 20
50.2915
 30
0.0
  0
VERTEX
  5
10F0
  8
0
 62
     2
 10
-191.91107
 20
50.29159
 30
0.0
  0
VERTEX
  5
10F1
  8
0
 62
     2
 10
-191.8731
 20
50.3991
 30
0.0
  0
VERTEX
  5
10F2
  8
0
 62
     2
 10
-191.87309
 20
50.39912
 30
0.0
  0
VERTEX
  5
10F3
  8
0
 62
     2
 10
-191.8322
 20
50.5057
 30
0.0
  0
VERTEX
  5
10F4
  8
0
 62
     2
 10
-191.83216
 20
50.5058
 30
0.0
  0
VERTEX
  5
10F5
  8
0
 62
     2
 10
-191.7884
 20
50.6112
 30
0.0
  0
VERTEX
  5
10F6
  8
0
 62
     2
 10
-191.74161
 20
50.71538
 30
0.0
  0
VERTEX
  5
10F7
  8
0
 62
     2
 10
-191.7416
 20
50.7154
 30
0.0
  0
VERTEX
  5
10F8
  8
0
 62
     2
 10
-191.69155
 20
50.8186
 30
0.0
  0
VERTEX
  5
10F9
  8
0
 62
     2
 10
-191.6915
 20
50.8187
 30
0.0
  0
VERTEX
  5
10FA
  8
0
 62
     2
 10
-191.69149
 20
50.81871
 30
0.0
  0
VERTEX
  5
10FB
  8
0
 62
     2
 10
-191.6384
 20
50.9205
 30
0.0
  0
VERTEX
  5
10FC
  8
0
 62
     2
 10
-191.58212
 20
51.02056
 30
0.0
  0
VERTEX
  5
10FD
  8
0
 62
     2
 10
-191.5821
 20
51.0206
 30
0.0
  0
VERTEX
  5
10FE
  8
0
 62
     2
 10
-191.52246
 20
51.1186
 30
0.0
  0
VERTEX
  5
10FF
  8
0
 62
     2
 10
-191.5224
 20
51.1187
 30
0.0
  0
VERTEX
  5
1100
  8
0
 62
     2
 10
-191.45944
 20
51.21454
 30
0.0
  0
VERTEX
  5
1101
  8
0
 62
     2
 10
-191.4594
 20
51.2146
 30
0.0
  0
VERTEX
  5
1102
  8
0
 62
     2
 10
-191.39291
 20
51.30799
 30
0.0
  0
VERTEX
  5
1103
  8
0
 62
     2
 10
-191.3929
 20
51.308
 30
0.0
  0
VERTEX
  5
1104
  8
0
 62
     2
 10
-191.32283
 20
51.39876
 30
0.0
  0
VERTEX
  5
1105
  8
0
 62
     2
 10
-191.3228
 20
51.3988
 30
0.0
  0
VERTEX
  5
1106
  8
0
 62
     2
 10
-191.24906
 20
51.48653
 30
0.0
  0
VERTEX
  5
1107
  8
0
 62
     2
 10
-191.249
 20
51.4866
 30
0.0
  0
VERTEX
  5
1108
  8
0
 62
     2
 10
-191.17142
 20
51.57137
 30
0.0
  0
VERTEX
  5
1109
  8
0
 62
     2
 10
-191.1714
 20
51.5714
 30
0.0
  0
VERTEX
  5
110A
  8
0
 62
     2
 10
-191.09015
 20
51.65255
 30
0.0
  0
VERTEX
  5
110B
  8
0
 62
     2
 10
-191.0901
 20
51.6526
 30
0.0
  0
VERTEX
  5
110C
  8
0
 62
     2
 10
-191.08998
 20
51.65271
 30
0.0
  0
VERTEX
  5
110D
  8
0
 62
     2
 10
-191.0079
 20
51.7276
 30
0.0
  0
VERTEX
  5
110E
  8
0
 62
     2
 10
-191.00786
 20
51.72763
 30
0.0
  0
VERTEX
  5
110F
  8
0
 62
     2
 10
-190.9223
 20
51.7988
 30
0.0
  0
VERTEX
  5
1110
  8
0
 62
     2
 10
-190.92226
 20
51.79883
 30
0.0
  0
VERTEX
  5
1111
  8
0
 62
     2
 10
-190.8333
 20
51.866
 30
0.0
  0
VERTEX
  5
1112
  8
0
 62
     2
 10
-190.83326
 20
51.86603
 30
0.0
  0
VERTEX
  5
1113
  8
0
 62
     2
 10
-190.7412
 20
51.9287
 30
0.0
  0
VERTEX
  5
1114
  8
0
 62
     2
 10
-190.74118
 20
51.92871
 30
0.0
  0
VERTEX
  5
1115
  8
0
 62
     2
 10
-190.6461
 20
51.9866
 30
0.0
  0
VERTEX
  5
1116
  8
0
 62
     2
 10
-190.5481
 20
52.0394
 30
0.0
  0
VERTEX
  5
1117
  8
0
 62
     2
 10
-190.54809
 20
52.03941
 30
0.0
  0
VERTEX
  5
1118
  8
0
 62
     2
 10
-190.4474
 20
52.0866
 30
0.0
  0
VERTEX
  5
1119
  8
0
 62
     2
 10
-190.34423
 20
52.12789
 30
0.0
  0
VERTEX
  5
111A
  8
0
 62
     2
 10
-190.3442
 20
52.1279
 30
0.0
  0
VERTEX
  5
111B
  8
0
 62
     2
 10
-190.2385
 20
52.163
 30
0.0
  0
VERTEX
  5
111C
  8
0
 62
     2
 10
-190.13097
 20
52.19148
 30
0.0
  0
VERTEX
  5
111D
  8
0
 62
     2
 10
-190.1309
 20
52.1915
 30
0.0
  0
VERTEX
  5
111E
  8
0
 62
     2
 10
-190.13083
 20
52.19152
 30
0.0
  0
VERTEX
  5
111F
  8
0
 62
     2
 10
-189.95096
 20
52.22298
 30
0.0
  0
VERTEX
  5
1120
  8
0
 62
     2
 10
-189.7687
 20
52.2351
 30
0.0
  0
VERTEX
  5
1121
  8
0
 62
     2
 10
-189.76861
 20
52.2351
 30
0.0
  0
VERTEX
  5
1122
  8
0
 62
     2
 10
-189.58614
 20
52.22788
 30
0.0
  0
VERTEX
  5
1123
  8
0
 62
     2
 10
-189.4054
 20
52.2013
 30
0.0
  0
VERTEX
  5
1124
  8
0
 62
     2
 10
-189.25545
 20
52.16172
 30
0.0
  0
VERTEX
  5
1125
  8
0
 62
     2
 10
-189.2554
 20
52.1617
 30
0.0
  0
VERTEX
  5
1126
  8
0
 62
     2
 10
-189.11026
 20
52.10693
 30
0.0
  0
VERTEX
  5
1127
  8
0
 62
     2
 10
-189.1102
 20
52.1069
 30
0.0
  0
VERTEX
  5
1128
  8
0
 62
     2
 10
-189.11016
 20
52.10688
 30
0.0
  0
VERTEX
  5
1129
  8
0
 62
     2
 10
-189.0509
 20
52.0799
 30
0.0
  0
VERTEX
  5
112A
  8
0
 62
     2
 10
-188.99257
 20
52.05114
 30
0.0
  0
VERTEX
  5
112B
  8
0
 62
     2
 10
-188.9925
 20
52.0511
 30
0.0
  0
VERTEX
  5
112C
  8
0
 62
     2
 10
-188.99248
 20
52.05109
 30
0.0
  0
VERTEX
  5
112D
  8
0
 62
     2
 10
-188.9347
 20
52.0206
 30
0.0
  0
VERTEX
  5
112E
  8
0
 62
     2
 10
-188.93469
 20
52.0206
 30
0.0
  0
VERTEX
  5
112F
  8
0
 62
     2
 10
-188.8775
 20
51.9889
 30
0.0
  0
VERTEX
  5
1130
  8
0
 62
     2
 10
-188.87748
 20
51.98889
 30
0.0
  0
VERTEX
  5
1131
  8
0
 62
     2
 10
-188.8207
 20
51.956
 30
0.0
  0
VERTEX
  5
1132
  8
0
 62
     2
 10
-188.76446
 20
51.92234
 30
0.0
  0
VERTEX
  5
1133
  8
0
 62
     2
 10
-188.7644
 20
51.9223
 30
0.0
  0
VERTEX
  5
1134
  8
0
 62
     2
 10
-188.7643
 20
51.92224
 30
0.0
  0
VERTEX
  5
1135
  8
0
 62
     2
 10
-188.7082
 20
51.888
 30
0.0
  0
VERTEX
  5
1136
  8
0
 62
     2
 10
-188.70813
 20
51.88796
 30
0.0
  0
VERTEX
  5
1137
  8
0
 62
     2
 10
-188.6521
 20
51.8534
 30
0.0
  0
SEQEND
  5
156B
  8
0
 62
     2
  0
POLYLINE
  5
679
  8
0
 62
     2
 66
     1
 10
0.0
 20
0.0
 30
0.0
  0
VERTEX
  5
1139
  8
0
 62
     2
 10
-177.0419
 20
49.742
 30
0.0
  0
VERTEX
  5
113A
  8
0
 62
     2
 10
-177.02323
 20
49.80678
 30
0.0
  0
VERTEX
  5
113B
  8
0
 62
     2
 10
-177.0232
 20
49.8069
 30
0.0
  0
VERTEX
  5
113C
  8
0
 62
     2
 10
-177.0044
 20
49.8717
 30
0.0
  0
VERTEX
  5
113D
  8
0
 62
     2
 10
-177.00439
 20
49.87174
 30
0.0
  0
VERTEX
  5
113E
  8
0
 62
     2
 10
-176.9854
 20
49.9364
 30
0.0
  0
VERTEX
  5
113F
  8
0
 62
     2
 10
-176.98538
 20
49.93646
 30
0.0
  0
VERTEX
  5
1140
  8
0
 62
     2
 10
-176.9659
 20
50.0009
 30
0.0
  0
VERTEX
  5
1141
  8
0
 62
     2
 10
-176.9659
 20
50.00091
 30
0.0
  0
VERTEX
  5
1142
  8
0
 62
     2
 10
-176.9458
 20
50.0652
 30
0.0
  0
VERTEX
  5
1143
  8
0
 62
     2
 10
-176.92501
 20
50.12927
 30
0.0
  0
VERTEX
  5
1144
  8
0
 62
     2
 10
-176.925
 20
50.1293
 30
0.0
  0
VERTEX
  5
1145
  8
0
 62
     2
 10
-176.90341
 20
50.19297
 30
0.0
  0
VERTEX
  5
1146
  8
0
 62
     2
 10
-176.9034
 20
50.193
 30
0.0
  0
VERTEX
  5
1147
  8
0
 62
     2
 10
-176.88073
 20
50.25623
 30
0.0
  0
VERTEX
  5
1148
  8
0
 62
     2
 10
-176.8807
 20
50.2563
 30
0.0
  0
VERTEX
  5
1149
  8
0
 62
     2
 10
-176.88068
 20
50.25636
 30
0.0
  0
VERTEX
  5
114A
  8
0
 62
     2
 10
-176.8569
 20
50.3192
 30
0.0
  0
VERTEX
  5
114B
  8
0
 62
     2
 10
-176.85688
 20
50.31925
 30
0.0
  0
VERTEX
  5
114C
  8
0
 62
     2
 10
-176.8319
 20
50.3817
 30
0.0
  0
VERTEX
  5
114D
  8
0
 62
     2
 10
-176.83187
 20
50.38177
 30
0.0
  0
VERTEX
  5
114E
  8
0
 62
     2
 10
-176.8068
 20
50.4406
 30
0.0
  0
VERTEX
  5
114F
  8
0
 62
     2
 10
-176.80679
 20
50.44062
 30
0.0
  0
VERTEX
  5
1150
  8
0
 62
     2
 10
-176.7804
 20
50.4989
 30
0.0
  0
VERTEX
  5
1151
  8
0
 62
     2
 10
-176.78036
 20
50.49899
 30
0.0
  0
VERTEX
  5
1152
  8
0
 62
     2
 10
-176.7528
 20
50.5567
 30
0.0
  0
VERTEX
  5
1153
  8
0
 62
     2
 10
-176.724
 20
50.614
 30
0.0
  0
VERTEX
  5
1154
  8
0
 62
     2
 10
-176.69401
 20
50.67069
 30
0.0
  0
VERTEX
  5
1155
  8
0
 62
     2
 10
-176.694
 20
50.6707
 30
0.0
  0
VERTEX
  5
1156
  8
0
 62
     2
 10
-176.69397
 20
50.67075
 30
0.0
  0
VERTEX
  5
1157
  8
0
 62
     2
 10
-176.663
 20
50.7269
 30
0.0
  0
VERTEX
  5
1158
  8
0
 62
     2
 10
-176.66295
 20
50.72698
 30
0.0
  0
VERTEX
  5
1159
  8
0
 62
     2
 10
-176.6309
 20
50.7825
 30
0.0
  0
VERTEX
  5
115A
  8
0
 62
     2
 10
-176.63083
 20
50.78262
 30
0.0
  0
VERTEX
  5
115B
  8
0
 62
     2
 10
-176.5977
 20
50.8375
 30
0.0
  0
VERTEX
  5
115C
  8
0
 62
     2
 10
-176.45272
 20
51.05437
 30
0.0
  0
VERTEX
  5
115D
  8
0
 62
     2
 10
-176.4527
 20
51.0544
 30
0.0
  0
VERTEX
  5
115E
  8
0
 62
     2
 10
-176.45264
 20
51.05449
 30
0.0
  0
VERTEX
  5
115F
  8
0
 62
     2
 10
-176.292
 20
51.26
 30
0.0
  0
VERTEX
  5
1160
  8
0
 62
     2
 10
-176.20533
 20
51.35817
 30
0.0
  0
VERTEX
  5
1161
  8
0
 62
     2
 10
-176.2053
 20
51.3582
 30
0.0
  0
VERTEX
  5
1162
  8
0
 62
     2
 10
-176.20521
 20
51.35829
 30
0.0
  0
VERTEX
  5
1163
  8
0
 62
     2
 10
-176.1146
 20
51.4528
 30
0.0
  0
VERTEX
  5
1164
  8
0
 62
     2
 10
-176.11458
 20
51.45282
 30
0.0
  0
VERTEX
  5
1165
  8
0
 62
     2
 10
-176.0355
 20
51.5288
 30
0.0
  0
VERTEX
  5
1166
  8
0
 62
     2
 10
-176.03548
 20
51.52882
 30
0.0
  0
VERTEX
  5
1167
  8
0
 62
     2
 10
-175.9536
 20
51.6019
 30
0.0
  0
VERTEX
  5
1168
  8
0
 62
     2
 10
-175.869
 20
51.6718
 30
0.0
  0
VERTEX
  5
1169
  8
0
 62
     2
 10
-175.86899
 20
51.67181
 30
0.0
  0
VERTEX
  5
116A
  8
0
 62
     2
 10
-175.7816
 20
51.7382
 30
0.0
  0
VERTEX
  5
116B
  8
0
 62
     2
 10
-175.78158
 20
51.73821
 30
0.0
  0
VERTEX
  5
116C
  8
0
 62
     2
 10
-175.6855
 20
51.805
 30
0.0
  0
VERTEX
  5
116D
  8
0
 62
     2
 10
-175.58651
 20
51.86739
 30
0.0
  0
VERTEX
  5
116E
  8
0
 62
     2
 10
-175.5865
 20
51.8674
 30
0.0
  0
VERTEX
  5
116F
  8
0
 62
     2
 10
-175.58648
 20
51.86741
 30
0.0
  0
VERTEX
  5
1170
  8
0
 62
     2
 10
-175.4782
 20
51.9287
 30
0.0
  0
VERTEX
  5
1171
  8
0
 62
     2
 10
-175.36703
 20
51.98458
 30
0.0
  0
VERTEX
  5
1172
  8
0
 62
     2
 10
-175.367
 20
51.9846
 30
0.0
  0
VERTEX
  5
1173
  8
0
 62
     2
 10
-175.2533
 20
52.03466
 30
0.0
  0
VERTEX
  5
1174
  8
0
 62
     2
 10
-175.2532
 20
52.0347
 30
0.0
  0
VERTEX
  5
1175
  8
0
 62
     2
 10
-175.13709
 20
52.07877
 30
0.0
  0
VERTEX
  5
1176
  8
0
 62
     2
 10
-175.137
 20
52.0788
 30
0.0
  0
VERTEX
  5
1177
  8
0
 62
     2
 10
-174.98501
 20
52.1263
 30
0.0
  0
VERTEX
  5
1178
  8
0
 62
     2
 10
-174.985
 20
52.1263
 30
0.0
  0
VERTEX
  5
1179
  8
0
 62
     2
 10
-174.83012
 20
52.1636
 30
0.0
  0
VERTEX
  5
117A
  8
0
 62
     2
 10
-174.8301
 20
52.1636
 30
0.0
  0
VERTEX
  5
117B
  8
0
 62
     2
 10
-174.49234
 20
52.2088
 30
0.0
  0
VERTEX
  5
117C
  8
0
 62
     2
 10
-174.4923
 20
52.2088
 30
0.0
  0
VERTEX
  5
117D
  8
0
 62
     2
 10
-174.49228
 20
52.2088
 30
0.0
  0
VERTEX
  5
117E
  8
0
 62
     2
 10
-174.1515
 20
52.2063
 30
0.0
  0
VERTEX
  5
117F
  8
0
 62
     2
 10
-174.15149
 20
52.2063
 30
0.0
  0
VERTEX
  5
1180
  8
0
 62
     2
 10
-173.9205
 20
52.1754
 30
0.0
  0
VERTEX
  5
1181
  8
0
 62
     2
 10
-173.92046
 20
52.17539
 30
0.0
  0
VERTEX
  5
1182
  8
0
 62
     2
 10
-173.694
 20
52.1206
 30
0.0
  0
VERTEX
  5
1183
  8
0
 62
     2
 10
-173.54442
 20
52.07111
 30
0.0
  0
VERTEX
  5
1184
  8
0
 62
     2
 10
-173.5444
 20
52.0711
 30
0.0
  0
VERTEX
  5
1185
  8
0
 62
     2
 10
-173.39834
 20
52.01192
 30
0.0
  0
VERTEX
  5
1186
  8
0
 62
     2
 10
-173.3983
 20
52.0119
 30
0.0
  0
VERTEX
  5
1187
  8
0
 62
     2
 10
-173.24961
 20
51.94011
 30
0.0
  0
VERTEX
  5
1188
  8
0
 62
     2
 10
-173.2496
 20
51.9401
 30
0.0
  0
VERTEX
  5
1189
  8
0
 62
     2
 10
-173.10609
 20
51.85875
 30
0.0
  0
VERTEX
  5
118A
  8
0
 62
     2
 10
-173.106
 20
51.8587
 30
0.0
  0
VERTEX
  5
118B
  8
0
 62
     2
 10
-173.10599
 20
51.85869
 30
0.0
  0
VERTEX
  5
118C
  8
0
 62
     2
 10
-173.0644
 20
51.8328
 30
0.0
  0
VERTEX
  5
118D
  8
0
 62
     2
 10
-173.0232
 20
51.8061
 30
0.0
  0
VERTEX
  5
118E
  8
0
 62
     2
 10
-172.98265
 20
51.77873
 30
0.0
  0
VERTEX
  5
118F
  8
0
 62
     2
 10
-172.9826
 20
51.7787
 30
0.0
  0
VERTEX
  5
1190
  8
0
 62
     2
 10
-172.98259
 20
51.77869
 30
0.0
  0
VERTEX
  5
1191
  8
0
 62
     2
 10
-172.9425
 20
51.7505
 30
0.0
  0
VERTEX
  5
1192
  8
0
 62
     2
 10
-172.94245
 20
51.75046
 30
0.0
  0
VERTEX
  5
1193
  8
0
 62
     2
 10
-172.9028
 20
51.7216
 30
0.0
  0
VERTEX
  5
1194
  8
0
 62
     2
 10
-172.8637
 20
51.692
 30
0.0
  0
VERTEX
  5
1195
  8
0
 62
     2
 10
-172.86367
 20
51.69198
 30
0.0
  0
VERTEX
  5
1196
  8
0
 62
     2
 10
-172.8251
 20
51.6618
 30
0.0
  0
VERTEX
  5
1197
  8
0
 62
     2
 10
-172.82507
 20
51.66177
 30
0.0
  0
VERTEX
  5
1198
  8
0
 62
     2
 10
-172.787
 20
51.6309
 30
0.0
  0
VERTEX
  5
1199
  8
0
 62
     2
 10
-172.62698
 20
51.48927
 30
0.0
  0
VERTEX
  5
119A
  8
0
 62
     2
 10
-172.6269
 20
51.4892
 30
0.0
  0
VERTEX
  5
119B
  8
0
 62
     2
 10
-172.4772
 20
51.3366
 30
0.0
  0
VERTEX
  5
119C
  8
0
 62
     2
 10
-172.47716
 20
51.33655
 30
0.0
  0
VERTEX
  5
119D
  8
0
 62
     2
 10
-172.4051
 20
51.254
 30
0.0
  0
VERTEX
  5
119E
  8
0
 62
     2
 10
-172.40507
 20
51.25397
 30
0.0
  0
VERTEX
  5
119F
  8
0
 62
     2
 10
-172.3363
 20
51.1686
 30
0.0
  0
VERTEX
  5
11A0
  8
0
 62
     2
 10
-172.31706
 20
51.14328
 30
0.0
  0
VERTEX
  5
11A1
  8
0
 62
     2
 10
-172.317
 20
51.1432
 30
0.0
  0
VERTEX
  5
11A2
  8
0
 62
     2
 10
-172.29796
 20
51.11768
 30
0.0
  0
VERTEX
  5
11A3
  8
0
 62
     2
 10
-172.2979
 20
51.1176
 30
0.0
  0
VERTEX
  5
11A4
  8
0
 62
     2
 10
-172.27913
 20
51.09184
 30
0.0
  0
VERTEX
  5
11A5
  8
0
 62
     2
 10
-172.2791
 20
51.0918
 30
0.0
  0
VERTEX
  5
11A6
  8
0
 62
     2
 10
-172.27908
 20
51.09177
 30
0.0
  0
VERTEX
  5
11A7
  8
0
 62
     2
 10
-172.2605
 20
51.0659
 30
0.0
  0
VERTEX
  5
11A8
  8
0
 62
     2
 10
-172.24215
 20
51.03987
 30
0.0
  0
VERTEX
  5
11A9
  8
0
 62
     2
 10
-172.2421
 20
51.0398
 30
0.0
  0
VERTEX
  5
11AA
  8
0
 62
     2
 10
-172.2239
 20
51.0136
 30
0.0
  0
VERTEX
  5
11AB
  8
0
 62
     2
 10
-172.20581
 20
50.98732
 30
0.0
  0
VERTEX
  5
11AC
  8
0
 62
     2
 10
-172.2058
 20
50.9873
 30
0.0
  0
VERTEX
  5
11AD
  8
0
 62
     2
 10
-172.1878
 20
50.9609
 30
0.0
  0
VERTEX
  5
11AE
  8
0
 62
     2
 10
-172.1698
 20
50.9345
 30
0.0
  0
VERTEX
  5
11AF
  8
0
 62
     2
 10
-172.16979
 20
50.93448
 30
0.0
  0
VERTEX
  5
11B0
  8
0
 62
     2
 10
-172.1519
 20
50.908
 30
0.0
  0
SEQEND
  5
156C
  8
0
 62
     2
  0
POLYLINE
  5
6F3
  8
0
 62
     2
 66
     1
 10
0.0
 20
0.0
 30
0.0
  0
VERTEX
  5
11B2
  8
0
 62
     2
 10
-177.0419
 20
49.742
 30
0.0
  0
VERTEX
  5
11B3
  8
0
 62
     2
 10
-177.05637
 20
49.80798
 30
0.0
  0
VERTEX
  5
11B4
  8
0
 62
     2
 10
-177.0564
 20
49.8081
 30
0.0
  0
VERTEX
  5
11B5
  8
0
 62
     2
 10
-177.071
 20
49.8741
 30
0.0
  0
VERTEX
  5
11B6
  8
0
 62
     2
 10
-177.07101
 20
49.87413
 30
0.0
  0
VERTEX
  5
11B7
  8
0
 62
     2
 10
-177.0859
 20
49.94
 30
0.0
  0
VERTEX
  5
11B8
  8
0
 62
     2
 10
-177.08591
 20
49.94003
 30
0.0
  0
VERTEX
  5
11B9
  8
0
 62
     2
 10
-177.1012
 20
50.0059
 30
0.0
  0
VERTEX
  5
11BA
  8
0
 62
     2
 10
-177.10121
 20
50.00593
 30
0.0
  0
VERTEX
  5
11BB
  8
0
 62
     2
 10
-177.1171
 20
50.0716
 30
0.0
  0
VERTEX
  5
11BC
  8
0
 62
     2
 10
-177.11711
 20
50.07162
 30
0.0
  0
VERTEX
  5
11BD
  8
0
 62
     2
 10
-177.1336
 20
50.1371
 30
0.0
  0
VERTEX
  5
11BE
  8
0
 62
     2
 10
-177.15077
 20
50.2022
 30
0.0
  0
VERTEX
  5
11BF
  8
0
 62
     2
 10
-177.1508
 20
50.2023
 30
0.0
  0
VERTEX
  5
11C0
  8
0
 62
     2
 10
-177.169
 20
50.26719
 30
0.0
  0
VERTEX
  5
11C1
  8
0
 62
     2
 10
-177.169
 20
50.2672
 30
0.0
  0
VERTEX
  5
11C2
  8
0
 62
     2
 10
-177.18827
 20
50.3318
 30
0.0
  0
VERTEX
  5
11C3
  8
0
 62
     2
 10
-177.1883
 20
50.3319
 30
0.0
  0
VERTEX
  5
11C4
  8
0
 62
     2
 10
-177.20867
 20
50.39612
 30
0.0
  0
VERTEX
  5
11C5
  8
0
 62
     2
 10
-177.2087
 20
50.3962
 30
0.0
  0
VERTEX
  5
11C6
  8
0
 62
     2
 10
-177.22429
 20
50.44247
 30
0.0
  0
VERTEX
  5
11C7
  8
0
 62
     2
 10
-177.2243
 20
50.4425
 30
0.0
  0
VERTEX
  5
11C8
  8
0
 62
     2
 10
-177.2406
 20
50.48859
 30
0.0
  0
VERTEX
  5
11C9
  8
0
 62
     2
 10
-177.2406
 20
50.4886
 30
0.0
  0
VERTEX
  5
11CA
  8
0
 62
     2
 10
-177.25758
 20
50.53446
 30
0.0
  0
VERTEX
  5
11CB
  8
0
 62
     2
 10
-177.2576
 20
50.5345
 30
0.0
  0
VERTEX
  5
11CC
  8
0
 62
     2
 10
-177.27515
 20
50.57997
 30
0.0
  0
VERTEX
  5
11CD
  8
0
 62
     2
 10
-177.2752
 20
50.5801
 30
0.0
  0
VERTEX
  5
11CE
  8
0
 62
     2
 10
-177.29338
 20
50.62555
 30
0.0
  0
VERTEX
  5
11CF
  8
0
 62
     2
 10
-177.2934
 20
50.6256
 30
0.0
  0
VERTEX
  5
11D0
  8
0
 62
     2
 10
-177.29341
 20
50.62563
 30
0.0
  0
VERTEX
  5
11D1
  8
0
 62
     2
 10
-177.3122
 20
50.6708
 30
0.0
  0
VERTEX
  5
11D2
  8
0
 62
     2
 10
-177.33169
 20
50.71567
 30
0.0
  0
VERTEX
  5
11D3
  8
0
 62
     2
 10
-177.3317
 20
50.7157
 30
0.0
  0
VERTEX
  5
11D4
  8
0
 62
     2
 10
-177.3317
 20
50.71571
 30
0.0
  0
VERTEX
  5
11D5
  8
0
 62
     2
 10
-177.3517
 20
50.7604
 30
0.0
  0
VERTEX
  5
11D6
  8
0
 62
     2
 10
-177.35173
 20
50.76048
 30
0.0
  0
VERTEX
  5
11D7
  8
0
 62
     2
 10
-177.3988
 20
50.8602
 30
0.0
  0
VERTEX
  5
11D8
  8
0
 62
     2
 10
-177.4488
 20
50.95869
 30
0.0
  0
VERTEX
  5
11D9
  8
0
 62
     2
 10
-177.4488
 20
50.9587
 30
0.0
  0
VERTEX
  5
11DA
  8
0
 62
     2
 10
-177.44884
 20
50.95877
 30
0.0
  0
VERTEX
  5
11DB
  8
0
 62
     2
 10
-177.4778
 20
51.0128
 30
0.0
  0
VERTEX
  5
11DC
  8
0
 62
     2
 10
-177.50767
 20
51.06634
 30
0.0
  0
VERTEX
  5
11DD
  8
0
 62
     2
 10
-177.5077
 20
51.0664
 30
0.0
  0
VERTEX
  5
11DE
  8
0
 62
     2
 10
-177.50777
 20
51.06653
 30
0.0
  0
VERTEX
  5
11DF
  8
0
 62
     2
 10
-177.5385
 20
51.1194
 30
0.0
  0
VERTEX
  5
11E0
  8
0
 62
     2
 10
-177.53853
 20
51.11944
 30
0.0
  0
VERTEX
  5
11E1
  8
0
 62
     2
 10
-177.5703
 20
51.1719
 30
0.0
  0
VERTEX
  5
11E2
  8
0
 62
     2
 10
-177.57032
 20
51.17193
 30
0.0
  0
VERTEX
  5
11E3
  8
0
 62
     2
 10
-177.6031
 20
51.2238
 30
0.0
  0
VERTEX
  5
11E4
  8
0
 62
     2
 10
-177.63687
 20
51.27496
 30
0.0
  0
VERTEX
  5
11E5
  8
0
 62
     2
 10
-177.6369
 20
51.275
 30
0.0
  0
VERTEX
  5
11E6
  8
0
 62
     2
 10
-177.67169
 20
51.32559
 30
0.0
  0
VERTEX
  5
11E7
  8
0
 62
     2
 10
-177.6717
 20
51.3256
 30
0.0
  0
VERTEX
  5
11E8
  8
0
 62
     2
 10
-177.67172
 20
51.32563
 30
0.0
  0
VERTEX
  5
11E9
  8
0
 62
     2
 10
-177.7076
 20
51.3754
 30
0.0
  0
VERTEX
  5
11EA
  8
0
 62
     2
 10
-177.70762
 20
51.37543
 30
0.0
  0
VERTEX
  5
11EB
  8
0
 62
     2
 10
-177.7464
 20
51.4269
 30
0.0
  0
VERTEX
  5
11EC
  8
0
 62
     2
 10
-177.74645
 20
51.42697
 30
0.0
  0
VERTEX
  5
11ED
  8
0
 62
     2
 10
-177.7863
 20
51.4776
 30
0.0
  0
VERTEX
  5
11EE
  8
0
 62
     2
 10
-177.78634
 20
51.47765
 30
0.0
  0
VERTEX
  5
11EF
  8
0
 62
     2
 10
-177.8274
 20
51.5273
 30
0.0
  0
VERTEX
  5
11F0
  8
0
 62
     2
 10
-177.82744
 20
51.52734
 30
0.0
  0
VERTEX
  5
11F1
  8
0
 62
     2
 10
-177.8698
 20
51.5759
 30
0.0
  0
VERTEX
  5
11F2
  8
0
 62
     2
 10
-177.91337
 20
51.62337
 30
0.0
  0
VERTEX
  5
11F3
  8
0
 62
     2
 10
-177.9134
 20
51.6234
 30
0.0
  0
VERTEX
  5
11F4
  8
0
 62
     2
 10
-177.91346
 20
51.62346
 30
0.0
  0
VERTEX
  5
11F5
  8
0
 62
     2
 10
-177.9583
 20
51.6698
 30
0.0
  0
VERTEX
  5
11F6
  8
0
 62
     2
 10
-178.00434
 20
51.71494
 30
0.0
  0
VERTEX
  5
11F7
  8
0
 62
     2
 10
-178.0044
 20
51.715
 30
0.0
  0
VERTEX
  5
11F8
  8
0
 62
     2
 10
-178.05178
 20
51.75878
 30
0.0
  0
VERTEX
  5
11F9
  8
0
 62
     2
 10
-178.0518
 20
51.7588
 30
0.0
  0
VERTEX
  5
11FA
  8
0
 62
     2
 10
-178.1005
 20
51.8012
 30
0.0
  0
VERTEX
  5
11FB
  8
0
 62
     2
 10
-178.15037
 20
51.84218
 30
0.0
  0
VERTEX
  5
11FC
  8
0
 62
     2
 10
-178.1504
 20
51.8422
 30
0.0
  0
VERTEX
  5
11FD
  8
0
 62
     2
 10
-178.19976
 20
51.88027
 30
0.0
  0
VERTEX
  5
11FE
  8
0
 62
     2
 10
-178.1998
 20
51.8803
 30
0.0
  0
VERTEX
  5
11FF
  8
0
 62
     2
 10
-178.25017
 20
51.91671
 30
0.0
  0
VERTEX
  5
1200
  8
0
 62
     2
 10
-178.2503
 20
51.9168
 30
0.0
  0
VERTEX
  5
1201
  8
0
 62
     2
 10
-178.25037
 20
51.91685
 30
0.0
  0
VERTEX
  5
1202
  8
0
 62
     2
 10
-178.302
 20
51.9517
 30
0.0
  0
VERTEX
  5
1203
  8
0
 62
     2
 10
-178.35478
 20
51.98499
 30
0.0
  0
VERTEX
  5
1204
  8
0
 62
     2
 10
-178.3548
 20
51.985
 30
0.0
  0
VERTEX
  5
1205
  8
0
 62
     2
 10
-178.35486
 20
51.98504
 30
0.0
  0
VERTEX
  5
1206
  8
0
 62
     2
 10
-178.4087
 20
52.0164
 30
0.0
  0
VERTEX
  5
1207
  8
0
 62
     2
 10
-178.46359
 20
52.04589
 30
0.0
  0
VERTEX
  5
1208
  8
0
 62
     2
 10
-178.4636
 20
52.0459
 30
0.0
  0
VERTEX
  5
1209
  8
0
 62
     2
 10
-178.46363
 20
52.04592
 30
0.0
  0
VERTEX
  5
120A
  8
0
 62
     2
 10
-178.5195
 20
52.0734
 30
0.0
  0
VERTEX
  5
120B
  8
0
 62
     2
 10
-178.57617
 20
52.09875
 30
0.0
  0
VERTEX
  5
120C
  8
0
 62
     2
 10
-178.5763
 20
52.0988
 30
0.0
  0
VERTEX
  5
120D
  8
0
 62
     2
 10
-178.57637
 20
52.09883
 30
0.0
  0
VERTEX
  5
120E
  8
0
 62
     2
 10
-178.6341
 20
52.122
 30
0.0
  0
VERTEX
  5
120F
  8
0
 62
     2
 10
-178.69273
 20
52.14278
 30
0.0
  0
VERTEX
  5
1210
  8
0
 62
     2
 10
-178.6928
 20
52.1428
 30
0.0
  0
VERTEX
  5
1211
  8
0
 62
     2
 10
-178.83908
 20
52.1833
 30
0.0
  0
VERTEX
  5
1212
  8
0
 62
     2
 10
-178.8391
 20
52.1833
 30
0.0
  0
VERTEX
  5
1213
  8
0
 62
     2
 10
-178.98858
 20
52.20879
 30
0.0
  0
VERTEX
  5
1214
  8
0
 62
     2
 10
-178.9887
 20
52.2088
 30
0.0
  0
VERTEX
  5
1215
  8
0
 62
     2
 10
-179.039
 20
52.2138
 30
0.0
  0
VERTEX
  5
1216
  8
0
 62
     2
 10
-179.08946
 20
52.2169
 30
0.0
  0
VERTEX
  5
1217
  8
0
 62
     2
 10
-179.0895
 20
52.2169
 30
0.0
  0
VERTEX
  5
1218
  8
0
 62
     2
 10
-179.24957
 20
52.2147
 30
0.0
  0
VERTEX
  5
1219
  8
0
 62
     2
 10
-179.2496
 20
52.2147
 30
0.0
  0
VERTEX
  5
121A
  8
0
 62
     2
 10
-179.24974
 20
52.21469
 30
0.0
  0
VERTEX
  5
121B
  8
0
 62
     2
 10
-179.4085
 20
52.1943
 30
0.0
  0
VERTEX
  5
121C
  8
0
 62
     2
 10
-179.4623
 20
52.1833
 30
0.0
  0
VERTEX
  5
121D
  8
0
 62
     2
 10
-179.51568
 20
52.1704
 30
0.0
  0
VERTEX
  5
121E
  8
0
 62
     2
 10
-179.5157
 20
52.1704
 30
0.0
  0
VERTEX
  5
121F
  8
0
 62
     2
 10
-179.51572
 20
52.1704
 30
0.0
  0
VERTEX
  5
1220
  8
0
 62
     2
 10
-179.5686
 20
52.1556
 30
0.0
  0
VERTEX
  5
1221
  8
0
 62
     2
 10
-179.5687
 20
52.15557
 30
0.0
  0
VERTEX
  5
1222
  8
0
 62
     2
 10
-179.621
 20
52.1389
 30
0.0
  0
VERTEX
  5
1223
  8
0
 62
     2
 10
-179.77754
 20
52.0768
 30
0.0
  0
VERTEX
  5
1224
  8
0
 62
     2
 10
-179.92682
 20
51.99905
 30
0.0
  0
VERTEX
  5
1225
  8
0
 62
     2
 10
-179.9269
 20
51.999
 30
0.0
  0
VERTEX
  5
1226
  8
0
 62
     2
 10
-180.06749
 20
51.9063
 30
0.0
  0
VERTEX
  5
1227
  8
0
 62
     2
 10
-180.19785
 20
51.79974
 30
0.0
  0
VERTEX
  5
1228
  8
0
 62
     2
 10
-180.19783
 20
51.79976
 30
0.0
  0
VERTEX
  5
1229
  8
0
 62
     2
 10
-180.1979
 20
51.7997
 30
0.0
  0
VERTEX
  5
122A
  8
0
 62
     2
 10
-180.19795
 20
51.79965
 30
0.0
  0
VERTEX
  5
122B
  8
0
 62
     2
 10
-180.2412
 20
51.7603
 30
0.0
  0
VERTEX
  5
122C
  8
0
 62
     2
 10
-180.2843
 20
51.7206
 30
0.0
  0
VERTEX
  5
122D
  8
0
 62
     2
 10
-180.32696
 20
51.68023
 30
0.0
  0
VERTEX
  5
122E
  8
0
 62
     2
 10
-180.327
 20
51.6802
 30
0.0
  0
VERTEX
  5
122F
  8
0
 62
     2
 10
-180.36855
 20
51.63875
 30
0.0
  0
VERTEX
  5
1230
  8
0
 62
     2
 10
-180.3686
 20
51.6387
 30
0.0
  0
VERTEX
  5
1231
  8
0
 62
     2
 10
-180.36865
 20
51.63865
 30
0.0
  0
VERTEX
  5
1232
  8
0
 62
     2
 10
-180.4103
 20
51.5971
 30
0.0
  0
VERTEX
  5
1233
  8
0
 62
     2
 10
-180.4104
 20
51.597
 30
0.0
  0
VERTEX
  5
1234
  8
0
 62
     2
 10
-180.4519
 20
51.5553
 30
0.0
  0
SEQEND
  5
156D
  8
0
 62
     2
  0
POLYLINE
  5
778
  8
0
 62
     2
 66
     1
 10
0.0
 20
0.0
 30
0.0
  0
VERTEX
  5
1236
  8
0
 62
     2
 10
-175.2749
 20
49.5564
 30
0.0
  0
VERTEX
  5
1237
  8
0
 62
     2
 10
-175.26403
 20
49.59998
 30
0.0
  0
VERTEX
  5
1238
  8
0
 62
     2
 10
-175.264
 20
49.6001
 30
0.0
  0
VERTEX
  5
1239
  8
0
 62
     2
 10
-175.25311
 20
49.64368
 30
0.0
  0
VERTEX
  5
123A
  8
0
 62
     2
 10
-175.2531
 20
49.6437
 30
0.0
  0
VERTEX
  5
123B
  8
0
 62
     2
 10
-175.24191
 20
49.68725
 30
0.0
  0
VERTEX
  5
123C
  8
0
 62
     2
 10
-175.2419
 20
49.6873
 30
0.0
  0
VERTEX
  5
123D
  8
0
 62
     2
 10
-175.24189
 20
49.68734
 30
0.0
  0
VERTEX
  5
123E
  8
0
 62
     2
 10
-175.2305
 20
49.7308
 30
0.0
  0
VERTEX
  5
123F
  8
0
 62
     2
 10
-175.21882
 20
49.77412
 30
0.0
  0
VERTEX
  5
1240
  8
0
 62
     2
 10
-175.2188
 20
49.7742
 30
0.0
  0
VERTEX
  5
1241
  8
0
 62
     2
 10
-175.20661
 20
49.81735
 30
0.0
  0
VERTEX
  5
1242
  8
0
 62
     2
 10
-175.2066
 20
49.8174
 30
0.0
  0
VERTEX
  5
1243
  8
0
 62
     2
 10
-175.19383
 20
49.86029
 30
0.0
  0
VERTEX
  5
1244
  8
0
 62
     2
 10
-175.1938
 20
49.8604
 30
0.0
  0
VERTEX
  5
1245
  8
0
 62
     2
 10
-175.18044
 20
49.90309
 30
0.0
  0
VERTEX
  5
1246
  8
0
 62
     2
 10
-175.1804
 20
49.9032
 30
0.0
  0
VERTEX
  5
1247
  8
0
 62
     2
 10
-175.18039
 20
49.90323
 30
0.0
  0
VERTEX
  5
1248
  8
0
 62
     2
 10
-175.1663
 20
49.9458
 30
0.0
  0
VERTEX
  5
1249
  8
0
 62
     2
 10
-175.15142
 20
49.98803
 30
0.0
  0
VERTEX
  5
124A
  8
0
 62
     2
 10
-175.1514
 20
49.9881
 30
0.0
  0
VERTEX
  5
124B
  8
0
 62
     2
 10
-175.15139
 20
49.98813
 30
0.0
  0
VERTEX
  5
124C
  8
0
 62
     2
 10
-175.1333
 20
50.036
 30
0.0
  0
VERTEX
  5
124D
  8
0
 62
     2
 10
-175.13328
 20
50.03605
 30
0.0
  0
VERTEX
  5
124E
  8
0
 62
     2
 10
-175.1141
 20
50.0835
 30
0.0
  0
VERTEX
  5
124F
  8
0
 62
     2
 10
-175.11404
 20
50.08365
 30
0.0
  0
VERTEX
  5
1250
  8
0
 62
     2
 10
-175.0936
 20
50.1305
 30
0.0
  0
VERTEX
  5
1251
  8
0
 62
     2
 10
-175.09359
 20
50.13052
 30
0.0
  0
VERTEX
  5
1252
  8
0
 62
     2
 10
-175.0718
 20
50.177
 30
0.0
  0
VERTEX
  5
1253
  8
0
 62
     2
 10
-175.04872
 20
50.22286
 30
0.0
  0
VERTEX
  5
1254
  8
0
 62
     2
 10
-175.0487
 20
50.2229
 30
0.0
  0
VERTEX
  5
1255
  8
0
 62
     2
 10
-175.02443
 20
50.26814
 30
0.0
  0
VERTEX
  5
1256
  8
0
 62
     2
 10
-175.0244
 20
50.2682
 30
0.0
  0
VERTEX
  5
1257
  8
0
 62
     2
 10
-174.9987
 20
50.3128
 30
0.0
  0
VERTEX
  5
1258
  8
0
 62
     2
 10
-174.97162
 20
50.35658
 30
0.0
  0
VERTEX
  5
1259
  8
0
 62
     2
 10
-174.9716
 20
50.3566
 30
0.0
  0
VERTEX
  5
125A
  8
0
 62
     2
 10
-174.94313
 20
50.39976
 30
0.0
  0
VERTEX
  5
125B
  8
0
 62
     2
 10
-174.9431
 20
50.3998
 30
0.0
  0
VERTEX
  5
125C
  8
0
 62
     2
 10
-174.91338
 20
50.44189
 30
0.0
  0
VERTEX
  5
125D
  8
0
 62
     2
 10
-174.9133
 20
50.442
 30
0.0
  0
VERTEX
  5
125E
  8
0
 62
     2
 10
-174.91329
 20
50.44201
 30
0.0
  0
VERTEX
  5
125F
  8
0
 62
     2
 10
-174.8884
 20
50.475
 30
0.0
  0
VERTEX
  5
1260
  8
0
 62
     2
 10
-174.86264
 20
50.50715
 30
0.0
  0
VERTEX
  5
1261
  8
0
 62
     2
 10
-174.8626
 20
50.5072
 30
0.0
  0
VERTEX
  5
1262
  8
0
 62
     2
 10
-174.83581
 20
50.53849
 30
0.0
  0
VERTEX
  5
1263
  8
0
 62
     2
 10
-174.8358
 20
50.5385
 30
0.0
  0
VERTEX
  5
1264
  8
0
 62
     2
 10
-174.80783
 20
50.56877
 30
0.0
  0
VERTEX
  5
1265
  8
0
 62
     2
 10
-174.8078
 20
50.5688
 30
0.0
  0
VERTEX
  5
1266
  8
0
 62
     2
 10
-174.7787
 20
50.5977
 30
0.0
  0
VERTEX
  5
1267
  8
0
 62
     2
 10
-174.77858
 20
50.59781
 30
0.0
  0
VERTEX
  5
1268
  8
0
 62
     2
 10
-174.7482
 20
50.6253
 30
0.0
  0
VERTEX
  5
1269
  8
0
 62
     2
 10
-174.74818
 20
50.62532
 30
0.0
  0
VERTEX
  5
126A
  8
0
 62
     2
 10
-174.7165
 20
50.6512
 30
0.0
  0
VERTEX
  5
126B
  8
0
 62
     2
 10
-174.68343
 20
50.67528
 30
0.0
  0
VERTEX
  5
126C
  8
0
 62
     2
 10
-174.6834
 20
50.6753
 30
0.0
  0
VERTEX
  5
126D
  8
0
 62
     2
 10
-174.64894
 20
50.69748
 30
0.0
  0
VERTEX
  5
126E
  8
0
 62
     2
 10
-174.6489
 20
50.6975
 30
0.0
  0
VERTEX
  5
126F
  8
0
 62
     2
 10
-174.61307
 20
50.71736
 30
0.0
  0
VERTEX
  5
1270
  8
0
 62
     2
 10
-174.613
 20
50.7174
 30
0.0
  0
VERTEX
  5
1271
  8
0
 62
     2
 10
-174.56123
 20
50.74096
 30
0.0
  0
VERTEX
  5
1272
  8
0
 62
     2
 10
-174.5075
 20
50.75967
 30
0.0
  0
VERTEX
  5
1273
  8
0
 62
     2
 10
-174.5074
 20
50.7597
 30
0.0
  0
VERTEX
  5
1274
  8
0
 62
     2
 10
-174.45221
 20
50.77331
 30
0.0
  0
VERTEX
  5
1275
  8
0
 62
     2
 10
-174.39596
 20
50.78179
 30
0.0
  0
VERTEX
  5
1276
  8
0
 62
     2
 10
-174.3959
 20
50.7818
 30
0.0
  0
VERTEX
  5
1277
  8
0
 62
     2
 10
-174.39581
 20
50.78181
 30
0.0
  0
VERTEX
  5
1278
  8
0
 62
     2
 10
-174.3583
 20
50.7843
 30
0.0
  0
VERTEX
  5
1279
  8
0
 62
     2
 10
-174.35821
 20
50.7843
 30
0.0
  0
VERTEX
  5
127A
  8
0
 62
     2
 10
-174.3206
 20
50.7841
 30
0.0
  0
VERTEX
  5
127B
  8
0
 62
     2
 10
-174.28332
 20
50.7812
 30
0.0
  0
VERTEX
  5
127C
  8
0
 62
     2
 10
-174.2833
 20
50.7812
 30
0.0
  0
VERTEX
  5
127D
  8
0
 62
     2
 10
-174.24653
 20
50.77552
 30
0.0
  0
VERTEX
  5
127E
  8
0
 62
     2
 10
-174.2464
 20
50.7755
 30
0.0
  0
VERTEX
  5
127F
  8
0
 62
     2
 10
-174.24636
 20
50.77549
 30
0.0
  0
VERTEX
  5
1280
  8
0
 62
     2
 10
-174.2147
 20
50.7682
 30
0.0
  0
VERTEX
  5
1281
  8
0
 62
     2
 10
-174.1836
 20
50.7588
 30
0.0
  0
VERTEX
  5
1282
  8
0
 62
     2
 10
-174.15315
 20
50.74746
 30
0.0
  0
VERTEX
  5
1283
  8
0
 62
     2
 10
-174.153
 20
50.7474
 30
0.0
  0
VERTEX
  5
1284
  8
0
 62
     2
 10
-174.1232
 20
50.7343
 30
0.0
  0
VERTEX
  5
1285
  8
0
 62
     2
 10
-174.09398
 20
50.71954
 30
0.0
  0
VERTEX
  5
1286
  8
0
 62
     2
 10
-174.0939
 20
50.7195
 30
0.0
  0
VERTEX
  5
1287
  8
0
 62
     2
 10
-174.09387
 20
50.71948
 30
0.0
  0
VERTEX
  5
1288
  8
0
 62
     2
 10
-174.0654
 20
50.7033
 30
0.0
  0
VERTEX
  5
1289
  8
0
 62
     2
 10
-174.06539
 20
50.70329
 30
0.0
  0
VERTEX
  5
128A
  8
0
 62
     2
 10
-174.0376
 20
50.6857
 30
0.0
  0
VERTEX
  5
128B
  8
0
 62
     2
 10
-174.0375
 20
50.68563
 30
0.0
  0
VERTEX
  5
128C
  8
0
 62
     2
 10
-174.0105
 20
50.6668
 30
0.0
  0
VERTEX
  5
128D
  8
0
 62
     2
 10
-173.98434
 20
50.64683
 30
0.0
  0
VERTEX
  5
128E
  8
0
 62
     2
 10
-173.9843
 20
50.6468
 30
0.0
  0
VERTEX
  5
128F
  8
0
 62
     2
 10
-173.95891
 20
50.62591
 30
0.0
  0
VERTEX
  5
1290
  8
0
 62
     2
 10
-173.9589
 20
50.6259
 30
0.0
  0
VERTEX
  5
1291
  8
0
 62
     2
 10
-173.93634
 20
50.60603
 30
0.0
  0
VERTEX
  5
1292
  8
0
 62
     2
 10
-173.9363
 20
50.606
 30
0.0
  0
VERTEX
  5
1293
  8
0
 62
     2
 10
-173.91444
 20
50.58544
 30
0.0
  0
VERTEX
  5
1294
  8
0
 62
     2
 10
-173.9144
 20
50.5854
 30
0.0
  0
VERTEX
  5
1295
  8
0
 62
     2
 10
-173.91435
 20
50.58535
 30
0.0
  0
VERTEX
  5
1296
  8
0
 62
     2
 10
-173.8932
 20
50.5643
 30
0.0
  0
VERTEX
  5
1297
  8
0
 62
     2
 10
-173.89311
 20
50.56421
 30
0.0
  0
VERTEX
  5
1298
  8
0
 62
     2
 10
-173.8726
 20
50.5425
 30
0.0
  0
VERTEX
  5
1299
  8
0
 62
     2
 10
-173.85272
 20
50.52022
 30
0.0
  0
VERTEX
  5
129A
  8
0
 62
     2
 10
-173.8527
 20
50.5202
 30
0.0
  0
VERTEX
  5
129B
  8
0
 62
     2
 10
-173.83352
 20
50.49742
 30
0.0
  0
VERTEX
  5
129C
  8
0
 62
     2
 10
-173.8335
 20
50.4974
 30
0.0
  0
VERTEX
  5
129D
  8
0
 62
     2
 10
-173.81483
 20
50.47414
 30
0.0
  0
VERTEX
  5
129E
  8
0
 62
     2
 10
-173.8148
 20
50.4741
 30
0.0
  0
VERTEX
  5
129F
  8
0
 62
     2
 10
-173.79673
 20
50.45045
 30
0.0
  0
VERTEX
  5
12A0
  8
0
 62
     2
 10
-173.7967
 20
50.4504
 30
0.0
  0
VERTEX
  5
12A1
  8
0
 62
     2
 10
-173.77917
 20
50.4264
 30
0.0
  0
VERTEX
  5
12A2
  8
0
 62
     2
 10
-173.7791
 20
50.4263
 30
0.0
  0
VERTEX
  5
12A3
  8
0
 62
     2
 10
-173.7791
 20
50.42629
 30
0.0
  0
VERTEX
  5
12A4
  8
0
 62
     2
 10
-173.762
 20
50.4019
 30
0.0
  0
VERTEX
  5
12A5
  8
0
 62
     2
 10
-173.74283
 20
50.37315
 30
0.0
  0
VERTEX
  5
12A6
  8
0
 62
     2
 10
-173.7428
 20
50.3731
 30
0.0
  0
VERTEX
  5
12A7
  8
0
 62
     2
 10
-173.74276
 20
50.37304
 30
0.0
  0
VERTEX
  5
12A8
  8
0
 62
     2
 10
-173.7243
 20
50.3438
 30
0.0
  0
VERTEX
  5
12A9
  8
0
 62
     2
 10
-173.70633
 20
50.31426
 30
0.0
  0
VERTEX
  5
12AA
  8
0
 62
     2
 10
-173.7063
 20
50.3142
 30
0.0
  0
VERTEX
  5
12AB
  8
0
 62
     2
 10
-173.68901
 20
50.28422
 30
0.0
  0
VERTEX
  5
12AC
  8
0
 62
     2
 10
-173.689
 20
50.2842
 30
0.0
  0
VERTEX
  5
12AD
  8
0
 62
     2
 10
-173.68897
 20
50.28415
 30
0.0
  0
VERTEX
  5
12AE
  8
0
 62
     2
 10
-173.6723
 20
50.2539
 30
0.0
  0
VERTEX
  5
12AF
  8
0
 62
     2
 10
-173.67225
 20
50.25381
 30
0.0
  0
VERTEX
  5
12B0
  8
0
 62
     2
 10
-173.6561
 20
50.2232
 30
0.0
  0
VERTEX
  5
12B1
  8
0
 62
     2
 10
-173.64042
 20
50.19224
 30
0.0
  0
VERTEX
  5
12B2
  8
0
 62
     2
 10
-173.6404
 20
50.1922
 30
0.0
  0
VERTEX
  5
12B3
  8
0
 62
     2
 10
-173.62532
 20
50.16104
 30
0.0
  0
VERTEX
  5
12B4
  8
0
 62
     2
 10
-173.6253
 20
50.161
 30
0.0
  0
VERTEX
  5
12B5
  8
0
 62
     2
 10
-173.6107
 20
50.12951
 30
0.0
  0
VERTEX
  5
12B6
  8
0
 62
     2
 10
-173.6107
 20
50.1295
 30
0.0
  0
VERTEX
  5
12B7
  8
0
 62
     2
 10
-173.61069
 20
50.12947
 30
0.0
  0
VERTEX
  5
12B8
  8
0
 62
     2
 10
-173.5966
 20
50.0978
 30
0.0
  0
VERTEX
  5
12B9
  8
0
 62
     2
 10
-173.59656
 20
50.0977
 30
0.0
  0
VERTEX
  5
12BA
  8
0
 62
     2
 10
-173.5686
 20
50.0309
 30
0.0
  0
VERTEX
  5
12BB
  8
0
 62
     2
 10
-173.56859
 20
50.03088
 30
0.0
  0
VERTEX
  5
12BC
  8
0
 62
     2
 10
-173.5427
 20
49.9631
 30
0.0
  0
VERTEX
  5
12BD
  8
0
 62
     2
 10
-173.54267
 20
49.96303
 30
0.0
  0
VERTEX
  5
12BE
  8
0
 62
     2
 10
-173.5188
 20
49.8946
 30
0.0
  0
VERTEX
  5
12BF
  8
0
 62
     2
 10
-173.51879
 20
49.89456
 30
0.0
  0
VERTEX
  5
12C0
  8
0
 62
     2
 10
-173.4969
 20
49.8255
 30
0.0
  0
VERTEX
  5
12C1
  8
0
 62
     2
 10
-173.49688
 20
49.82545
 30
0.0
  0
VERTEX
  5
12C2
  8
0
 62
     2
 10
-173.4867
 20
49.7907
 30
0.0
  0
VERTEX
  5
12C3
  8
0
 62
     2
 10
-173.48668
 20
49.79062
 30
0.0
  0
VERTEX
  5
12C4
  8
0
 62
     2
 10
-173.477
 20
49.7557
 30
0.0
  0
VERTEX
  5
12C5
  8
0
 62
     2
 10
-173.472
 20
49.7369
 30
0.0
  0
VERTEX
  5
12C6
  8
0
 62
     2
 10
-173.47199
 20
49.73688
 30
0.0
  0
VERTEX
  5
12C7
  8
0
 62
     2
 10
-173.4671
 20
49.7181
 30
0.0
  0
VERTEX
  5
12C8
  8
0
 62
     2
 10
-173.46242
 20
49.69927
 30
0.0
  0
VERTEX
  5
12C9
  8
0
 62
     2
 10
-173.4624
 20
49.6992
 30
0.0
  0
VERTEX
  5
12CA
  8
0
 62
     2
 10
-173.45772
 20
49.68037
 30
0.0
  0
VERTEX
  5
12CB
  8
0
 62
     2
 10
-173.4577
 20
49.6803
 30
0.0
  0
VERTEX
  5
12CC
  8
0
 62
     2
 10
-173.45312
 20
49.66149
 30
0.0
  0
VERTEX
  5
12CD
  8
0
 62
     2
 10
-173.4531
 20
49.6614
 30
0.0
  0
VERTEX
  5
12CE
  8
0
 62
     2
 10
-173.44862
 20
49.64257
 30
0.0
  0
VERTEX
  5
12CF
  8
0
 62
     2
 10
-173.4486
 20
49.6425
 30
0.0
  0
VERTEX
  5
12D0
  8
0
 62
     2
 10
-173.44411
 20
49.62352
 30
0.0
  0
VERTEX
  5
12D1
  8
0
 62
     2
 10
-173.4441
 20
49.6235
 30
0.0
  0
VERTEX
  5
12D2
  8
0
 62
     2
 10
-173.4397
 20
49.6045
 30
0.0
  0
VERTEX
  5
12D3
  8
0
 62
     2
 10
-173.43968
 20
49.60441
 30
0.0
  0
VERTEX
  5
12D4
  8
0
 62
     2
 10
-173.4353
 20
49.5856
 30
0.0
  0
VERTEX
  5
12D5
  8
0
 62
     2
 10
-173.431
 20
49.56662
 30
0.0
  0
VERTEX
  5
12D6
  8
0
 62
     2
 10
-173.431
 20
49.5666
 30
0.0
  0
SEQEND
  5
156E
  8
0
 62
     2
  0
POLYLINE
  5
81B
  8
0
 62
     2
 66
     1
 10
0.0
 20
0.0
 30
0.0
  0
VERTEX
  5
12D8
  8
0
 62
     2
 10
-180.4519
 20
46.0195
 30
0.0
  0
VERTEX
  5
12D9
  8
0
 62
     2
 10
-180.41365
 20
45.98075
 30
0.0
  0
VERTEX
  5
12DA
  8
0
 62
     2
 10
-180.4136
 20
45.9807
 30
0.0
  0
VERTEX
  5
12DB
  8
0
 62
     2
 10
-180.37515
 20
45.94215
 30
0.0
  0
VERTEX
  5
12DC
  8
0
 62
     2
 10
-180.3751
 20
45.9421
 30
0.0
  0
VERTEX
  5
12DD
  8
0
 62
     2
 10
-180.3364
 20
45.9038
 30
0.0
  0
VERTEX
  5
12DE
  8
0
 62
     2
 10
-180.2974
 20
45.8658
 30
0.0
  0
VERTEX
  5
12DF
  8
0
 62
     2
 10
-180.29736
 20
45.86576
 30
0.0
  0
VERTEX
  5
12E0
  8
0
 62
     2
 10
-180.258
 20
45.8285
 30
0.0
  0
VERTEX
  5
12E1
  8
0
 62
     2
 10
-180.21791
 20
45.79181
 30
0.0
  0
VERTEX
  5
12E2
  8
0
 62
     2
 10
-180.2179
 20
45.7918
 30
0.0
  0
VERTEX
  5
12E3
  8
0
 62
     2
 10
-180.17728
 20
45.75607
 30
0.0
  0
VERTEX
  5
12E4
  8
0
 62
     2
 10
-180.1772
 20
45.756
 30
0.0
  0
VERTEX
  5
12E5
  8
0
 62
     2
 10
-180.1358
 20
45.72128
 30
0.0
  0
VERTEX
  5
12E6
  8
0
 62
     2
 10
-180.1357
 20
45.7212
 30
0.0
  0
VERTEX
  5
12E7
  8
0
 62
     2
 10
-180.09338
 20
45.68766
 30
0.0
  0
VERTEX
  5
12E8
  8
0
 62
     2
 10
-180.0933
 20
45.6876
 30
0.0
  0
VERTEX
  5
12E9
  8
0
 62
     2
 10
-180.09322
 20
45.68754
 30
0.0
  0
VERTEX
  5
12EA
  8
0
 62
     2
 10
-180.0499
 20
45.6553
 30
0.0
  0
VERTEX
  5
12EB
  8
0
 62
     2
 10
-179.89848
 20
45.55853
 30
0.0
  0
VERTEX
  5
12EC
  8
0
 62
     2
 10
-179.73708
 20
45.47953
 30
0.0
  0
VERTEX
  5
12ED
  8
0
 62
     2
 10
-179.737
 20
45.4795
 30
0.0
  0
VERTEX
  5
12EE
  8
0
 62
     2
 10
-179.56771
 20
45.41922
 30
0.0
  0
VERTEX
  5
12EF
  8
0
 62
     2
 10
-179.3927
 20
45.3785
 30
0.0
  0
VERTEX
  5
12F0
  8
0
 62
     2
 10
-179.32726
 20
45.36871
 30
0.0
  0
VERTEX
  5
12F1
  8
0
 62
     2
 10
-179.3272
 20
45.3687
 30
0.0
  0
VERTEX
  5
12F2
  8
0
 62
     2
 10
-179.32715
 20
45.36869
 30
0.0
  0
VERTEX
  5
12F3
  8
0
 62
     2
 10
-179.2613
 20
45.362
 30
0.0
  0
VERTEX
  5
12F4
  8
0
 62
     2
 10
-179.26122
 20
45.36199
 30
0.0
  0
VERTEX
  5
12F5
  8
0
 62
     2
 10
-179.1953
 20
45.3582
 30
0.0
  0
VERTEX
  5
12F6
  8
0
 62
     2
 10
-179.12928
 20
45.3573
 30
0.0
  0
VERTEX
  5
12F7
  8
0
 62
     2
 10
-179.1292
 20
45.3573
 30
0.0
  0
VERTEX
  5
12F8
  8
0
 62
     2
 10
-178.92211
 20
45.37458
 30
0.0
  0
VERTEX
  5
12F9
  8
0
 62
     2
 10
-178.922
 20
45.3746
 30
0.0
  0
VERTEX
  5
12FA
  8
0
 62
     2
 10
-178.7199
 20
45.4232
 30
0.0
  0
VERTEX
  5
12FB
  8
0
 62
     2
 10
-178.67503
 20
45.43819
 30
0.0
  0
VERTEX
  5
12FC
  8
0
 62
     2
 10
-178.675
 20
45.4382
 30
0.0
  0
VERTEX
  5
12FD
  8
0
 62
     2
 10
-178.67495
 20
45.43822
 30
0.0
  0
VERTEX
  5
12FE
  8
0
 62
     2
 10
-178.6304
 20
45.4542
 30
0.0
  0
VERTEX
  5
12FF
  8
0
 62
     2
 10
-178.58635
 20
45.47148
 30
0.0
  0
VERTEX
  5
1300
  8
0
 62
     2
 10
-178.5863
 20
45.4715
 30
0.0
  0
VERTEX
  5
1301
  8
0
 62
     2
 10
-178.58626
 20
45.47152
 30
0.0
  0
VERTEX
  5
1302
  8
0
 62
     2
 10
-178.5429
 20
45.4905
 30
0.0
  0
VERTEX
  5
1303
  8
0
 62
     2
 10
-178.54281
 20
45.49054
 30
0.0
  0
VERTEX
  5
1304
  8
0
 62
     2
 10
-178.4972
 20
45.5121
 30
0.0
  0
VERTEX
  5
1305
  8
0
 62
     2
 10
-178.452
 20
45.5347
 30
0.0
  0
VERTEX
  5
1306
  8
0
 62
     2
 10
-178.45199
 20
45.53471
 30
0.0
  0
VERTEX
  5
1307
  8
0
 62
     2
 10
-178.4075
 20
45.5586
 30
0.0
  0
VERTEX
  5
1308
  8
0
 62
     2
 10
-178.36399
 20
45.58404
 30
0.0
  0
VERTEX
  5
1309
  8
0
 62
     2
 10
-178.3639
 20
45.5841
 30
0.0
  0
VERTEX
  5
130A
  8
0
 62
     2
 10
-178.36386
 20
45.58412
 30
0.0
  0
VERTEX
  5
130B
  8
0
 62
     2
 10
-178.321
 20
45.6109
 30
0.0
  0
VERTEX
  5
130C
  8
0
 62
     2
 10
-178.27869
 20
45.63834
 30
0.0
  0
VERTEX
  5
130D
  8
0
 62
     2
 10
-178.2786
 20
45.6384
 30
0.0
  0
VERTEX
  5
130E
  8
0
 62
     2
 10
-178.27852
 20
45.63845
 30
0.0
  0
VERTEX
  5
130F
  8
0
 62
     2
 10
-178.237
 20
45.6671
 30
0.0
  0
VERTEX
  5
1310
  8
0
 62
     2
 10
-178.19636
 20
45.69706
 30
0.0
  0
VERTEX
  5
1311
  8
0
 62
     2
 10
-178.1963
 20
45.6971
 30
0.0
  0
VERTEX
  5
1312
  8
0
 62
     2
 10
-178.15641
 20
45.72809
 30
0.0
  0
VERTEX
  5
1313
  8
0
 62
     2
 10
-178.1564
 20
45.7281
 30
0.0
  0
VERTEX
  5
1314
  8
0
 62
     2
 10
-178.11707
 20
45.75964
 30
0.0
  0
VERTEX
  5
1315
  8
0
 62
     2
 10
-178.117
 20
45.7597
 30
0.0
  0
VERTEX
  5
1316
  8
0
 62
     2
 10
-178.0748
 20
45.7954
 30
0.0
  0
VERTEX
  5
1317
  8
0
 62
     2
 10
-178.03402
 20
45.83229
 30
0.0
  0
VERTEX
  5
1318
  8
0
 62
     2
 10
-178.0339
 20
45.8324
 30
0.0
  0
VERTEX
  5
1319
  8
0
 62
     2
 10
-178.03389
 20
45.83241
 30
0.0
  0
VERTEX
  5
131A
  8
0
 62
     2
 10
-177.9939
 20
45.8704
 30
0.0
  0
VERTEX
  5
131B
  8
0
 62
     2
 10
-177.95445
 20
45.90895
 30
0.0
  0
VERTEX
  5
131C
  8
0
 62
     2
 10
-177.9544
 20
45.909
 30
0.0
  0
VERTEX
  5
131D
  8
0
 62
     2
 10
-177.95436
 20
45.90904
 30
0.0
  0
VERTEX
  5
131E
  8
0
 62
     2
 10
-177.9159
 20
45.9486
 30
0.0
  0
VERTEX
  5
131F
  8
0
 62
     2
 10
-177.87863
 20
45.98927
 30
0.0
  0
VERTEX
  5
1320
  8
0
 62
     2
 10
-177.8786
 20
45.9893
 30
0.0
  0
VERTEX
  5
1321
  8
0
 62
     2
 10
-177.84226
 20
46.03073
 30
0.0
  0
VERTEX
  5
1322
  8
0
 62
     2
 10
-177.8422
 20
46.0308
 30
0.0
  0
VERTEX
  5
1323
  8
0
 62
     2
 10
-177.80646
 20
46.07262
 30
0.0
  0
VERTEX
  5
1324
  8
0
 62
     2
 10
-177.8064
 20
46.0727
 30
0.0
  0
VERTEX
  5
1325
  8
0
 62
     2
 10
-177.7714
 20
46.1154
 30
0.0
  0
VERTEX
  5
1326
  8
0
 62
     2
 10
-177.73775
 20
46.15903
 30
0.0
  0
VERTEX
  5
1327
  8
0
 62
     2
 10
-177.7377
 20
46.1591
 30
0.0
  0
VERTEX
  5
1328
  8
0
 62
     2
 10
-177.70144
 20
46.20815
 30
0.0
  0
VERTEX
  5
1329
  8
0
 62
     2
 10
-177.7014
 20
46.2082
 30
0.0
  0
VERTEX
  5
132A
  8
0
 62
     2
 10
-177.66587
 20
46.2576
 30
0.0
  0
VERTEX
  5
132B
  8
0
 62
     2
 10
-177.6658
 20
46.2577
 30
0.0
  0
VERTEX
  5
132C
  8
0
 62
     2
 10
-177.66576
 20
46.25776
 30
0.0
  0
VERTEX
  5
132D
  8
0
 62
     2
 10
-177.6311
 20
46.3079
 30
0.0
  0
VERTEX
  5
132E
  8
0
 62
     2
 10
-177.5979
 20
46.35909
 30
0.0
  0
VERTEX
  5
132F
  8
0
 62
     2
 10
-177.5979
 20
46.3591
 30
0.0
  0
VERTEX
  5
1330
  8
0
 62
     2
 10
-177.56561
 20
46.41089
 30
0.0
  0
VERTEX
  5
1331
  8
0
 62
     2
 10
-177.5656
 20
46.4109
 30
0.0
  0
VERTEX
  5
1332
  8
0
 62
     2
 10
-177.56556
 20
46.41096
 30
0.0
  0
VERTEX
  5
1333
  8
0
 62
     2
 10
-177.5339
 20
46.463
 30
0.0
  0
VERTEX
  5
1334
  8
0
 62
     2
 10
-177.53388
 20
46.46304
 30
0.0
  0
VERTEX
  5
1335
  8
0
 62
     2
 10
-177.5031
 20
46.5157
 30
0.0
  0
VERTEX
  5
1336
  8
0
 62
     2
 10
-177.50309
 20
46.51572
 30
0.0
  0
VERTEX
  5
1337
  8
0
 62
     2
 10
-177.4737
 20
46.5692
 30
0.0
  0
VERTEX
  5
1338
  8
0
 62
     2
 10
-177.44522
 20
46.62317
 30
0.0
  0
VERTEX
  5
1339
  8
0
 62
     2
 10
-177.4452
 20
46.6232
 30
0.0
  0
VERTEX
  5
133A
  8
0
 62
     2
 10
-177.41712
 20
46.67736
 30
0.0
  0
VERTEX
  5
133B
  8
0
 62
     2
 10
-177.4171
 20
46.6774
 30
0.0
  0
VERTEX
  5
133C
  8
0
 62
     2
 10
-177.33933
 20
46.83972
 30
0.0
  0
VERTEX
  5
133D
  8
0
 62
     2
 10
-177.3393
 20
46.8398
 30
0.0
  0
VERTEX
  5
133E
  8
0
 62
     2
 10
-177.27065
 20
47.00608
 30
0.0
  0
VERTEX
  5
133F
  8
0
 62
     2
 10
-177.2706
 20
47.0062
 30
0.0
  0
VERTEX
  5
1340
  8
0
 62
     2
 10
-177.21094
 20
47.17279
 30
0.0
  0
VERTEX
  5
1341
  8
0
 62
     2
 10
-177.2109
 20
47.1729
 30
0.0
  0
VERTEX
  5
1342
  8
0
 62
     2
 10
-177.158
 20
47.3418
 30
0.0
  0
VERTEX
  5
1343
  8
0
 62
     2
 10
-177.14251
 20
47.39675
 30
0.0
  0
VERTEX
  5
1344
  8
0
 62
     2
 10
-177.1425
 20
47.3968
 30
0.0
  0
VERTEX
  5
1345
  8
0
 62
     2
 10
-177.14249
 20
47.39683
 30
0.0
  0
VERTEX
  5
1346
  8
0
 62
     2
 10
-177.128
 20
47.4521
 30
0.0
  0
VERTEX
  5
1347
  8
0
 62
     2
 10
-177.11392
 20
47.50753
 30
0.0
  0
VERTEX
  5
1348
  8
0
 62
     2
 10
-177.1139
 20
47.5076
 30
0.0
  0
VERTEX
  5
1349
  8
0
 62
     2
 10
-177.10002
 20
47.56303
 30
0.0
  0
VERTEX
  5
134A
  8
0
 62
     2
 10
-177.1
 20
47.5631
 30
0.0
  0
VERTEX
  5
134B
  8
0
 62
     2
 10
-177.09999
 20
47.56315
 30
0.0
  0
VERTEX
  5
134C
  8
0
 62
     2
 10
-177.0864
 20
47.6187
 30
0.0
  0
VERTEX
  5
134D
  8
0
 62
     2
 10
-177.07351
 20
47.67437
 30
0.0
  0
VERTEX
  5
134E
  8
0
 62
     2
 10
-177.0735
 20
47.6744
 30
0.0
  0
VERTEX
  5
134F
  8
0
 62
     2
 10
-177.07347
 20
47.67452
 30
0.0
  0
VERTEX
  5
1350
  8
0
 62
     2
 10
-177.0606
 20
47.7301
 30
0.0
  0
VERTEX
  5
1351
  8
0
 62
     2
 10
-177.06059
 20
47.73012
 30
0.0
  0
VERTEX
  5
1352
  8
0
 62
     2
 10
-177.0477
 20
47.7859
 30
0.0
  0
SEQEND
  5
156F
  8
0
 62
     2
  0
POLYLINE
  5
898
  8
0
 62
     2
 66
     1
 10
0.0
 20
0.0
 30
0.0
  0
VERTEX
  5
1354
  8
0
 62
     2
 10
-177.0411
 20
47.8201
 30
0.0
  0
VERTEX
  5
1355
  8
0
 62
     2
 10
-177.0289
 20
47.7765
 30
0.0
  0
VERTEX
  5
1356
  8
0
 62
     2
 10
-177.01661
 20
47.73293
 30
0.0
  0
VERTEX
  5
1357
  8
0
 62
     2
 10
-177.0166
 20
47.7329
 30
0.0
  0
VERTEX
  5
1358
  8
0
 62
     2
 10
-177.01659
 20
47.73286
 30
0.0
  0
VERTEX
  5
1359
  8
0
 62
     2
 10
-177.0042
 20
47.6894
 30
0.0
  0
VERTEX
  5
135A
  8
0
 62
     2
 10
-177.00418
 20
47.68933
 30
0.0
  0
VERTEX
  5
135B
  8
0
 62
     2
 10
-176.9917
 20
47.6459
 30
0.0
  0
VERTEX
  5
135C
  8
0
 62
     2
 10
-176.97892
 20
47.60255
 30
0.0
  0
VERTEX
  5
135D
  8
0
 62
     2
 10
-176.9789
 20
47.6025
 30
0.0
  0
VERTEX
  5
135E
  8
0
 62
     2
 10
-176.97889
 20
47.60246
 30
0.0
  0
VERTEX
  5
135F
  8
0
 62
     2
 10
-176.9657
 20
47.5592
 30
0.0
  0
VERTEX
  5
1360
  8
0
 62
     2
 10
-176.9657
 20
47.55919
 30
0.0
  0
VERTEX
  5
1361
  8
0
 62
     2
 10
-176.9522
 20
47.5161
 30
0.0
  0
VERTEX
  5
1362
  8
0
 62
     2
 10
-176.93833
 20
47.47319
 30
0.0
  0
VERTEX
  5
1363
  8
0
 62
     2
 10
-176.9383
 20
47.4731
 30
0.0
  0
VERTEX
  5
1364
  8
0
 62
     2
 10
-176.93826
 20
47.47298
 30
0.0
  0
VERTEX
  5
1365
  8
0
 62
     2
 10
-176.9239
 20
47.4303
 30
0.0
  0
VERTEX
  5
1366
  8
0
 62
     2
 10
-176.92389
 20
47.43027
 30
0.0
  0
VERTEX
  5
1367
  8
0
 62
     2
 10
-176.9089
 20
47.3876
 30
0.0
  0
VERTEX
  5
1368
  8
0
 62
     2
 10
-176.89444
 20
47.3481
 30
0.0
  0
VERTEX
  5
1369
  8
0
 62
     2
 10
-176.8944
 20
47.348
 30
0.0
  0
VERTEX
  5
136A
  8
0
 62
     2
 10
-176.89436
 20
47.34789
 30
0.0
  0
VERTEX
  5
136B
  8
0
 62
     2
 10
-176.8794
 20
47.3086
 30
0.0
  0
VERTEX
  5
136C
  8
0
 62
     2
 10
-176.86394
 20
47.2695
 30
0.0
  0
VERTEX
  5
136D
  8
0
 62
     2
 10
-176.8639
 20
47.2694
 30
0.0
  0
VERTEX
  5
136E
  8
0
 62
     2
 10
-176.84793
 20
47.23047
 30
0.0
  0
VERTEX
  5
136F
  8
0
 62
     2
 10
-176.8479
 20
47.2304
 30
0.0
  0
VERTEX
  5
1370
  8
0
 62
     2
 10
-176.83141
 20
47.19152
 30
0.0
  0
VERTEX
  5
1371
  8
0
 62
     2
 10
-176.8314
 20
47.1915
 30
0.0
  0
VERTEX
  5
1372
  8
0
 62
     2
 10
-176.81455
 20
47.15301
 30
0.0
  0
VERTEX
  5
1373
  8
0
 62
     2
 10
-176.8145
 20
47.1529
 30
0.0
  0
VERTEX
  5
1374
  8
0
 62
     2
 10
-176.81446
 20
47.15281
 30
0.0
  0
VERTEX
  5
1375
  8
0
 62
     2
 10
-176.7971
 20
47.1145
 30
0.0
  0
VERTEX
  5
1376
  8
0
 62
     2
 10
-176.79708
 20
47.11446
 30
0.0
  0
VERTEX
  5
1377
  8
0
 62
     2
 10
-176.7792
 20
47.0762
 30
0.0
  0
VERTEX
  5
1378
  8
0
 62
     2
 10
-176.67895
 20
46.87979
 30
0.0
  0
VERTEX
  5
1379
  8
0
 62
     2
 10
-176.6789
 20
46.8797
 30
0.0
  0
VERTEX
  5
137A
  8
0
 62
     2
 10
-176.56722
 20
46.68943
 30
0.0
  0
VERTEX
  5
137B
  8
0
 62
     2
 10
-176.5672
 20
46.6894
 30
0.0
  0
VERTEX
  5
137C
  8
0
 62
     2
 10
-176.53511
 20
46.63931
 30
0.0
  0
VERTEX
  5
137D
  8
0
 62
     2
 10
-176.5351
 20
46.6393
 30
0.0
  0
VERTEX
  5
137E
  8
0
 62
     2
 10
-176.50213
 20
46.58995
 30
0.0
  0
VERTEX
  5
137F
  8
0
 62
     2
 10
-176.5021
 20
46.5899
 30
0.0
  0
VERTEX
  5
1380
  8
0
 62
     2
 10
-176.44537
 20
46.50909
 30
0.0
  0
VERTEX
  5
1381
  8
0
 62
     2
 10
-176.4453
 20
46.509
 30
0.0
  0
VERTEX
  5
1382
  8
0
 62
     2
 10
-176.38621
 20
46.42981
 30
0.0
  0
VERTEX
  5
1383
  8
0
 62
     2
 10
-176.3862
 20
46.4298
 30
0.0
  0
VERTEX
  5
1384
  8
0
 62
     2
 10
-176.38611
 20
46.42968
 30
0.0
  0
VERTEX
  5
1385
  8
0
 62
     2
 10
-176.2869
 20
46.3073
 30
0.0
  0
VERTEX
  5
1386
  8
0
 62
     2
 10
-176.18145
 20
46.19005
 30
0.0
  0
VERTEX
  5
1387
  8
0
 62
     2
 10
-176.1814
 20
46.19
 30
0.0
  0
VERTEX
  5
1388
  8
0
 62
     2
 10
-176.07175
 20
46.08004
 30
0.0
  0
VERTEX
  5
1389
  8
0
 62
     2
 10
-176.0717
 20
46.08
 30
0.0
  0
VERTEX
  5
138A
  8
0
 62
     2
 10
-175.95669
 20
45.97588
 30
0.0
  0
VERTEX
  5
138B
  8
0
 62
     2
 10
-175.9566
 20
45.9758
 30
0.0
  0
VERTEX
  5
138C
  8
0
 62
     2
 10
-175.87685
 20
45.90984
 30
0.0
  0
VERTEX
  5
138D
  8
0
 62
     2
 10
-175.8768
 20
45.9098
 30
0.0
  0
VERTEX
  5
138E
  8
0
 62
     2
 10
-175.79463
 20
45.84692
 30
0.0
  0
VERTEX
  5
138F
  8
0
 62
     2
 10
-175.7946
 20
45.8469
 30
0.0
  0
VERTEX
  5
1390
  8
0
 62
     2
 10
-175.79459
 20
45.84689
 30
0.0
  0
VERTEX
  5
1391
  8
0
 62
     2
 10
-175.7195
 20
45.7936
 30
0.0
  0
VERTEX
  5
1392
  8
0
 62
     2
 10
-175.71946
 20
45.79357
 30
0.0
  0
VERTEX
  5
1393
  8
0
 62
     2
 10
-175.6427
 20
45.7427
 30
0.0
  0
VERTEX
  5
1394
  8
0
 62
     2
 10
-175.5642
 20
45.69456
 30
0.0
  0
VERTEX
  5
1395
  8
0
 62
     2
 10
-175.5641
 20
45.6945
 30
0.0
  0
VERTEX
  5
1396
  8
0
 62
     2
 10
-175.48384
 20
45.64922
 30
0.0
  0
VERTEX
  5
1397
  8
0
 62
     2
 10
-175.4838
 20
45.6492
 30
0.0
  0
VERTEX
  5
1398
  8
0
 62
     2
 10
-175.48372
 20
45.64916
 30
0.0
  0
VERTEX
  5
1399
  8
0
 62
     2
 10
-175.3144
 20
45.5657
 30
0.0
  0
VERTEX
  5
139A
  8
0
 62
     2
 10
-175.31438
 20
45.56569
 30
0.0
  0
VERTEX
  5
139B
  8
0
 62
     2
 10
-175.1392
 20
45.495
 30
0.0
  0
VERTEX
  5
139C
  8
0
 62
     2
 10
-175.00342
 20
45.45061
 30
0.0
  0
VERTEX
  5
139D
  8
0
 62
     2
 10
-175.0034
 20
45.4506
 30
0.0
  0
VERTEX
  5
139E
  8
0
 62
     2
 10
-175.00338
 20
45.4506
 30
0.0
  0
VERTEX
  5
139F
  8
0
 62
     2
 10
-174.8651
 20
45.4147
 30
0.0
  0
VERTEX
  5
13A0
  8
0
 62
     2
 10
-174.54172
 20
45.36461
 30
0.0
  0
VERTEX
  5
13A1
  8
0
 62
     2
 10
-174.21451
 20
45.36014
 30
0.0
  0
VERTEX
  5
13A2
  8
0
 62
     2
 10
-173.88986
 20
45.40139
 30
0.0
  0
VERTEX
  5
13A3
  8
0
 62
     2
 10
-173.8898
 20
45.4014
 30
0.0
  0
VERTEX
  5
13A4
  8
0
 62
     2
 10
-173.57405
 20
45.48756
 30
0.0
  0
VERTEX
  5
13A5
  8
0
 62
     2
 10
-173.27342
 20
45.61694
 30
0.0
  0
VERTEX
  5
13A6
  8
0
 62
     2
 10
-172.9938
 20
45.787
 30
0.0
  0
VERTEX
  5
13A7
  8
0
 62
     2
 10
-172.91015
 20
45.84736
 30
0.0
  0
VERTEX
  5
13A8
  8
0
 62
     2
 10
-172.9101
 20
45.8474
 30
0.0
  0
VERTEX
  5
13A9
  8
0
 62
     2
 10
-172.8275
 20
45.9094
 30
0.0
  0
VERTEX
  5
13AA
  8
0
 62
     2
 10
-172.74725
 20
45.97436
 30
0.0
  0
VERTEX
  5
13AB
  8
0
 62
     2
 10
-172.7472
 20
45.9744
 30
0.0
  0
VERTEX
  5
13AC
  8
0
 62
     2
 10
-172.74714
 20
45.97445
 30
0.0
  0
VERTEX
  5
13AD
  8
0
 62
     2
 10
-172.6706
 20
46.0437
 30
0.0
  0
VERTEX
  5
13AE
  8
0
 62
     2
 10
-172.67059
 20
46.04371
 30
0.0
  0
VERTEX
  5
13AF
  8
0
 62
     2
 10
-172.5592
 20
46.1539
 30
0.0
  0
VERTEX
  5
13B0
  8
0
 62
     2
 10
-172.45155
 20
46.26755
 30
0.0
  0
VERTEX
  5
13B1
  8
0
 62
     2
 10
-172.4515
 20
46.2676
 30
0.0
  0
VERTEX
  5
13B2
  8
0
 62
     2
 10
-172.45149
 20
46.26761
 30
0.0
  0
VERTEX
  5
13B3
  8
0
 62
     2
 10
-172.349
 20
46.3873
 30
0.0
  0
VERTEX
  5
13B4
  8
0
 62
     2
 10
-172.2549
 20
46.5137
 30
0.0
  0
VERTEX
  5
13B5
  8
0
 62
     2
 10
-172.2549
 20
46.51371
 30
0.0
  0
VERTEX
  5
13B6
  8
0
 62
     2
 10
-172.1945
 20
46.6021
 30
0.0
  0
VERTEX
  5
13B7
  8
0
 62
     2
 10
-172.1353
 20
46.6913
 30
0.0
  0
VERTEX
  5
13B8
  8
0
 62
     2
 10
-172.13524
 20
46.69139
 30
0.0
  0
VERTEX
  5
13B9
  8
0
 62
     2
 10
-172.0788
 20
46.7822
 30
0.0
  0
VERTEX
  5
13BA
  8
0
 62
     2
 10
-172.07879
 20
46.78222
 30
0.0
  0
VERTEX
  5
13BB
  8
0
 62
     2
 10
-172.0268
 20
46.8758
 30
0.0
  0
VERTEX
  5
13BC
  8
0
 62
     2
 10
-172.02678
 20
46.87585
 30
0.0
  0
VERTEX
  5
13BD
  8
0
 62
     2
 10
-171.9759
 20
46.9744
 30
0.0
  0
VERTEX
  5
13BE
  8
0
 62
     2
 10
-171.92602
 20
47.07346
 30
0.0
  0
VERTEX
  5
13BF
  8
0
 62
     2
 10
-171.926
 20
47.0735
 30
0.0
  0
VERTEX
  5
13C0
  8
0
 62
     2
 10
-171.92596
 20
47.07357
 30
0.0
  0
VERTEX
  5
13C1
  8
0
 62
     2
 10
-171.9136
 20
47.0994
 30
0.0
  0
VERTEX
  5
13C2
  8
0
 62
     2
 10
-171.90192
 20
47.12554
 30
0.0
  0
VERTEX
  5
13C3
  8
0
 62
     2
 10
-171.9019
 20
47.1256
 30
0.0
  0
VERTEX
  5
13C4
  8
0
 62
     2
 10
-171.90188
 20
47.12564
 30
0.0
  0
VERTEX
  5
13C5
  8
0
 62
     2
 10
-171.8902
 20
47.1518
 30
0.0
  0
VERTEX
  5
13C6
  8
0
 62
     2
 10
-171.87872
 20
47.17805
 30
0.0
  0
VERTEX
  5
13C7
  8
0
 62
     2
 10
-171.8787
 20
47.1781
 30
0.0
  0
VERTEX
  5
13C8
  8
0
 62
     2
 10
-171.87867
 20
47.17817
 30
0.0
  0
VERTEX
  5
13C9
  8
0
 62
     2
 10
-171.8675
 20
47.2045
 30
0.0
  0
VERTEX
  5
13CA
  8
0
 62
     2
 10
-171.85651
 20
47.23099
 30
0.0
  0
VERTEX
  5
13CB
  8
0
 62
     2
 10
-171.8565
 20
47.231
 30
0.0
  0
VERTEX
  5
13CC
  8
0
 62
     2
 10
-171.84362
 20
47.26285
 30
0.0
  0
VERTEX
  5
13CD
  8
0
 62
     2
 10
-171.8436
 20
47.2629
 30
0.0
  0
VERTEX
  5
13CE
  8
0
 62
     2
 10
-171.83112
 20
47.29495
 30
0.0
  0
VERTEX
  5
13CF
  8
0
 62
     2
 10
-171.8311
 20
47.295
 30
0.0
  0
VERTEX
  5
13D0
  8
0
 62
     2
 10
-171.8189
 20
47.3272
 30
0.0
  0
VERTEX
  5
13D1
  8
0
 62
     2
 10
-171.81889
 20
47.32723
 30
0.0
  0
VERTEX
  5
13D2
  8
0
 62
     2
 10
-171.807
 20
47.3594
 30
0.0
  0
VERTEX
  5
13D3
  8
0
 62
     2
 10
-171.79523
 20
47.39161
 30
0.0
  0
VERTEX
  5
13D4
  8
0
 62
     2
 10
-171.7952
 20
47.3917
 30
0.0
  0
VERTEX
  5
13D5
  8
0
 62
     2
 10
-171.7836
 20
47.4241
 30
0.0
  0
VERTEX
  5
13D6
  8
0
 62
     2
 10
-171.77223
 20
47.45651
 30
0.0
  0
VERTEX
  5
13D7
  8
0
 62
     2
 10
-171.7722
 20
47.4566
 30
0.0
  0
VERTEX
  5
13D8
  8
0
 62
     2
 10
-171.76092
 20
47.48904
 30
0.0
  0
VERTEX
  5
13D9
  8
0
 62
     2
 10
-171.7609
 20
47.4891
 30
0.0
  0
VERTEX
  5
13DA
  8
0
 62
     2
 10
-171.76087
 20
47.48919
 30
0.0
  0
VERTEX
  5
13DB
  8
0
 62
     2
 10
-171.7497
 20
47.5216
 30
0.0
  0
VERTEX
  5
13DC
  8
0
 62
     2
 10
-171.7385
 20
47.5542
 30
0.0
  0
SEQEND
  5
1570
  8
0
 62
     2
  0
POLYLINE
  5
923
  8
0
 62
     2
 66
     1
 10
0.0
 20
0.0
 30
0.0
  0
VERTEX
  5
13DE
  8
0
 62
     2
 10
-175.3008
 20
48.1564
 30
0.0
  0
VERTEX
  5
13DF
  8
0
 62
     2
 10
-175.2942
 20
48.1224
 30
0.0
  0
VERTEX
  5
13E0
  8
0
 62
     2
 10
-175.28751
 20
48.08858
 30
0.0
  0
VERTEX
  5
13E1
  8
0
 62
     2
 10
-175.2875
 20
48.0885
 30
0.0
  0
VERTEX
  5
13E2
  8
0
 62
     2
 10
-175.28748
 20
48.0884
 30
0.0
  0
VERTEX
  5
13E3
  8
0
 62
     2
 10
-175.2807
 20
48.0546
 30
0.0
  0
VERTEX
  5
13E4
  8
0
 62
     2
 10
-175.28068
 20
48.05452
 30
0.0
  0
VERTEX
  5
13E5
  8
0
 62
     2
 10
-175.2738
 20
48.0207
 30
0.0
  0
VERTEX
  5
13E6
  8
0
 62
     2
 10
-175.2667
 20
47.98692
 30
0.0
  0
VERTEX
  5
13E7
  8
0
 62
     2
 10
-175.2667
 20
47.9869
 30
0.0
  0
VERTEX
  5
13E8
  8
0
 62
     2
 10
-175.2593
 20
47.9531
 30
0.0
  0
VERTEX
  5
13E9
  8
0
 62
     2
 10
-175.25929
 20
47.95305
 30
0.0
  0
VERTEX
  5
13EA
  8
0
 62
     2
 10
-175.2517
 20
47.9194
 30
0.0
  0
VERTEX
  5
13EB
  8
0
 62
     2
 10
-175.25168
 20
47.91933
 30
0.0
  0
VERTEX
  5
13EC
  8
0
 62
     2
 10
-175.2438
 20
47.8857
 30
0.0
  0
VERTEX
  5
13ED
  8
0
 62
     2
 10
-175.23551
 20
47.85212
 30
0.0
  0
VERTEX
  5
13EE
  8
0
 62
     2
 10
-175.2355
 20
47.8521
 30
0.0
  0
VERTEX
  5
13EF
  8
0
 62
     2
 10
-175.22671
 20
47.81875
 30
0.0
  0
VERTEX
  5
13F0
  8
0
 62
     2
 10
-175.2267
 20
47.8187
 30
0.0
  0
VERTEX
  5
13F1
  8
0
 62
     2
 10
-175.20531
 20
47.74364
 30
0.0
  0
VERTEX
  5
13F2
  8
0
 62
     2
 10
-175.2053
 20
47.7436
 30
0.0
  0
VERTEX
  5
13F3
  8
0
 62
     2
 10
-175.1816
 20
47.66921
 30
0.0
  0
VERTEX
  5
13F4
  8
0
 62
     2
 10
-175.1816
 20
47.6692
 30
0.0
  0
VERTEX
  5
13F5
  8
0
 62
     2
 10
-175.18157
 20
47.6691
 30
0.0
  0
VERTEX
  5
13F6
  8
0
 62
     2
 10
-175.1555
 20
47.5957
 30
0.0
  0
VERTEX
  5
13F7
  8
0
 62
     2
 10
-175.15549
 20
47.59568
 30
0.0
  0
VERTEX
  5
13F8
  8
0
 62
     2
 10
-175.1269
 20
47.523
 30
0.0
  0
VERTEX
  5
13F9
  8
0
 62
     2
 10
-175.10092
 20
47.46234
 30
0.0
  0
VERTEX
  5
13FA
  8
0
 62
     2
 10
-175.1009
 20
47.4623
 30
0.0
  0
VERTEX
  5
13FB
  8
0
 62
     2
 10
-175.10089
 20
47.46228
 30
0.0
  0
VERTEX
  5
13FC
  8
0
 62
     2
 10
-175.0731
 20
47.4025
 30
0.0
  0
VERTEX
  5
13FD
  8
0
 62
     2
 10
-175.07304
 20
47.40238
 30
0.0
  0
VERTEX
  5
13FE
  8
0
 62
     2
 10
-175.0612
 20
47.3783
 30
0.0
  0
VERTEX
  5
13FF
  8
0
 62
     2
 10
-175.049
 20
47.3542
 30
0.0
  0
VERTEX
  5
1400
  8
0
 62
     2
 10
-175.04898
 20
47.35416
 30
0.0
  0
VERTEX
  5
1401
  8
0
 62
     2
 10
-175.0365
 20
47.3303
 30
0.0
  0
VERTEX
  5
1402
  8
0
 62
     2
 10
-175.03648
 20
47.33026
 30
0.0
  0
VERTEX
  5
1403
  8
0
 62
     2
 10
-175.0236
 20
47.3066
 30
0.0
  0
VERTEX
  5
1404
  8
0
 62
     2
 10
-175.01041
 20
47.28311
 30
0.0
  0
VERTEX
  5
1405
  8
0
 62
     2
 10
-175.0104
 20
47.2831
 30
0.0
  0
VERTEX
  5
1406
  8
0
 62
     2
 10
-175.01034
 20
47.28299
 30
0.0
  0
VERTEX
  5
1407
  8
0
 62
     2
 10
-174.9969
 20
47.2597
 30
0.0
  0
VERTEX
  5
1408
  8
0
 62
     2
 10
-174.98315
 20
47.23659
 30
0.0
  0
VERTEX
  5
1409
  8
0
 62
     2
 10
-174.9831
 20
47.2365
 30
0.0
  0
VERTEX
  5
140A
  8
0
 62
     2
 10
-174.96891
 20
47.21362
 30
0.0
  0
VERTEX
  5
140B
  8
0
 62
     2
 10
-174.9689
 20
47.2136
 30
0.0
  0
VERTEX
  5
140C
  8
0
 62
     2
 10
-174.96888
 20
47.21357
 30
0.0
  0
VERTEX
  5
140D
  8
0
 62
     2
 10
-174.9477
 20
47.1807
 30
0.0
  0
VERTEX
  5
140E
  8
0
 62
     2
 10
-174.94769
 20
47.18068
 30
0.0
  0
VERTEX
  5
140F
  8
0
 62
     2
 10
-174.9257
 20
47.1484
 30
0.0
  0
VERTEX
  5
1410
  8
0
 62
     2
 10
-174.90283
 20
47.11674
 30
0.0
  0
VERTEX
  5
1411
  8
0
 62
     2
 10
-174.9028
 20
47.1167
 30
0.0
  0
VERTEX
  5
1412
  8
0
 62
     2
 10
-174.87894
 20
47.08585
 30
0.0
  0
VERTEX
  5
1413
  8
0
 62
     2
 10
-174.8789
 20
47.0858
 30
0.0
  0
VERTEX
  5
1414
  8
0
 62
     2
 10
-174.87886
 20
47.08575
 30
0.0
  0
VERTEX
  5
1415
  8
0
 62
     2
 10
-174.854
 20
47.0557
 30
0.0
  0
VERTEX
  5
1416
  8
0
 62
     2
 10
-174.82807
 20
47.02657
 30
0.0
  0
VERTEX
  5
1417
  8
0
 62
     2
 10
-174.828
 20
47.0265
 30
0.0
  0
VERTEX
  5
1418
  8
0
 62
     2
 10
-174.82799
 20
47.02649
 30
0.0
  0
VERTEX
  5
1419
  8
0
 62
     2
 10
-174.8008
 20
46.9983
 30
0.0
  0
VERTEX
  5
141A
  8
0
 62
     2
 10
-174.80076
 20
46.99827
 30
0.0
  0
VERTEX
  5
141B
  8
0
 62
     2
 10
-174.7723
 20
46.9713
 30
0.0
  0
VERTEX
  5
141C
  8
0
 62
     2
 10
-174.77219
 20
46.9712
 30
0.0
  0
VERTEX
  5
141D
  8
0
 62
     2
 10
-174.7424
 20
46.9455
 30
0.0
  0
VERTEX
  5
141E
  8
0
 62
     2
 10
-174.71123
 20
46.92123
 30
0.0
  0
VERTEX
  5
141F
  8
0
 62
     2
 10
-174.7112
 20
46.9212
 30
0.0
  0
VERTEX
  5
1420
  8
0
 62
     2
 10
-174.67615
 20
46.89673
 30
0.0
  0
VERTEX
  5
1421
  8
0
 62
     2
 10
-174.6761
 20
46.8967
 30
0.0
  0
VERTEX
  5
1422
  8
0
 62
     2
 10
-174.67609
 20
46.89669
 30
0.0
  0
VERTEX
  5
1423
  8
0
 62
     2
 10
-174.6397
 20
46.8743
 30
0.0
  0
VERTEX
  5
1424
  8
0
 62
     2
 10
-174.63966
 20
46.87428
 30
0.0
  0
VERTEX
  5
1425
  8
0
 62
     2
 10
-174.6019
 20
46.8539
 30
0.0
  0
VERTEX
  5
1426
  8
0
 62
     2
 10
-174.56293
 20
46.83571
 30
0.0
  0
VERTEX
  5
1427
  8
0
 62
     2
 10
-174.5629
 20
46.8357
 30
0.0
  0
VERTEX
  5
1428
  8
0
 62
     2
 10
-174.52318
 20
46.82023
 30
0.0
  0
VERTEX
  5
1429
  8
0
 62
     2
 10
-174.5231
 20
46.8202
 30
0.0
  0
VERTEX
  5
142A
  8
0
 62
     2
 10
-174.48249
 20
46.80752
 30
0.0
  0
VERTEX
  5
142B
  8
0
 62
     2
 10
-174.4824
 20
46.8075
 30
0.0
  0
VERTEX
  5
142C
  8
0
 62
     2
 10
-174.44144
 20
46.79781
 30
0.0
  0
VERTEX
  5
142D
  8
0
 62
     2
 10
-174.4414
 20
46.7978
 30
0.0
  0
VERTEX
  5
142E
  8
0
 62
     2
 10
-174.44137
 20
46.79779
 30
0.0
  0
VERTEX
  5
142F
  8
0
 62
     2
 10
-174.3998
 20
46.7913
 30
0.0
  0
VERTEX
  5
1430
  8
0
 62
     2
 10
-174.35826
 20
46.7882
 30
0.0
  0
VERTEX
  5
1431
  8
0
 62
     2
 10
-174.3582
 20
46.7882
 30
0.0
  0
VERTEX
  5
1432
  8
0
 62
     2
 10
-174.35813
 20
46.7882
 30
0.0
  0
VERTEX
  5
1433
  8
0
 62
     2
 10
-174.3165
 20
46.7889
 30
0.0
  0
VERTEX
  5
1434
  8
0
 62
     2
 10
-174.28382
 20
46.79208
 30
0.0
  0
VERTEX
  5
1435
  8
0
 62
     2
 10
-174.2837
 20
46.7921
 30
0.0
  0
VERTEX
  5
1436
  8
0
 62
     2
 10
-174.25131
 20
46.7977
 30
0.0
  0
VERTEX
  5
1437
  8
0
 62
     2
 10
-174.2513
 20
46.7977
 30
0.0
  0
VERTEX
  5
1438
  8
0
 62
     2
 10
-174.21911
 20
46.80537
 30
0.0
  0
VERTEX
  5
1439
  8
0
 62
     2
 10
-174.219
 20
46.8054
 30
0.0
  0
VERTEX
  5
143A
  8
0
 62
     2
 10
-174.21898
 20
46.80541
 30
0.0
  0
VERTEX
  5
143B
  8
0
 62
     2
 10
-174.1873
 20
46.8151
 30
0.0
  0
VERTEX
  5
143C
  8
0
 62
     2
 10
-174.15598
 20
46.82667
 30
0.0
  0
VERTEX
  5
143D
  8
0
 62
     2
 10
-174.1559
 20
46.8267
 30
0.0
  0
VERTEX
  5
143E
  8
0
 62
     2
 10
-174.15586
 20
46.82672
 30
0.0
  0
VERTEX
  5
143F
  8
0
 62
     2
 10
-174.1253
 20
46.8401
 30
0.0
  0
VERTEX
  5
1440
  8
0
 62
     2
 10
-174.09528
 20
46.85506
 30
0.0
  0
VERTEX
  5
1441
  8
0
 62
     2
 10
-174.0952
 20
46.8551
 30
0.0
  0
VERTEX
  5
1442
  8
0
 62
     2
 10
-174.06593
 20
46.87148
 30
0.0
  0
VERTEX
  5
1443
  8
0
 62
     2
 10
-174.0659
 20
46.8715
 30
0.0
  0
VERTEX
  5
1444
  8
0
 62
     2
 10
-174.03753
 20
46.88918
 30
0.0
  0
VERTEX
  5
1445
  8
0
 62
     2
 10
-174.0375
 20
46.8892
 30
0.0
  0
VERTEX
  5
1446
  8
0
 62
     2
 10
-174.00991
 20
46.90819
 30
0.0
  0
VERTEX
  5
1447
  8
0
 62
     2
 10
-174.0099
 20
46.9082
 30
0.0
  0
VERTEX
  5
1448
  8
0
 62
     2
 10
-174.00983
 20
46.90825
 30
0.0
  0
VERTEX
  5
1449
  8
0
 62
     2
 10
-173.9845
 20
46.9272
 30
0.0
  0
VERTEX
  5
144A
  8
0
 62
     2
 10
-173.98445
 20
46.92724
 30
0.0
  0
VERTEX
  5
144B
  8
0
 62
     2
 10
-173.9599
 20
46.9472
 30
0.0
  0
VERTEX
  5
144C
  8
0
 62
     2
 10
-173.93623
 20
46.96797
 30
0.0
  0
VERTEX
  5
144D
  8
0
 62
     2
 10
-173.9362
 20
46.968
 30
0.0
  0
VERTEX
  5
144E
  8
0
 62
     2
 10
-173.91334
 20
46.98956
 30
0.0
  0
VERTEX
  5
144F
  8
0
 62
     2
 10
-173.9133
 20
46.9896
 30
0.0
  0
VERTEX
  5
1450
  8
0
 62
     2
 10
-173.8912
 20
47.0119
 30
0.0
  0
VERTEX
  5
1451
  8
0
 62
     2
 10
-173.89116
 20
47.01194
 30
0.0
  0
VERTEX
  5
1452
  8
0
 62
     2
 10
-173.8697
 20
47.0349
 30
0.0
  0
VERTEX
  5
1453
  8
0
 62
     2
 10
-173.86967
 20
47.03494
 30
0.0
  0
VERTEX
  5
1454
  8
0
 62
     2
 10
-173.849
 20
47.0585
 30
0.0
  0
VERTEX
  5
1455
  8
0
 62
     2
 10
-173.84898
 20
47.05853
 30
0.0
  0
VERTEX
  5
1456
  8
0
 62
     2
 10
-173.8289
 20
47.0827
 30
0.0
  0
VERTEX
  5
1457
  8
0
 62
     2
 10
-173.82888
 20
47.08272
 30
0.0
  0
VERTEX
  5
1458
  8
0
 62
     2
 10
-173.8094
 20
47.1073
 30
0.0
  0
VERTEX
  5
1459
  8
0
 62
     2
 10
-173.80934
 20
47.10738
 30
0.0
  0
VERTEX
  5
145A
  8
0
 62
     2
 10
-173.7905
 20
47.1324
 30
0.0
  0
VERTEX
  5
145B
  8
0
 62
     2
 10
-173.75441
 20
47.18358
 30
0.0
  0
VERTEX
  5
145C
  8
0
 62
     2
 10
-173.7544
 20
47.1836
 30
0.0
  0
VERTEX
  5
145D
  8
0
 62
     2
 10
-173.72041
 20
47.23618
 30
0.0
  0
VERTEX
  5
145E
  8
0
 62
     2
 10
-173.7204
 20
47.2362
 30
0.0
  0
VERTEX
  5
145F
  8
0
 62
     2
 10
-173.72036
 20
47.23627
 30
0.0
  0
VERTEX
  5
1460
  8
0
 62
     2
 10
-173.6886
 20
47.2901
 30
0.0
  0
VERTEX
  5
1461
  8
0
 62
     2
 10
-173.68858
 20
47.29013
 30
0.0
  0
VERTEX
  5
1462
  8
0
 62
     2
 10
-173.6588
 20
47.3452
 30
0.0
  0
VERTEX
  5
1463
  8
0
 62
     2
 10
-173.6446
 20
47.3731
 30
0.0
  0
VERTEX
  5
1464
  8
0
 62
     2
 10
-173.63104
 20
47.40122
 30
0.0
  0
VERTEX
  5
1465
  8
0
 62
     2
 10
-173.631
 20
47.4013
 30
0.0
  0
VERTEX
  5
1466
  8
0
 62
     2
 10
-173.62384
 20
47.41652
 30
0.0
  0
VERTEX
  5
1467
  8
0
 62
     2
 10
-173.6238
 20
47.4166
 30
0.0
  0
VERTEX
  5
1468
  8
0
 62
     2
 10
-173.6168
 20
47.432
 30
0.0
  0
VERTEX
  5
1469
  8
0
 62
     2
 10
-173.61678
 20
47.43204
 30
0.0
  0
VERTEX
  5
146A
  8
0
 62
     2
 10
-173.6099
 20
47.4474
 30
0.0
  0
VERTEX
  5
146B
  8
0
 62
     2
 10
-173.60322
 20
47.46285
 30
0.0
  0
VERTEX
  5
146C
  8
0
 62
     2
 10
-173.6032
 20
47.4629
 30
0.0
  0
VERTEX
  5
146D
  8
0
 62
     2
 10
-173.60315
 20
47.46302
 30
0.0
  0
VERTEX
  5
146E
  8
0
 62
     2
 10
-173.5965
 20
47.4784
 30
0.0
  0
VERTEX
  5
146F
  8
0
 62
     2
 10
-173.59648
 20
47.47844
 30
0.0
  0
VERTEX
  5
1470
  8
0
 62
     2
 10
-173.5898
 20
47.494
 30
0.0
  0
VERTEX
  5
1471
  8
0
 62
     2
 10
-173.5832
 20
47.5096
 30
0.0
  0
VERTEX
  5
1472
  8
0
 62
     2
 10
-173.58319
 20
47.50964
 30
0.0
  0
VERTEX
  5
1473
  8
0
 62
     2
 10
-173.5767
 20
47.5252
 30
0.0
  0
VERTEX
  5
1474
  8
0
 62
     2
 10
-173.57021
 20
47.54076
 30
0.0
  0
VERTEX
  5
1475
  8
0
 62
     2
 10
-173.5702
 20
47.5408
 30
0.0
  0
VERTEX
  5
1476
  8
0
 62
     2
 10
-173.5638
 20
47.5564
 30
0.0
  0
SEQEND
  5
1571
  8
0
 62
     2
  0
POLYLINE
  5
9BE
  8
0
 62
     2
 66
     1
 10
0.0
 20
0.0
 30
0.0
  0
VERTEX
  5
1478
  8
0
 62
     2
 10
-171.5996
 20
48.1564
 30
0.0
  0
VERTEX
  5
1479
  8
0
 62
     2
 10
-171.5959
 20
48.18419
 30
0.0
  0
VERTEX
  5
147A
  8
0
 62
     2
 10
-171.5959
 20
48.1842
 30
0.0
  0
VERTEX
  5
147B
  8
0
 62
     2
 10
-171.59589
 20
48.1843
 30
0.0
  0
VERTEX
  5
147C
  8
0
 62
     2
 10
-171.5923
 20
48.2121
 30
0.0
  0
VERTEX
  5
147D
  8
0
 62
     2
 10
-171.5887
 20
48.2399
 30
0.0
  0
VERTEX
  5
147E
  8
0
 62
     2
 10
-171.5851
 20
48.2677
 30
0.0
  0
VERTEX
  5
147F
  8
0
 62
     2
 10
-171.5817
 20
48.2955
 30
0.0
  0
VERTEX
  5
1480
  8
0
 62
     2
 10
-171.58169
 20
48.29561
 30
0.0
  0
VERTEX
  5
1481
  8
0
 62
     2
 10
-171.5784
 20
48.3234
 30
0.0
  0
VERTEX
  5
1482
  8
0
 62
     2
 10
-171.57521
 20
48.3512
 30
0.0
  0
VERTEX
  5
1483
  8
0
 62
     2
 10
-171.5752
 20
48.3513
 30
0.0
  0
VERTEX
  5
1484
  8
0
 62
     2
 10
-171.57221
 20
48.3791
 30
0.0
  0
VERTEX
  5
1485
  8
0
 62
     2
 10
-171.5722
 20
48.3792
 30
0.0
  0
VERTEX
  5
1486
  8
0
 62
     2
 10
-171.56931
 20
48.40701
 30
0.0
  0
VERTEX
  5
1487
  8
0
 62
     2
 10
-171.5693
 20
48.4071
 30
0.0
  0
VERTEX
  5
1488
  8
0
 62
     2
 10
-171.56671
 20
48.4349
 30
0.0
  0
VERTEX
  5
1489
  8
0
 62
     2
 10
-171.5667
 20
48.435
 30
0.0
  0
VERTEX
  5
148A
  8
0
 62
     2
 10
-171.5667
 20
48.43503
 30
0.0
  0
VERTEX
  5
148B
  8
0
 62
     2
 10
-171.5634
 20
48.474
 30
0.0
  0
VERTEX
  5
148C
  8
0
 62
     2
 10
-171.5634
 20
48.47401
 30
0.0
  0
VERTEX
  5
148D
  8
0
 62
     2
 10
-171.5606
 20
48.513
 30
0.0
  0
VERTEX
  5
148E
  8
0
 62
     2
 10
-171.5582
 20
48.55201
 30
0.0
  0
VERTEX
  5
148F
  8
0
 62
     2
 10
-171.5582
 20
48.5521
 30
0.0
  0
VERTEX
  5
1490
  8
0
 62
     2
 10
-171.5562
 20
48.59111
 30
0.0
  0
VERTEX
  5
1491
  8
0
 62
     2
 10
-171.5562
 20
48.5912
 30
0.0
  0
VERTEX
  5
1492
  8
0
 62
     2
 10
-171.5546
 20
48.63021
 30
0.0
  0
VERTEX
  5
1493
  8
0
 62
     2
 10
-171.5546
 20
48.6303
 30
0.0
  0
VERTEX
  5
1494
  8
0
 62
     2
 10
-171.5534
 20
48.66931
 30
0.0
  0
VERTEX
  5
1495
  8
0
 62
     2
 10
-171.5534
 20
48.6694
 30
0.0
  0
VERTEX
  5
1496
  8
0
 62
     2
 10
-171.5534
 20
48.66941
 30
0.0
  0
VERTEX
  5
1497
  8
0
 62
     2
 10
-171.5527
 20
48.7086
 30
0.0
  0
VERTEX
  5
1498
  8
0
 62
     2
 10
-171.5523
 20
48.7478
 30
0.0
  0
VERTEX
  5
1499
  8
0
 62
     2
 10
-171.5523
 20
48.787
 30
0.0
  0
VERTEX
  5
149A
  8
0
 62
     2
 10
-171.5526
 20
48.826
 30
0.0
  0
VERTEX
  5
149B
  8
0
 62
     2
 10
-171.5526
 20
48.8261
 30
0.0
  0
VERTEX
  5
149C
  8
0
 62
     2
 10
-171.5526
 20
48.8262
 30
0.0
  0
VERTEX
  5
149D
  8
0
 62
     2
 10
-171.558
 20
48.9909
 30
0.0
  0
VERTEX
  5
149E
  8
0
 62
     2
 10
-171.558
 20
48.99097
 30
0.0
  0
VERTEX
  5
149F
  8
0
 62
     2
 10
-171.5696
 20
49.1554
 30
0.0
  0
VERTEX
  5
14A0
  8
0
 62
     2
 10
-171.5696
 20
49.15544
 30
0.0
  0
VERTEX
  5
14A1
  8
0
 62
     2
 10
-171.5903
 20
49.3387
 30
0.0
  0
VERTEX
  5
14A2
  8
0
 62
     2
 10
-171.61929
 20
49.52083
 30
0.0
  0
VERTEX
  5
14A3
  8
0
 62
     2
 10
-171.6193
 20
49.5209
 30
0.0
  0
VERTEX
  5
14A4
  8
0
 62
     2
 10
-171.67938
 20
49.79643
 30
0.0
  0
VERTEX
  5
14A5
  8
0
 62
     2
 10
-171.6794
 20
49.7965
 30
0.0
  0
VERTEX
  5
14A6
  8
0
 62
     2
 10
-171.67941
 20
49.79652
 30
0.0
  0
VERTEX
  5
14A7
  8
0
 62
     2
 10
-171.7582
 20
50.0674
 30
0.0
  0
VERTEX
  5
14A8
  8
0
 62
     2
 10
-171.78357
 20
50.14261
 30
0.0
  0
VERTEX
  5
14A9
  8
0
 62
     2
 10
-171.7836
 20
50.1427
 30
0.0
  0
VERTEX
  5
14AA
  8
0
 62
     2
 10
-171.8102
 20
50.21749
 30
0.0
  0
VERTEX
  5
14AB
  8
0
 62
     2
 10
-171.8102
 20
50.2175
 30
0.0
  0
VERTEX
  5
14AC
  8
0
 62
     2
 10
-171.82306
 20
50.252
 30
0.0
  0
VERTEX
  5
14AD
  8
0
 62
     2
 10
-171.8231
 20
50.2521
 30
0.0
  0
VERTEX
  5
14AE
  8
0
 62
     2
 10
-171.82311
 20
50.25212
 30
0.0
  0
VERTEX
  5
14AF
  8
0
 62
     2
 10
-171.8363
 20
50.2866
 30
0.0
  0
VERTEX
  5
14B0
  8
0
 62
     2
 10
-171.83631
 20
50.28662
 30
0.0
  0
VERTEX
  5
14B1
  8
0
 62
     2
 10
-171.8499
 20
50.3209
 30
0.0
  0
VERTEX
  5
14B2
  8
0
 62
     2
 10
-171.86367
 20
50.35503
 30
0.0
  0
VERTEX
  5
14B3
  8
0
 62
     2
 10
-171.8637
 20
50.3551
 30
0.0
  0
VERTEX
  5
14B4
  8
0
 62
     2
 10
-171.86374
 20
50.3552
 30
0.0
  0
VERTEX
  5
14B5
  8
0
 62
     2
 10
-171.8779
 20
50.3891
 30
0.0
  0
VERTEX
  5
14B6
  8
0
 62
     2
 10
-171.8779
 20
50.38911
 30
0.0
  0
VERTEX
  5
14B7
  8
0
 62
     2
 10
-171.8925
 20
50.423
 30
0.0
  0
VERTEX
  5
14B8
  8
0
 62
     2
 10
-171.91907
 20
50.48174
 30
0.0
  0
VERTEX
  5
14B9
  8
0
 62
     2
 10
-171.9191
 20
50.4818
 30
0.0
  0
VERTEX
  5
14BA
  8
0
 62
     2
 10
-171.91911
 20
50.48181
 30
0.0
  0
VERTEX
  5
14BB
  8
0
 62
     2
 10
-171.9467
 20
50.5401
 30
0.0
  0
VERTEX
  5
14BC
  8
0
 62
     2
 10
-171.95886
 20
50.56482
 30
0.0
  0
VERTEX
  5
14BD
  8
0
 62
     2
 10
-171.9589
 20
50.5649
 30
0.0
  0
VERTEX
  5
14BE
  8
0
 62
     2
 10
-171.97118
 20
50.58966
 30
0.0
  0
VERTEX
  5
14BF
  8
0
 62
     2
 10
-171.9712
 20
50.5897
 30
0.0
  0
VERTEX
  5
14C0
  8
0
 62
     2
 10
-171.98364
 20
50.61428
 30
0.0
  0
VERTEX
  5
14C1
  8
0
 62
     2
 10
-171.9837
 20
50.6144
 30
0.0
  0
VERTEX
  5
14C2
  8
0
 62
     2
 10
-171.99618
 20
50.63896
 30
0.0
  0
VERTEX
  5
14C3
  8
0
 62
     2
 10
-171.9962
 20
50.639
 30
0.0
  0
VERTEX
  5
14C4
  8
0
 62
     2
 10
-172.00888
 20
50.66356
 30
0.0
  0
VERTEX
  5
14C5
  8
0
 62
     2
 10
-172.0089
 20
50.6636
 30
0.0
  0
VERTEX
  5
14C6
  8
0
 62
     2
 10
-172.00894
 20
50.66368
 30
0.0
  0
VERTEX
  5
14C7
  8
0
 62
     2
 10
-172.0217
 20
50.6881
 30
0.0
  0
VERTEX
  5
14C8
  8
0
 62
     2
 10
-172.0345
 20
50.7127
 30
0.0
  0
VERTEX
  5
14C9
  8
0
 62
     2
 10
-172.04726
 20
50.73712
 30
0.0
  0
VERTEX
  5
14CA
  8
0
 62
     2
 10
-172.0473
 20
50.7372
 30
0.0
  0
SEQEND
  5
1572
  8
0
 62
     2
  0
POLYLINE
  5
A13
  8
0
 62
     2
 66
     1
 10
0.0
 20
0.0
 30
0.0
 70
     1
  0
VERTEX
  5
14CC
  8
0
 62
     2
 10
-164.5143
 20
52.9932
 30
0.0
  0
VERTEX
  5
14CD
  8
0
 62
     2
 10
-164.35786
 20
53.00551
 30
0.0
  0
VERTEX
  5
14CE
  8
0
 62
     2
 10
-164.20529
 20
53.04214
 30
0.0
  0
VERTEX
  5
14CF
  8
0
 62
     2
 10
-164.06032
 20
53.1022
 30
0.0
  0
VERTEX
  5
14D0
  8
0
 62
     2
 10
-163.92653
 20
53.18418
 30
0.0
  0
VERTEX
  5
14D1
  8
0
 62
     2
 10
-163.80722
 20
53.28608
 30
0.0
  0
VERTEX
  5
14D2
  8
0
 62
     2
 10
-163.8072
 20
53.2861
 30
0.0
  0
VERTEX
  5
14D3
  8
0
 62
     2
 10
-163.80718
 20
53.28612
 30
0.0
  0
VERTEX
  5
14D4
  8
0
 62
     2
 10
-163.70527
 20
53.40544
 30
0.0
  0
VERTEX
  5
14D5
  8
0
 62
     2
 10
-163.62329
 20
53.53923
 30
0.0
  0
VERTEX
  5
14D6
  8
0
 62
     2
 10
-163.56324
 20
53.68421
 30
0.0
  0
VERTEX
  5
14D7
  8
0
 62
     2
 10
-163.52661
 20
53.83678
 30
0.0
  0
VERTEX
  5
14D8
  8
0
 62
     2
 10
-163.5143
 20
53.9932
 30
0.0
  0
VERTEX
  5
14D9
  8
0
 62
     2
 10
-163.52661
 20
54.14964
 30
0.0
  0
VERTEX
  5
14DA
  8
0
 62
     2
 10
-163.56324
 20
54.30221
 30
0.0
  0
VERTEX
  5
14DB
  8
0
 62
     2
 10
-163.6233
 20
54.44718
 30
0.0
  0
VERTEX
  5
14DC
  8
0
 62
     2
 10
-163.70528
 20
54.58097
 30
0.0
  0
VERTEX
  5
14DD
  8
0
 62
     2
 10
-163.80718
 20
54.70028
 30
0.0
  0
VERTEX
  5
14DE
  8
0
 62
     2
 10
-163.8072
 20
54.7003
 30
0.0
  0
VERTEX
  5
14DF
  8
0
 62
     2
 10
-163.80722
 20
54.70032
 30
0.0
  0
VERTEX
  5
14E0
  8
0
 62
     2
 10
-163.92654
 20
54.80223
 30
0.0
  0
VERTEX
  5
14E1
  8
0
 62
     2
 10
-164.06033
 20
54.88421
 30
0.0
  0
VERTEX
  5
14E2
  8
0
 62
     2
 10
-164.20529
 20
54.94426
 30
0.0
  0
VERTEX
  5
14E3
  8
0
 62
     2
 10
-164.35788
 20
54.98089
 30
0.0
  0
VERTEX
  5
14E4
  8
0
 62
     2
 10
-164.5143
 20
54.9932
 30
0.0
  0
VERTEX
  5
14E5
  8
0
 62
     2
 10
-164.67072
 20
54.98089
 30
0.0
  0
VERTEX
  5
14E6
  8
0
 62
     2
 10
-164.82331
 20
54.94426
 30
0.0
  0
VERTEX
  5
14E7
  8
0
 62
     2
 10
-164.96827
 20
54.88421
 30
0.0
  0
VERTEX
  5
14E8
  8
0
 62
     2
 10
-165.10207
 20
54.80222
 30
0.0
  0
VERTEX
  5
14E9
  8
0
 62
     2
 10
-165.22138
 20
54.70032
 30
0.0
  0
VERTEX
  5
14EA
  8
0
 62
     2
 10
-165.2214
 20
54.7003
 30
0.0
  0
VERTEX
  5
14EB
  8
0
 62
     2
 10
-165.22142
 20
54.70028
 30
0.0
  0
VERTEX
  5
14EC
  8
0
 62
     2
 10
-165.32334
 20
54.58094
 30
0.0
  0
VERTEX
  5
14ED
  8
0
 62
     2
 10
-165.40532
 20
54.44716
 30
0.0
  0
VERTEX
  5
14EE
  8
0
 62
     2
 10
-165.46537
 20
54.30218
 30
0.0
  0
VERTEX
  5
14EF
  8
0
 62
     2
 10
-165.50199
 20
54.14961
 30
0.0
  0
VERTEX
  5
14F0
  8
0
 62
     2
 10
-165.5143
 20
53.9932
 30
0.0
  0
VERTEX
  5
14F1
  8
0
 62
     2
 10
-165.50198
 20
53.83675
 30
0.0
  0
VERTEX
  5
14F2
  8
0
 62
     2
 10
-165.46535
 20
53.68418
 30
0.0
  0
VERTEX
  5
14F3
  8
0
 62
     2
 10
-165.4053
 20
53.53922
 30
0.0
  0
VERTEX
  5
14F4
  8
0
 62
     2
 10
-165.32332
 20
53.40543
 30
0.0
  0
VERTEX
  5
14F5
  8
0
 62
     2
 10
-165.22142
 20
53.28612
 30
0.0
  0
VERTEX
  5
14F6
  8
0
 62
     2
 10
-165.2214
 20
53.2861
 30
0.0
  0
VERTEX
  5
14F7
  8
0
 62
     2
 10
-165.22138
 20
53.28608
 30
0.0
  0
VERTEX
  5
14F8
  8
0
 62
     2
 10
-165.10206
 20
53.18417
 30
0.0
  0
VERTEX
  5
14F9
  8
0
 62
     2
 10
-164.96827
 20
53.10219
 30
0.0
  0
VERTEX
  5
14FA
  8
0
 62
     2
 10
-164.82329
 20
53.04214
 30
0.0
  0
VERTEX
  5
14FB
  8
0
 62
     2
 10
-164.67072
 20
53.00551
 30
0.0
  0
VERTEX
  5
14FC
  8
0
 62
     2
 10
-164.5143
 20
52.9932
 30
0.0
  0
SEQEND
  5
1573
  8
0
 62
     2
  0
TEXT
  5
A46
  8
0
 62
     2
 10
-88.9807
 20
36.739
 30
0.0
 40
3.73336
  1
Nero
 41
0.628067
  0
TEXT
  5
A47
  8
0
 62
     2
 10
-30.0441
 20
71.3321
 30
0.0
 40
1.28
  1
(Ind.)
 50
90.0
 41
0.59715
  0
TEXT
  5
A48
  8
0
 62
     2
 10
-31.7488
 20
71.2752
 30
0.0
 40
1.28
  1
Indic.
 50
90.0
 41
0.551215
  0
TEXT
  5
A49
  8
0
 62
     2
 10
-30.0441
 20
96.9726
 30
0.0
 40
1.28
  1
(Drawn.)
 50
90.0
 41
0.72347
  0
TEXT
  5
A4A
  8
0
 62
     2
 10
-31.7488
 20
99.2456
 30
0.0
 40
1.28
  1
Dis.
 50
90.0
 41
0.551215
  0
TEXT
  5
A4B
  8
0
 62
     2
 10
-30.1704
 20
81.5668
 30
0.0
 40
1.28
  1
(Date)
 50
90.0
 41
0.68902
  0
TEXT
  5
A4C
  8
0
 62
     2
 10
-31.8751
 20
82.38760000000001
 30
0.0
 40
1.28
  1
Data
 50
90.0
 41
0.757922
  0
TEXT
  5
A4D
  8
0
 62
     2
 10
-51.4771
 20
12.0166
 30
0.0
 40
1.28
  1
Data
 41
0.703125
  0
TEXT
  5
A4E
  8
0
 62
     2
 10
-51.4771
 20
9.3766
 30
0.0
 40
1.28
  1
(Date)
 41
0.657552
  0
TEXT
  5
A4F
  8
0
 62
     2
 10
-203.8832
 20
27.4449
 30
0.0
 40
1.28
  1
Dis. Complessivo
 41
0.629883
  0
TEXT
  5
A50
  8
0
 62
     2
 10
-203.8832
 20
24.8049
 30
0.0
 40
1.28
  1
(Assembly drawing)
 41
0.666233
  0
TEXT
  5
A51
  8
0
 62
     2
 10
-164.8643
 20
53.1599
 30
0.0
 40
1.06664
  1
R
 41
0.742144
  0
TEXT
  5
A52
  8
0
 62
     2
 10
-114.5
 20
65.5667
 30
0.0
 40
1.38664
  1
Tratt. superfic. (Surfaces treatments)
 41
0.603412
  0
TEXT
  5
A53
  8
0
 62
     2
 10
-74.4674
 20
45.259
 30
0.0
 40
1.28
  1
Ritiro %%%
 41
0.585937
  0
TEXT
  5
A54
  8
0
 62
     2
 10
-74.4674
 20
42.619
 30
0.0
 40
1.28
  1
(Contraction %%%)
 41
0.647135
  0
TEXT
  5
A55
  8
0
 62
     2
 10
-152.0
 20
44.394
 30
0.0
 40
1.28
  1
Materiale (Mat.)
 41
0.598145
  0
TEXT
  5
A56
  8
0
 62
     2
 10
-203.8832
 20
17.374
 30
0.0
 40
1.28
  1
Disegno o stp.
 41
0.61942
  0
TEXT
  5
A57
  8
0
 62
     2
 10
-203.8832
 20
14.734
 30
0.0
 40
1.28
  1
(Drawing or drop)
 41
0.631893
  0
TEXT
  5
A58
  8
0
 62
     2
 10
-26.4833
 20
12.2595
 30
0.0
 40
1.28
  1
Foglio
 41
0.592448
  0
TEXT
  5
A59
  8
0
 62
     2
 10
-26.4833
 20
9.6195
 30
0.0
 40
1.28
  1
(Sheet)
 41
0.6556920000000001
  0
TEXT
  5
A5A
  8
0
 62
     2
 10
-51.3645
 20
22.1786
 30
0.0
 40
1.28
  1
Cont.
 41
0.644531
  0
TEXT
  5
A5B
  8
0
 62
     2
 10
-51.3645
 20
19.5386
 30
0.0
 40
1.28
  1
(Checked)
 41
0.6879340000000001
  0
TEXT
  5
A5C
  8
0
 62
     2
 10
-51.3645
 20
33.2127
 30
0.0
 40
1.28
  1
Dis.
 41
0.541992
  0
TEXT
  5
A5D
  8
0
 62
     2
 10
-51.3645
 20
30.5727
 30
0.0
 40
1.28
  1
(Drawn)
 41
0.694754
  0
TEXT
  5
A5E
  8
0
 62
     2
 10
-51.3645
 20
44.8712
 30
0.0
 40
1.28
  1
Scala
 41
0.621094
  0
TEXT
  5
A5F
  8
0
 62
     2
 10
-51.3645
 20
42.2312
 30
0.0
 40
1.28
  1
(Scale)
 41
0.608259
  0
TEXT
  5
A60
  8
0
 62
     2
 10
-203.8198
 20
36.6285
 30
0.0
 40
1.28
  1
Dis. Cliente
 41
0.559896
  0
TEXT
  5
A61
  8
0
 62
     2
 10
-203.8198
 20
33.9885
 30
0.0
 40
1.28
  1
(Customer Drawing)
 41
0.674913
  0
TEXT
  5
A62
  8
0
 62
     2
 10
-202.0
 20
65.59999999999999
 30
0.0
 40
1.28
  1
Tratt. termico (Heats treatments)
 41
0.625592
  0
TEXT
  5
A63
  8
0
 62
     2
 10
-24.4987
 20
18.2569
 30
0.0
 40
1.2592
  1
Proprieta'della MarBettS.P.A. senza
 50
90.0
 41
0.536307
  0
TEXT
  5
A64
  8
0
 62
     2
 10
-21.9015
 20
18.2569
 30
0.0
 40
1.2592
  1
autorizzazione scritta della stessa
 50
90.0
 41
0.520298
  0
TEXT
  5
A65
  8
0
 62
     2
 10
-19.3044
 20
18.2569
 30
0.0
 40
1.2592
  1
il presente disegno non puo essere
 50
90.0
 41
0.55208
  0
TEXT
  5
A66
  8
0
 62
     2
 10
-16.7073
 20
18.2569
 30
0.0
 40
1.2592
  1
comunque utilizzato per la costruzi-
 50
90.0
 41
0.536974
  0
TEXT
  5
A67
  8
0
 62
     2
 10
-14.1102
 20
18.2569
 30
0.0
 40
1.2592
  1
one dell'oggetto rappresentato ne
 50
90.0
 41
0.56032
  0
TEXT
  5
A68
  8
0
 62
     2
 10
-11.513
 20
18.2569
 30
0.0
 40
1.2592
  1
venire comunicato a terzi o riprodot-
 50
90.0
 41
0.537605
  0
TEXT
  5
A69
  8
0
 62
     2
 10
-8.915900000000001
 20
18.2569
 30
0.0
 40
1.2592
  1
to. la Societa'proprietaria tutela i
 50
90.0
 41
0.49028
  0
TEXT
  5
A6A
  8
0
 62
     2
 10
-6.3188
 20
18.2569
 30
0.0
 40
1.2592
  1
propri diritti a rig. di legge
 50
90.0
 41
0.466934
  0
TEXT
  5
A6B
  8
0
 62
     2
 10
-152.0062
 20
30.5
 30
0.0
 40
1.6
  1
Descrizione (Description)
 41
0.607033
  0
TEXT
  5
A6C
  8
0
 62
     2
 10
-94.6621
 20
55.0108
 30
0.0
 40
1.38664
  1
Peso
 41
0.708006
  0
TEXT
  5
A6D
  8
0
 62
     2
 10
-94.6621
 20
52.4108
 30
0.0
 40
1.38664
  1
(Weight)
 41
0.668946
  0
TEXT
  5
A6E
  8
0
 62
     2
 10
-30.3618
 20
132.8884
 30
0.0
 40
1.38664
  1
Modifiche (Revisions)
 50
90.0
 41
0.617858
  0
TEXT
  5
A6F
  8
0
 62
     2
 10
-165.9421
 20
17.1474
 30
0.0
 40
1.38664
  1
Modifiche
 41
0.631511
  0
TEXT
  5
A70
  8
0
 62
     2
 10
-51.3645
 20
55.2749
 30
0.0
 40
1.28
  1
Quant.
 41
0.664062
  0
TEXT
  5
A71
  8
0
 62
     2
 10
-51.3645
 20
52.6349
 30
0.0
 40
1.28
  1
(Qty.)
 41
0.6119790000000001
  0
TEXT
  5
A72
  8
0
 62
     2
 10
-151.5828
 20
51.065
 30
0.0
 40
2.66664
  1
UFFICI TECNICI
 41
0.544334
  0
TEXT
  5
A73
  8
0
 62
     2
 10
-119.9786
 20
55.3457
 30
0.0
 40
1.38664
  1
Linea
 41
0.628902
  0
TEXT
  5
A74
  8
0
 62
     2
 10
-163.9728
 20
42.127
 30
0.0
 40
1.6
  1
S.p.A
 41
0.632812
  0
TEXT
  5
A75
  8
0
 62
     2
 10
-30.3618
 20
243.8884
 30
0.0
 40
1.38664
  1
Modifiche (Revisions)
 50
90.0
 41
0.617858
  0
TEXT
  5
A76
  8
0
 62
     2
 10
-74.3887
 20
55.1526
 30
0.0
 40
1.28
  1
Toll.Gen.
 41
0.575087
  0
TEXT
  5
A77
  8
0
 62
     2
 10
-74.33790000000001
 20
52.4608
 30
0.0
 40
1.28
  1
(Gen.Toll.)
 41
0.5735090000000001
  0
TEXT
  5
A78
  8
0
 62
     2
 10
-120.291
 20
52.6161
 30
0.0
 40
1.28
  1
(Line)
 41
0.595703
  0
TEXT
  5
A79
  8
0
 62
     2
 10
-203.8
 20
21.6524
 30
0.0
 40
1.28
  1
N%%d
 41
0.654297
  0
TEXT
  5
A7A
  8
0
 62
     2
 10
-203.8
 20
31.776
 30
0.0
 40
1.28
  1
N%%d
 41
0.654297
  0
TEXT
  5
A7B
  8
0
 62
     2
 10
-203.8
 20
12.1789
 30
0.0
 40
1.28
  1
N%%d
 41
0.654297
  0
TEXT
  5
A7C
  8
0
 62
     2
 10
-94.4096
 20
45.4038
 30
0.0
 40
1.28
  1
Colore
 41
0.6347660000000001
  0
TEXT
  5
A7D
  8
0
 62
     2
 10
-94.4096
 20
42.7638
 30
0.0
 40
1.28
  1
(Color)
 41
0.602679
  0
TEXT
  5
A7E
  8
0
 62
     2
 10
-30.0441
 20
181.8984
 30
0.0
 40
1.28
  1
(Ind.)
 50
90.0
 41
0.59715
  0
TEXT
  5
A7F
  8
0
 62
     2
 10
-31.7488
 20
181.8415
 30
0.0
 40
1.28
  1
Indic.
 50
90.0
 41
0.551215
  0
TEXT
  5
A80
  8
0
 62
     2
 10
-30.0441
 20
207.5389
 30
0.0
 40
1.28
  1
(Drawn.)
 50
90.0
 41
0.72347
  0
TEXT
  5
A81
  8
0
 62
     2
 10
-31.7488
 20
209.8119
 30
0.0
 40
1.28
  1
Dis.
 50
90.0
 41
0.551215
  0
TEXT
  5
A82
  8
0
 62
     2
 10
-30.1704
 20
192.1331
 30
0.0
 40
1.28
  1
(Date)
 50
90.0
 41
0.68902
  0
TEXT
  5
A83
  8
0
 62
     2
 10
-31.8751
 20
192.9539
 30
0.0
 40
1.28
  1
Data
 50
90.0
 41
0.757922
  0
TEXT
  5
A84
  8
0
 62
     2
 10
-166.1085
 20
14.9968
 30
0.0
 40
1.28
  1
(Modify)
 41
0.637207
  0
TEXT
  5
A85
  8
0
 62
     2
 10
-17.2933
 20
0.7085
 30
0.0
 40
2.13336
  1
 UNI A/1
 41
0.732741
  0
TEXT
  5
A86
  8
0
 62
     2
 10
-197.7252
 20
7.1184
 30
0.0
 40
3.73336
  1
69668-CP
 41
0.732745
  0
TEXT
  5
A87
  8
0
 62
     2
 10
-147.2367
 20
20.8813
 30
0.0
 40
3.73336
  1
Testata laterale per tubo ¯ 33,7
 41
0.614981
  0
TEXT
  5
A88
  8
0
 62
     2
 10
-38.1654
 20
39.0949
 30
0.0
 40
3.73336
  1
1:1
 41
0.5582819999999999
  0
TEXT
  5
A89
  8
0
 62
     2
 10
-40.1177
 20
26.4896
 30
0.0
 40
3.73336
  1
Cieri
 41
0.502454
  0
TEXT
  5
A8A
  8
0
 62
     2
 10
-51.4423
 20
4.4853
 30
0.0
 40
3.73336
  1
04/05/93
 41
0.785084
  0
TEXT
  5
A8B
  8
0
 62
     2
 10
-123.5115
 20
39.5214
 30
0.0
 40
3.2
  1
PA + FV
 41
0.767643
  0
TEXT
  5
A8C
  8
0
 62
     2
 10
-114.8868
 20
13.3031
 30
0.0
 40
3.73336
  1
Part 416
 41
0.628067
  0
ENDBLK
  5
1575
  8
0
  0
BLOCK
  8
0
  2
_FRECCIA__1
 70
     0
 10
0.0
 20
0.0
 30
0.0
  3
_FRECCIA__1
  1

  0
LINE
  5
A90
  8
0
 62
     0
 10
0.0
 20
0.0
 30
0.0
 11
-6.5
 21
-3.7528
 31
0.0
  0
LINE
  5
A91
  8
0
 62
     0
 10
-6.5
 20
-3.7528
 30
0.0
 11
-6.5
 21
0.0
 31
0.0
  0
LINE
  5
A92
  8
0
 62
     0
 10
0.0
 20
0.0
 30
0.0
 11
-15.0
 21
0.0
 31
0.0
  0
LINE
  5
A93
  8
0
 62
     0
 10
-6.5
 20
0.0
 30
0.0
 11
-6.5
 21
3.7528
 31
0.0
  0
LINE
  5
A94
  8
0
 62
     0
 10
-6.5
 20
3.7528
 30
0.0
 11
0.0
 21
0.0
 31
0.0
  0
TEXT
  5
A95
  8
0
 62
     2
 10
-12.328
 20
0.7459
 30
0.0
 40
3.73336
  1
A
 41
0.837423
  0
ENDBLK
  5
1577
  8
0
  0
BLOCK
  8
0
  2
_FRECCIA__2
 70
     0
 10
0.0
 20
0.0
 30
0.0
  3
_FRECCIA__2
  1

  0
LINE
  5
A99
  8
0
 62
     0
 10
0.0
 20
0.0
 30
0.0
 11
-6.5
 21
-3.7528
 31
0.0
  0
LINE
  5
A9A
  8
0
 62
     0
 10
-6.5
 20
-3.7528
 30
0.0
 11
-6.5
 21
0.0
 31
0.0
  0
LINE
  5
A9B
  8
0
 62
     0
 10
0.0
 20
0.0
 30
0.0
 11
-15.0
 21
0.0
 31
0.0
  0
LINE
  5
A9C
  8
0
 62
     0
 10
-6.5
 20
0.0
 30
0.0
 11
-6.5
 21
3.7528
 31
0.0
  0
LINE
  5
A9D
  8
0
 62
     0
 10
-6.5
 20
3.7528
 30
0.0
 11
0.0
 21
0.0
 31
0.0
  0
TEXT
  5
A9E
  8
0
 62
     2
 10
-12.328
 20
0.7459
 30
0.0
 40
3.73336
  1
A
 41
0.837423
  0
ENDBLK
  5
1579
  8
0
  0
BLOCK
  8
0
  2
416A
 70
     0
 10
0.0
 20
0.0
 30
0.0
  3
416A
  1

  0
LINE
  5
AA2
  8
0
 62
     3
 10
-14.8723
 20
14.69984
 30
0.0
 11
-14.8723
 21
-0.5
 31
0.0
  0
LINE
  5
AA3
  8
0
 62
     3
 10
-10.1338
 20
26.36384
 30
0.0
 11
-11.5918
 21
26.36384
 31
0.0
  0
LINE
  5
AA4
  8
0
 62
     3
 10
-11.5918
 20
25.63484
 30
0.0
 11
-14.1433
 21
25.63484
 31
0.0
  0
LINE
  5
AA5
  8
0
 62
     3
 10
-11.5918
 20
13.97084
 30
0.0
 11
-14.1433
 21
13.97084
 31
0.0
  0
ARC
  5
AA6
  8
0
 62
     3
 10
-11.9563
 20
16.88684
 30
0.0
 40
3.645
 50
126.869888
 51
233.130096
  0
ARC
  5
AA7
  8
0
 62
     3
 10
-11.9563
 20
22.71884
 30
0.0
 40
3.645
 50
126.869888
 51
233.130096
  0
LINE
  5
AA8
  8
0
 62
     3
 10
-11.5918
 20
19.80284
 30
0.0
 11
-14.1433
 21
19.80284
 31
0.0
  0
LINE
  5
AA9
  8
0
 62
     3
 10
-15.6013
 20
16.88684
 30
0.0
 11
-15.6013
 21
22.71884
 31
0.0
  0
LINE
  5
AAA
  8
0
 62
     3
 10
-10.1338
 20
13.24184
 30
0.0
 11
-11.5918
 21
13.24184
 31
0.0
  0
LINE
  5
AAB
  8
0
 62
     3
 10
-11.5918
 20
13.24184
 30
0.0
 11
-11.5918
 21
26.36384
 31
0.0
  0
LINE
  5
AAC
  8
0
 62
     3
 10
32.5127
 20
13.97084
 30
0.0
 11
32.5127
 21
-0.5
 31
0.0
  0
LINE
  5
AAD
  8
0
 62
     3
 10
29.2322
 20
13.24184
 30
0.0
 11
29.2322
 21
26.36384
 31
0.0
  0
LINE
  5
AAE
  8
0
 62
     3
 10
27.7742
 20
13.24184
 30
0.0
 11
29.2322
 21
13.24184
 31
0.0
  0
LINE
  5
AAF
  8
0
 62
     3
 10
34.39539
 20
15.42884
 30
0.0
 11
35.7932
 21
15.42884
 31
0.0
  0
LINE
  5
AB0
  8
0
 62
     3
 10
34.62605
 20
16.15784
 30
0.0
 11
36.5222
 21
16.15784
 31
0.0
  0
LINE
  5
AB1
  8
0
 62
     3
 10
34.62605
 20
23.44784
 30
0.0
 11
36.5222
 21
23.44784
 31
0.0
  0
LINE
  5
AB2
  8
0
 62
     3
 10
34.39539
 20
24.17684
 30
0.0
 11
35.7932
 21
24.17684
 31
0.0
  0
LINE
  5
AB3
  8
0
 62
     3
 10
36.5222
 20
23.44784
 30
0.0
 11
35.7932
 21
24.17684
 31
0.0
  0
LINE
  5
AB4
  8
0
 62
     3
 10
36.5222
 20
16.15784
 30
0.0
 11
35.7932
 21
15.42884
 31
0.0
  0
LINE
  5
AB5
  8
0
 62
     3
 10
35.7932
 20
15.42884
 30
0.0
 11
35.7932
 21
24.17684
 31
0.0
  0
LINE
  5
AB6
  8
0
 62
     3
 10
36.5222
 20
16.15784
 30
0.0
 11
36.5222
 21
23.44784
 31
0.0
  0
LINE
  5
AB7
  8
0
 62
     3
 10
29.2322
 20
24.17684
 30
0.0
 11
29.5365
 21
24.17684
 31
0.0
  0
LINE
  5
AB8
  8
0
 62
     3
 10
29.2322
 20
15.42884
 30
0.0
 11
29.5365
 21
15.42884
 31
0.0
  0
LINE
  5
AB9
  8
0
 62
     3
 10
29.2322
 20
16.15784
 30
0.0
 11
29.30584
 21
16.15784
 31
0.0
  0
LINE
  5
ABA
  8
0
 62
     3
 10
29.2322
 20
23.44784
 30
0.0
 11
29.30584
 21
23.44784
 31
0.0
  0
LINE
  5
ABB
  8
0
 62
     3
 10
34.6997
 20
16.88684
 30
0.0
 11
34.6997
 21
22.71884
 31
0.0
  0
LINE
  5
ABC
  8
0
 62
     3
 10
30.6902
 20
19.80284
 30
0.0
 11
33.2417
 21
19.80284
 31
0.0
  0
ARC
  5
ABD
  8
0
 62
     3
 10
31.0547
 20
22.71884
 30
0.0
 40
3.645
 50
306.869888
 51
53.130096
  0
ARC
  5
ABE
  8
0
 62
     3
 10
31.0547
 20
16.88684
 30
0.0
 40
3.645
 50
306.869888
 51
53.130096
  0
ARC
  5
ABF
  8
0
 62
     3
 10
32.8772
 20
22.71884
 30
0.0
 40
3.645
 50
126.869888
 51
233.130096
  0
ARC
  5
AC0
  8
0
 62
     3
 10
32.8772
 20
16.88684
 30
0.0
 40
3.645
 50
126.869888
 51
233.130096
  0
LINE
  5
AC1
  8
0
 62
     3
 10
30.6902
 20
13.97084
 30
0.0
 11
33.2417
 21
13.97084
 31
0.0
  0
LINE
  5
AC2
  8
0
 62
     3
 10
30.6902
 20
25.63484
 30
0.0
 11
33.2417
 21
25.63484
 31
0.0
  0
LINE
  5
AC3
  8
0
 62
     3
 10
27.7742
 20
26.36384
 30
0.0
 11
29.2322
 21
26.36384
 31
0.0
  0
ARC
  5
AC4
  8
0
 62
     3
 10
8.8202
 20
-35.41872
 30
0.0
 40
51.1029
 50
68.22895800000001
 51
88.36509700000001
  0
ARC
  5
AC5
  8
0
 62
     3
 10
8.8202
 20
-35.41872
 30
0.0
 40
51.1029
 50
91.63491800000001
 51
111.771057
  0
ARC
  5
AC6
  8
0
 62
     3
 10
8.8202
 20
75.0244
 30
0.0
 40
51.1029
 50
271.6349180000001
 51
291.771057
  0
ARC
  5
AC7
  8
0
 62
     3
 10
8.8202
 20
75.0244
 30
0.0
 40
51.1029
 50
248.228958
 51
268.365097
  0
LINE
  5
AC8
  8
0
 62
     3
 10
-10.1338
 20
27.5665
 30
0.0
 11
-10.1338
 21
12.03919
 31
0.0
  0
LINE
  5
AC9
  8
0
 62
     3
 10
27.7742
 20
27.5665
 30
0.0
 11
27.7742
 21
12.03919
 31
0.0
  0
LINE
  5
ACA
  8
0
 62
     3
 10
10.2782
 20
-0.5
 30
0.0
 11
32.5127
 21
-0.5
 31
0.0
  0
ARC
  5
ACB
  8
0
 62
     3
 10
8.8202
 20
26.1085
 30
0.0
 40
1.458
 50
0.0
 51
180.0
  0
LINE
  5
ACC
  8
0
 62
     3
 10
7.3622
 20
-0.5
 30
0.0
 11
7.3622
 21
26.1085
 31
0.0
  0
LINE
  5
ACD
  8
0
 62
     3
 10
10.2782
 20
-0.5
 30
0.0
 11
10.2782
 21
26.1085
 31
0.0
  0
LINE
  5
ACE
  8
0
  6
MCDASH9
 62
     0
 10
40.1672
 20
110.308
 30
0.0
 11
40.1672
 21
57.091
 31
0.0
  0
LINE
  5
ACF
  8
0
 62
     3
 10
32.5127
 20
31.9405
 30
0.0
 11
32.5127
 21
25.63484
 31
0.0
  0
LINE
  5
AD0
  8
0
 62
     3
 10
3.3527
 20
47.22658
 30
0.0
 11
-12.71102
 21
42.92233
 31
0.0
  0
LINE
  5
AD1
  8
0
  6
MCDASH9
 62
     0
 10
40.8962
 20
89.34925
 30
0.0
 11
40.8962
 21
83.15275
 31
0.0
  0
LINE
  5
AD2
  8
0
  6
MCDASH9
 62
     0
 10
40.8962
 20
116.869
 30
0.0
 11
40.8962
 21
108.121
 31
0.0
  0
LINE
  5
AD3
  8
0
  6
MCDASH9
 62
     0
 10
40.8962
 20
116.869
 30
0.0
 11
54.7472
 21
116.869
 31
0.0
  0
LINE
  5
AD4
  8
0
  6
MCDASH9
 62
     0
 10
40.1672
 20
105.02275
 30
0.0
 11
54.7472
 21
105.02275
 31
0.0
  0
LINE
  5
AD5
  8
0
  6
MCDASH9
 62
     0
 10
40.8962
 20
83.15275
 30
0.0
 11
54.7472
 21
83.15275
 31
0.0
  0
LINE
  5
AD6
  8
0
  6
MCDASH9
 62
     0
 10
40.8962
 20
89.34925
 30
0.0
 11
54.7472
 21
89.34925
 31
0.0
  0
LINE
  5
AD7
  8
0
  6
MCDASH9
 62
     0
 10
40.1672
 20
61.28275
 30
0.0
 11
54.7472
 21
61.28275
 31
0.0
  0
LINE
  5
AD8
  8
0
  6
MCDASH9
 62
     0
 10
40.1672
 20
67.47924999999999
 30
0.0
 11
54.7472
 21
67.47924999999999
 31
0.0
  0
LINE
  5
AD9
  8
0
  6
MCDASH9
 62
     0
 10
40.1672
 20
108.121
 30
0.0
 11
40.8962
 21
108.121
 31
0.0
  0
ARC
  5
ADA
  8
0
 62
     3
 10
-11.9563
 20
40.10569
 30
0.0
 40
2.916
 50
105.0
 51
180.0
  0
ARC
  5
ADB
  8
0
 62
     3
 10
37.48027
 20
34.8565
 30
0.0
 40
2.916
 50
270.0
 51
327.308014
  0
ARC
  5
ADC
  8
0
 62
     3
 10
6.2687
 20
56.33629
 30
0.0
 40
2.916
 50
150.978729
 51
180.0
  0
ARC
  5
ADD
  8
0
 62
     3
 10
6.2687
 20
34.8565
 30
0.0
 40
2.916
 50
180.0
 51
270.0
  0
ARC
  5
ADE
  8
0
 62
     3
 10
34.59412
 20
107.392
 30
0.0
 40
2.916
 50
90.0
 51
150.978729
  0
LINE
  5
ADF
  8
0
 62
     3
 10
39.93434
 20
33.2815
 30
0.0
 11
54.7472
 21
56.362
 31
0.0
  0
LINE
  5
AE0
  8
0
 62
     3
 10
6.2687
 20
31.9405
 30
0.0
 11
37.48027
 21
31.9405
 31
0.0
  0
LINE
  5
AE1
  8
0
 62
     3
 10
32.04426
 20
108.80665
 30
0.0
 11
3.71883
 21
57.75095
 31
0.0
  0
LINE
  5
AE2
  8
0
 62
     3
 10
3.3527
 20
56.33629
 30
0.0
 11
3.3527
 21
34.8565
 31
0.0
  0
LINE
  5
AE3
  8
0
 62
     3
 10
34.59412
 20
110.308
 30
0.0
 11
40.1672
 21
110.308
 31
0.0
  0
LINE
  5
AE4
  8
0
  6
MCDASH9
 62
     0
 10
47.4572
 20
56.362
 30
0.0
 11
54.7472
 21
56.362
 31
0.0
  0
LINE
  5
AE5
  8
0
  6
MCDASH9
 62
     0
 10
32.5127
 20
42.34321
 30
0.0
 11
47.4572
 21
56.362
 31
0.0
  0
LINE
  5
AE6
  8
0
  6
MCDASH9
 62
     0
 10
32.5127
 20
42.34321
 30
0.0
 11
32.5127
 21
31.9405
 31
0.0
  0
LINE
  5
AE7
  8
0
 62
     3
 10
40.1672
 20
128.37536
 30
0.0
 11
40.1672
 21
110.308
 31
0.0
  0
LINE
  5
AE8
  8
0
  6
MCDASH9
 62
     0
 10
40.1672
 20
57.091
 30
0.0
 11
3.3527
 21
47.22658
 31
0.0
  0
LINE
  5
AE9
  8
0
 62
     3
 10
54.7472
 20
128.37536
 30
0.0
 11
54.7472
 21
56.362
 31
0.0
  0
LINE
  5
AEA
  8
0
 62
     3
 10
40.1672
 20
128.37536
 30
0.0
 11
54.7472
 21
128.37536
 31
0.0
  0
LINE
  5
AEB
  8
0
 62
     3
 10
-14.8723
 20
-0.5
 30
0.0
 11
7.3622
 21
-0.5
 31
0.0
  0
LINE
  5
AEC
  8
0
 62
     3
 10
-14.8723
 20
40.10569
 30
0.0
 11
-14.8723
 21
24.90584
 31
0.0
  0
ENDBLK
  5
157B
  8
0
  0
BLOCK
  8
0
  2
416B
 70
     0
 10
0.0
 20
0.0
 30
0.0
  3
416B
  1

  0
LINE
  5
AF0
  8
0
 62
     3
 10
26.27152
 20
13.75643
 30
0.0
 11
14.35253
 21
12.53919
 31
0.0
  0
LINE
  5
AF1
  8
0
 62
     3
 10
26.27152
 20
26.84925
 30
0.0
 11
14.35253
 21
28.0665
 31
0.0
  0
POLYLINE
  5
AF2
  8
0
 62
     3
 66
     1
 10
0.0
 20
0.0
 30
0.0
 70
     1
  0
VERTEX
  5
14FE
  8
0
 62
     3
 10
18.38955
 20
26.13484
 30
0.0
  0
VERTEX
  5
14FF
  8
0
 62
     3
 10
15.02245
 20
20.30284
 30
0.0
  0
VERTEX
  5
1500
  8
0
 62
     3
 10
18.38955
 20
14.47084
 30
0.0
  0
VERTEX
  5
1501
  8
0
 62
     3
 10
25.12377
 20
14.47084
 30
0.0
  0
VERTEX
  5
1502
  8
0
 62
     3
 10
28.49087
 20
20.30284
 30
0.0
  0
VERTEX
  5
1503
  8
0
 62
     3
 10
25.12377
 20
26.13484
 30
0.0
  0
SEQEND
  5
157C
  8
0
 62
     3
  0
ARC
  5
AFA
  8
0
 62
     3
 10
25.82177
 20
16.63754
 30
0.0
 40
2.916
 50
278.872452
 51
339.250427
  0
ARC
  5
AFB
  8
0
 62
     3
 10
25.82177
 20
23.96815
 30
0.0
 40
2.916
 50
20.749573
 51
81.127548
  0
LINE
  5
AFC
  8
0
 62
     3
 10
23.6925
 20
13.49305
 30
0.0
 11
23.6925
 21
0.0
 31
0.0
  0
ARC
  5
AFD
  8
0
 62
     3
 10
16.14715
 20
20.30284
 30
0.0
 40
13.26166
 50
339.250427
 51
20.749573
  0
LINE
  5
AFE
  8
0
 62
     3
 10
14.35253
 20
28.0665
 30
0.0
 11
14.35253
 21
12.53919
 31
0.0
  0
LINE
  5
AFF
  8
0
  6
MCDASH9
 62
     0
 10
-17.60535
 20
44.469
 30
0.0
 11
-17.60535
 21
0.0
 31
0.0
  0
LINE
  5
B00
  8
0
  6
MCDASH9
 62
     0
 10
17.60535
 20
44.469
 30
0.0
 11
17.60535
 21
0.0
 31
0.0
  0
LINE
  5
B01
  8
0
  6
MCDASH9
 62
     0
 10
-17.60535
 20
44.469
 30
0.0
 11
17.60535
 21
44.469
 31
0.0
  0
LINE
  5
B02
  8
0
 62
     3
 10
18.225
 20
115.47434
 30
0.0
 11
25.515
 21
115.47434
 31
0.0
  0
ARC
  5
B03
  8
0
 62
     3
 10
0.0
 20
38.25141
 30
0.0
 40
91.125
 50
73.73979199999999
 51
106.260208
  0
LINE
  5
B04
  8
0
 62
     3
 10
-25.515
 20
115.47434
 30
0.0
 11
-18.225
 21
115.47434
 31
0.0
  0
CIRCLE
  5
B05
  8
0
 62
     3
 10
0.0
 20
64.881
 30
0.0
 40
3.09825
  0
CIRCLE
  5
B06
  8
0
 62
     3
 10
0.0
 20
86.75100000000001
 30
0.0
 40
3.09825
  0
LINE
  5
B07
  8
0
  6
MCDASH9
 62
     0
 10
3.09825
 20
118.25916
 30
0.0
 11
3.09825
 21
115.70766
 31
0.0
  0
LINE
  5
B08
  8
0
  6
MCDASH9
 62
     0
 10
-3.09825
 20
118.25916
 30
0.0
 11
-3.09825
 21
115.70766
 31
0.0
  0
ARC
  5
B09
  8
0
  6
MCDASH9
 62
     0
 10
0.0
 20
118.25916
 30
0.0
 40
3.09825
 50
0.0
 51
180.0
  0
ARC
  5
B0A
  8
0
 62
     3
 10
3.645
 20
112.60941
 30
0.0
 40
3.09825
 50
270.0
 51
90.0
  0
ARC
  5
B0B
  8
0
 62
     3
 10
-3.645
 20
112.60941
 30
0.0
 40
3.09825
 50
90.0
 51
270.0
  0
LINE
  5
B0C
  8
0
 62
     3
 10
-3.645
 20
115.70766
 30
0.0
 11
3.645
 21
115.70766
 31
0.0
  0
LINE
  5
B0D
  8
0
 62
     3
 10
-3.645
 20
109.51116
 30
0.0
 11
3.645
 21
109.51116
 31
0.0
  0
LINE
  5
B0E
  8
0
 62
     3
 10
23.6925
 20
32.4405
 30
0.0
 11
25.515
 21
32.4405
 31
0.0
  0
LINE
  5
B0F
  8
0
 62
     3
 10
18.225
 20
115.47434
 30
0.0
 11
18.225
 21
57.591
 31
0.0
  0
ARC
  5
B10
  8
0
 62
     3
 10
0.0
 20
94.61657
 30
0.0
 40
45.198
 50
238.386032
 51
301.613968
  0
ARC
  5
B11
  8
0
 62
     3
 10
0.0
 20
103.29907
 30
0.0
 40
49.2075
 50
248.261536
 51
291.738464
  0
LINE
  5
B12
  8
0
 62
     3
 10
18.225
 20
57.591
 30
0.0
 11
23.6925
 21
56.12599
 31
0.0
  0
LINE
  5
B13
  8
0
 62
     3
 10
-18.225
 20
57.591
 30
0.0
 11
-23.6925
 21
56.12599
 31
0.0
  0
LINE
  5
B14
  8
0
 62
     3
 10
-18.225
 20
115.47434
 30
0.0
 11
-18.225
 21
57.591
 31
0.0
  0
LINE
  5
B15
  8
0
 62
     3
 10
-25.515
 20
32.4405
 30
0.0
 11
-23.6925
 21
32.4405
 31
0.0
  0
LINE
  5
B16
  8
0
 62
     3
 10
-23.6925
 20
56.12599
 30
0.0
 11
-23.6925
 21
0.0
 31
0.0
  0
LINE
  5
B17
  8
0
 62
     3
 10
23.6925
 20
56.12599
 30
0.0
 11
23.6925
 21
27.11264
 31
0.0
  0
LINE
  5
B18
  8
0
 62
     3
 10
-25.515
 20
32.4405
 30
0.0
 11
-25.515
 21
125.73141
 31
0.0
  0
LINE
  5
B19
  8
0
 62
     3
 10
25.515
 20
32.4405
 30
0.0
 11
25.515
 21
125.73141
 31
0.0
  0
LINE
  5
B1A
  8
0
 62
     3
 10
-23.6925
 20
0.0
 30
0.0
 11
23.6925
 21
0.0
 31
0.0
  0
ENDBLK
  5
157E
  8
0
  0
BLOCK
  8
0
  2
416C
 70
     0
 10
0.0
 20
0.0
 30
0.0
  3
416C
  1

  0
LINE
  5
B1E
  8
0
 62
     3
 10
27.75131
 20
37.28135
 30
0.0
 11
25.0047
 21
37.28135
 31
0.0
  0
LINE
  5
B1F
  8
0
 62
     3
 10
27.03689
 20
38.71019
 30
0.0
 11
27.03689
 21
41.21066
 31
0.0
  0
ARC
  5
B20
  8
0
 62
     3
 10
24.17921
 20
40.85345
 30
0.0
 40
3.5721
 50
283.361526
 51
323.130096
  0
ARC
  5
B21
  8
0
 62
     3
 10
24.17921
 20
39.0674
 30
0.0
 40
3.5721
 50
36.869904
 51
76.638474
  0
LINE
  5
B22
  8
0
 62
     3
 10
25.60805
 20
37.28135
 30
0.0
 11
25.60805
 21
37.57957
 31
0.0
  0
LINE
  5
B23
  8
0
 62
     3
 10
25.0047
 20
44.31448
 30
0.0
 11
25.60805
 21
43.71113
 31
0.0
  0
LINE
  5
B24
  8
0
 62
     3
 10
25.60805
 20
42.34128
 30
0.0
 11
25.60805
 21
43.71113
 31
0.0
  0
LINE
  5
B25
  8
0
 62
     3
 10
27.75131
 20
35.85251
 30
0.0
 11
27.75131
 21
37.28135
 31
0.0
  0
LINE
  5
B26
  8
0
 62
     3
 10
27.75131
 20
-2.72617
 30
0.0
 11
14.89175
 21
-2.72617
 31
0.0
  0
LINE
  5
B27
  8
0
 62
     3
 10
27.75131
 20
-1.29733
 30
0.0
 11
27.75131
 21
-2.72617
 31
0.0
  0
LINE
  5
B28
  8
0
 62
     3
 10
24.17921
 20
-6.65548
 30
0.0
 11
18.46385
 21
-6.65548
 31
0.0
  0
LINE
  5
B29
  8
0
 62
     3
 10
21.32153
 20
-2.72617
 30
0.0
 11
21.32153
 21
-5.22664
 31
0.0
  0
ARC
  5
B2A
  8
0
 62
     3
 10
18.46385
 20
-3.08338
 30
0.0
 40
3.5721
 50
216.869888
 51
323.130096
  0
ARC
  5
B2B
  8
0
 62
     3
 10
24.17921
 20
-3.08338
 30
0.0
 40
3.5721
 50
216.869888
 51
323.130096
  0
LINE
  5
B2C
  8
0
 62
     3
 10
27.03689
 20
-2.72617
 30
0.0
 11
27.03689
 21
-5.22664
 31
0.0
  0
LINE
  5
B2D
  8
0
 62
     3
 10
15.60617
 20
-2.72617
 30
0.0
 11
15.60617
 21
-5.22664
 31
0.0
  0
LINE
  5
B2E
  8
0
 62
     3
 10
14.89175
 20
-1.29733
 30
0.0
 11
14.89175
 21
-2.72617
 31
0.0
  0
LINE
  5
B2F
  8
0
 62
     3
 10
28.5768
 20
15.84875
 30
0.0
 11
28.5768
 21
-1.29733
 31
0.0
  0
LINE
  5
B30
  8
0
 62
     3
 10
23.17464
 20
15.84875
 30
0.0
 11
28.5768
 21
15.84875
 31
0.0
  0
LINE
  5
B31
  8
0
 62
     3
 10
25.0047
 20
18.70643
 30
0.0
 11
28.5768
 21
18.70643
 31
0.0
  0
LINE
  5
B32
  8
0
 62
     3
 10
28.5768
 20
35.85251
 30
0.0
 11
28.5768
 21
18.70643
 31
0.0
  0
LINE
  5
B33
  8
0
 62
     3
 10
13.93119
 20
-1.29733
 30
0.0
 11
28.5768
 21
-1.29733
 31
0.0
  0
LINE
  5
B34
  8
0
 62
     3
 10
25.0047
 20
35.85251
 30
0.0
 11
28.5768
 21
35.85251
 31
0.0
  0
LINE
  5
B35
  8
0
 62
     3
 10
17.8605
 20
17.27759
 30
0.0
 11
25.0047
 21
17.27759
 31
0.0
  0
ARC
  5
B36
  8
0
 62
     3
 10
0.0
 20
17.27759
 30
0.0
 40
23.21865
 50
180.0
 51
0.0
  0
LINE
  5
B37
  8
0
 62
     3
 10
-25.0047
 20
17.27759
 30
0.0
 11
-17.8605
 21
17.27759
 31
0.0
  0
LINE
  5
B38
  8
0
 62
     3
 10
17.8605
 20
46.2116
 30
0.0
 11
17.8605
 21
17.27759
 31
0.0
  0
LINE
  5
B39
  8
0
 62
     3
 10
-17.8605
 20
46.2116
 30
0.0
 11
-17.8605
 21
17.27759
 31
0.0
  0
LINE
  5
B3A
  8
0
 62
     3
 10
-25.0047
 20
46.2116
 30
0.0
 11
25.0047
 21
46.2116
 31
0.0
  0
LINE
  5
B3B
  8
0
 62
     3
 10
-25.0047
 20
60.5
 30
0.0
 11
25.0047
 21
60.5
 31
0.0
  0
LINE
  5
B3C
  8
0
 62
     3
 10
25.0047
 20
60.5
 30
0.0
 11
25.0047
 21
17.27759
 31
0.0
  0
LINE
  5
B3D
  8
0
 62
     3
 10
-25.0047
 20
60.5
 30
0.0
 11
-25.0047
 21
17.27759
 31
0.0
  0
ENDBLK
  5
1580
  8
0
  0
ENDSEC
  0
SECTION
  2
ENTITIES
  0
LINE
  5
B3F
  8
1
 62
     3
 10
-37.50404
 20
11.0614
 30
0.0
 11
-37.50404
 21
10.4054
 31
0.0
  0
LINE
  5
B40
  8
1
 62
     3
 10
-37.50404
 20
-9.788399999999999
 30
0.0
 11
-37.50404
 21
10.3537
 31
0.0
  0
LINE
  5
B41
  8
1
 62
     3
 10
-75.50404
 20
-9.788399999999999
 30
0.0
 11
-75.50404
 21
11.0614
 31
0.0
  0
LINE
  5
B42
  8
1
 62
     3
 10
-32.02355
 20
22.6897
 30
0.0
 11
-19.50404
 21
44.374
 31
0.0
  0
LINE
  5
B43
  8
1
  6
MCDASH3
 62
     0
 10
-56.50404
 20
22.5494
 30
0.0
 11
-56.50404
 21
37.464
 31
0.0
  0
LINE
  5
B44
  8
1
 62
     3
 10
-64.53904
 20
22.6897
 30
0.0
 11
-32.02355
 21
22.6897
 31
0.0
  0
LINE
  5
B45
  8
1
 62
     3
 10
-66.50404
 20
24.6894
 30
0.0
 11
-66.50404
 21
37.877
 31
0.0
  0
LINE
  5
B46
  8
1
 62
     3
 10
-54.75404
 20
-7.3022
 30
0.0
 11
-54.75404
 21
-19.3635
 31
0.0
  0
LINE
  5
B47
  8
1
 62
     3
 10
-58.25404
 20
-7.3022
 30
0.0
 11
-58.25404
 21
-19.3635
 31
0.0
  0
LINE
  5
B48
  8
1
 62
     3
 10
-54.75404
 20
8.575200000000001
 30
0.0
 11
-54.75404
 21
4.6365
 31
0.0
  0
LINE
  5
B49
  8
1
 62
     3
 10
-58.25404
 20
8.575200000000001
 30
0.0
 11
-58.25404
 21
4.6365
 31
0.0
  0
LINE
  5
B4A
  8
1
 62
     3
 10
-54.75404
 20
18.8865
 30
0.0
 11
-54.75404
 21
8.575200000000001
 31
0.0
  0
LINE
  5
B4B
  8
1
 62
     3
 10
-58.25404
 20
18.8865
 30
0.0
 11
-58.25404
 21
8.575200000000001
 31
0.0
  0
LINE
  5
B4C
  8
1
  6
MCDASH3
 62
     0
 10
-56.50404
 20
-21.6818
 30
0.0
 11
-56.50404
 21
22.5494
 31
0.0
  0
LINE
  5
B4D
  8
1
 62
     3
 10
-80.50404
 20
-19.3635
 30
0.0
 11
-32.50404
 21
-19.3635
 31
0.0
  0
LINE
  5
B4E
  8
1
 62
     3
 10
-37.04814
 20
96.9402
 30
0.0
 11
-65.16464000000001
 21
48.2335
 31
0.0
  0
LINE
  5
B4F
  8
1
 62
     3
 10
-33.39939
 20
98.0371
 30
0.0
 11
-35.42444
 21
97.931
 31
0.0
  0
LINE
  5
B50
  8
1
 62
     3
 10
-29.53904
 20
110.4264
 30
0.0
 11
-16.50404
 21
110.6365
 31
0.0
  0
LINE
  5
B51
  8
1
 62
     3
 10
-16.50404
 20
44.6365
 30
0.0
 11
-19.50404
 21
44.374
 31
0.0
  0
LINE
  5
B52
  8
1
 62
     3
 10
-16.50404
 20
110.6365
 30
0.0
 11
-16.50404
 21
44.6365
 31
0.0
  0
LINE
  5
B53
  8
1
  6
MCDASH3
 62
     0
 10
-75.58564
 20
0.6365
 30
0.0
 11
-36.91504
 21
0.6365
 31
0.0
  0
LINE
  5
B54
  8
1
  6
MCDASH3
 62
     3
 10
-19.50404
 20
44.374
 30
0.0
 11
-19.50404
 21
44.047
 31
0.0
  0
LINE
  5
B55
  8
1
 62
     3
 10
-66.50404
 20
43.234
 30
0.0
 11
-66.50404
 21
37.877
 31
0.0
  0
LINE
  5
B56
  8
1
 62
     3
 10
-32.50404
 20
-19.3635
 30
0.0
 11
-32.50404
 21
-6.8691
 31
0.0
  0
LINE
  5
B57
  8
1
 62
     3
 10
-77.36984
 20
35.4681
 30
0.0
 11
-66.50404
 21
37.877
 31
0.0
  0
LINE
  5
B58
  8
1
 62
     3
 10
-80.50404
 20
-19.3635
 30
0.0
 11
-80.50404
 21
-6.8691
 31
0.0
  0
LINE
  5
B59
  8
1
 62
     3
 10
-29.50434
 20
-4.9927
 30
0.0
 11
-29.50434
 21
6.2656
 31
0.0
  0
LINE
  5
B5A
  8
1
 62
     3
 10
-30.30434
 20
-6.8691
 30
0.0
 11
-35.10434
 21
-6.8691
 31
0.0
  0
LINE
  5
B5B
  8
1
 62
     3
 10
-30.30434
 20
8.142
 30
0.0
 11
-35.10434
 21
8.142
 31
0.0
  0
LINE
  5
B5C
  8
1
 62
     3
 10
-30.30434
 20
-3.1163
 30
0.0
 11
-35.10434
 21
-3.1163
 31
0.0
  0
LINE
  5
B5D
  8
1
 62
     3
 10
-30.30434
 20
4.3893
 30
0.0
 11
-35.10434
 21
4.3893
 31
0.0
  0
LINE
  5
B5E
  8
1
 62
     3
 10
-36.47554
 20
8.6365
 30
0.0
 11
-37.50404
 21
8.6365
 31
0.0
  0
LINE
  5
B5F
  8
1
 62
     3
 10
-37.50404
 20
-7.3635
 30
0.0
 11
-36.47554
 21
-7.3635
 31
0.0
  0
LINE
  5
B60
  8
1
 62
     3
 10
-35.90404
 20
8.065
 30
0.0
 11
-35.90404
 21
-6.7921
 31
0.0
  0
LINE
  5
B61
  8
1
 62
     3
 10
-75.50404
 20
8.6365
 30
0.0
 11
-76.53264
 21
8.6365
 31
0.0
  0
LINE
  5
B62
  8
1
 62
     3
 10
-76.53264
 20
-7.3635
 30
0.0
 11
-75.50404
 21
-7.3635
 31
0.0
  0
LINE
  5
B63
  8
1
 62
     3
 10
-82.60404
 20
0.6365
 30
0.0
 11
-82.60404
 21
6.2656
 31
0.0
  0
LINE
  5
B64
  8
1
 62
     3
 10
-82.00214
 20
4.3893
 30
0.0
 11
-77.10404
 21
4.3893
 31
0.0
  0
LINE
  5
B65
  8
1
 62
     3
 10
-82.00214
 20
8.142
 30
0.0
 11
-77.10404
 21
8.142
 31
0.0
  0
LINE
  5
B66
  8
1
 62
     3
 10
-82.60404
 20
-4.9927
 30
0.0
 11
-82.60404
 21
0.6365
 31
0.0
  0
LINE
  5
B67
  8
1
 62
     3
 10
-77.10404
 20
-3.1163
 30
0.0
 11
-82.00214
 21
-3.1163
 31
0.0
  0
LINE
  5
B68
  8
1
 62
     3
 10
-77.10404
 20
-6.8691
 30
0.0
 11
-82.00214
 21
-6.8691
 31
0.0
  0
LINE
  5
B69
  8
1
 62
     3
 10
-29.50434
 20
-4.9927
 30
0.0
 11
-29.50434
 21
6.2656
 31
0.0
  0
LINE
  5
B6A
  8
1
 62
     3
 10
-30.30434
 20
-6.8691
 30
0.0
 11
-35.10434
 21
-6.8691
 31
0.0
  0
LINE
  5
B6B
  8
1
 62
     3
 10
-30.30434
 20
8.142
 30
0.0
 11
-35.10434
 21
8.142
 31
0.0
  0
LINE
  5
B6C
  8
1
 62
     3
 10
-30.30434
 20
-3.1163
 30
0.0
 11
-35.10434
 21
-3.1163
 31
0.0
  0
LINE
  5
B6D
  8
1
 62
     3
 10
-30.30434
 20
4.3893
 30
0.0
 11
-35.10434
 21
4.3893
 31
0.0
  0
LINE
  5
B6E
  8
1
 62
     3
 10
-35.90404
 20
8.065
 30
0.0
 11
-35.90404
 21
-6.7921
 31
0.0
  0
LINE
  5
B6F
  8
1
 62
     3
 10
-75.50404
 20
8.6365
 30
0.0
 11
-76.53264
 21
8.6365
 31
0.0
  0
LINE
  5
B70
  8
1
 62
     3
 10
-76.53264
 20
-7.3635
 30
0.0
 11
-75.50404
 21
-7.3635
 31
0.0
  0
LINE
  5
B71
  8
1
 62
     3
 10
-77.10404
 20
-6.7921
 30
0.0
 11
-77.10404
 21
8.065
 31
0.0
  0
LINE
  5
B72
  8
1
 62
     3
 10
-82.60404
 20
0.6365
 30
0.0
 11
-82.60404
 21
6.2656
 31
0.0
  0
LINE
  5
B73
  8
1
 62
     3
 10
-82.60404
 20
-4.9927
 30
0.0
 11
-82.60404
 21
0.6365
 31
0.0
  0
LINE
  5
B74
  8
1
 62
     3
 10
-75.50404
 20
8.6365
 30
0.0
 11
-76.53264
 21
8.6365
 31
0.0
  0
LINE
  5
B75
  8
1
 62
     3
 10
-32.50404
 20
8.142
 30
0.0
 11
-32.50404
 21
22.6897
 31
0.0
  0
LINE
  5
B76
  8
1
 62
     3
 10
-80.50404
 20
8.142
 30
0.0
 11
-80.50404
 21
31.5629
 31
0.0
  0
LINE
  5
B77
  8
1
 62
     3
 10
-58.25404
 20
4.6365
 30
0.0
 11
-54.75404
 21
4.6365
 31
0.0
  0
LINE
  5
B78
  8
1
 62
     3
 10
-58.25404
 20
4.6365
 30
0.0
 11
-58.25404
 21
-3.3635
 31
0.0
  0
LINE
  5
B79
  8
1
 62
     3
 10
-54.75404
 20
4.6365
 30
0.0
 11
-54.75404
 21
-3.3635
 31
0.0
  0
LINE
  5
B7A
  8
1
 62
     3
 10
-58.25404
 20
-3.3635
 30
0.0
 11
-54.75404
 21
-3.3635
 31
0.0
  0
LINE
  5
B7B
  8
1
 62
     3
 10
-58.25404
 20
-3.3635
 30
0.0
 11
-58.25404
 21
-7.3022
 31
0.0
  0
LINE
  5
B7C
  8
1
 62
     3
 10
-54.75404
 20
-3.3635
 30
0.0
 11
-54.75404
 21
-7.3022
 31
0.0
  0
ARC
  5
B7D
  8
1
 62
     3
 10
-55.00974
 20
57.9787
 30
0.0
 40
49.4042
 50
270.296463
 51
289.923538
  0
ARC
  5
B7E
  8
1
 62
     3
 10
-55.00974
 20
-56.7057
 30
0.0
 40
49.4042
 50
70.07646200000001
 51
70.87056
  0
ARC
  5
B7F
  8
1
 62
     3
 10
-57.99844
 20
-56.7057
 30
0.0
 40
49.4042
 50
90.296463
 51
109.923538
  0
ARC
  5
B80
  8
1
 62
     3
 10
-57.99844
 20
57.9787
 30
0.0
 40
49.4042
 50
250.076462
 51
269.703537
  0
ARC
  5
B81
  8
1
 62
     3
 10
-55.00974
 20
-56.7057
 30
0.0
 40
49.4042
 50
70.87056
 51
89.703537
  0
ARC
  5
B82
  8
1
 62
     3
 10
-38.70644
 20
0.6365
 30
0.0
 40
9.2021
 50
335.932159
 51
24.067856
  0
ARC
  5
B83
  8
1
 62
     3
 10
-26.70224
 20
0.6365
 30
0.0
 40
9.2021
 50
155.932159
 51
204.067856
  0
ARC
  5
B84
  8
1
 62
     3
 10
-32.10484
 20
-4.9927
 30
0.0
 40
2.6005
 50
313.817963
 51
46.182053
  0
ARC
  5
B85
  8
1
 62
     3
 10
-33.30374
 20
-4.9927
 30
0.0
 40
2.6005
 50
133.817963
 51
226.182053
  0
ARC
  5
B86
  8
1
 62
     3
 10
-32.10484
 20
6.2656
 30
0.0
 40
2.6005
 50
313.817963
 51
46.182053
  0
ARC
  5
B87
  8
1
 62
     3
 10
-33.30374
 20
6.2656
 30
0.0
 40
2.6005
 50
133.817963
 51
226.182053
  0
ARC
  5
B88
  8
1
 62
     3
 10
-36.47554
 20
8.065
 30
0.0
 40
0.5714
 50
0.0
 51
90.0
  0
ARC
  5
B89
  8
1
 62
     3
 10
-36.47554
 20
-6.7921
 30
0.0
 40
0.5714
 50
270.0
 51
0.0
  0
ARC
  5
B8A
  8
1
 62
     3
 10
-76.53264
 20
8.065
 30
0.0
 40
0.5714
 50
90.0
 51
180.0
  0
ARC
  5
B8B
  8
1
 62
     3
 10
-76.53264
 20
-6.7921
 30
0.0
 40
0.5714
 50
180.0
 51
270.0
  0
ARC
  5
B8C
  8
1
 62
     3
 10
-79.37833999999999
 20
6.2656
 30
0.0
 40
3.2257
 50
144.429993
 51
180.0
  0
ARC
  5
B8D
  8
1
 62
     3
 10
-70.60404
 20
0.6365
 30
0.0
 40
12.0
 50
161.776093
 51
180.0
  0
ARC
  5
B8E
  8
1
 62
     3
 10
-79.37833999999999
 20
6.2656
 30
0.0
 40
3.2257
 50
180.0
 51
215.570007
  0
ARC
  5
B8F
  8
1
 62
     3
 10
-79.37833999999999
 20
-4.9927
 30
0.0
 40
3.2257
 50
180.0
 51
215.570007
  0
ARC
  5
B90
  8
1
 62
     3
 10
-70.60404
 20
0.6365
 30
0.0
 40
12.0
 50
180.0
 51
198.223907
  0
ARC
  5
B91
  8
1
 62
     3
 10
-79.37833999999999
 20
-4.9927
 30
0.0
 40
3.2257
 50
144.429993
 51
180.0
  0
ARC
  5
B92
  8
1
 62
     3
 10
-38.70644
 20
0.6365
 30
0.0
 40
9.2021
 50
335.932159
 51
24.067856
  0
ARC
  5
B93
  8
1
 62
     3
 10
-26.70224
 20
0.6365
 30
0.0
 40
9.2021
 50
155.932159
 51
204.067856
  0
ARC
  5
B94
  8
1
 62
     3
 10
-32.10484
 20
-4.9927
 30
0.0
 40
2.6005
 50
313.817963
 51
46.182053
  0
ARC
  5
B95
  8
1
 62
     3
 10
-33.30374
 20
-4.9927
 30
0.0
 40
2.6005
 50
133.817963
 51
226.182053
  0
ARC
  5
B96
  8
1
 62
     3
 10
-32.10484
 20
6.2656
 30
0.0
 40
2.6005
 50
313.817963
 51
46.182053
  0
ARC
  5
B97
  8
1
 62
     3
 10
-33.30374
 20
6.2656
 30
0.0
 40
2.6005
 50
133.817963
 51
226.182053
  0
ARC
  5
B98
  8
1
 62
     3
 10
-76.53264
 20
8.065
 30
0.0
 40
0.5714
 50
90.0
 51
180.0
  0
ARC
  5
B99
  8
1
 62
     3
 10
-76.53264
 20
-6.7921
 30
0.0
 40
0.5714
 50
180.0
 51
270.0
  0
ARC
  5
B9A
  8
1
 62
     3
 10
-79.37833999999999
 20
6.2656
 30
0.0
 40
3.2257
 50
144.429993
 51
180.0
  0
ARC
  5
B9B
  8
1
 62
     3
 10
-70.60404
 20
0.6365
 30
0.0
 40
12.0
 50
161.776093
 51
180.0
  0
ARC
  5
B9C
  8
1
 62
     3
 10
-79.37833999999999
 20
6.2656
 30
0.0
 40
3.2257
 50
180.0
 51
215.570007
  0
ARC
  5
B9D
  8
1
 62
     3
 10
-79.37833999999999
 20
-4.9927
 30
0.0
 40
3.2257
 50
180.0
 51
215.570007
  0
ARC
  5
B9E
  8
1
 62
     3
 10
-70.60404
 20
0.6365
 30
0.0
 40
12.0
 50
180.0
 51
198.223907
  0
ARC
  5
B9F
  8
1
 62
     3
 10
-79.37833999999999
 20
-4.9927
 30
0.0
 40
3.2257
 50
144.429993
 51
180.0
  0
ARC
  5
BA0
  8
1
 62
     3
 10
-76.53264
 20
8.065
 30
0.0
 40
0.5714
 50
90.0
 51
180.0
  0
ARC
  5
BA1
  8
1
 62
     3
 10
-79.37833999999999
 20
6.2656
 30
0.0
 40
3.2257
 50
144.429993
 51
180.0
  0
ARC
  5
BA2
  8
1
 62
     3
 10
-79.37833999999999
 20
6.2656
 30
0.0
 40
3.2257
 50
180.0
 51
215.570007
  0
ARC
  5
BA3
  8
1
 62
     3
 10
-38.00404
 20
11.0614
 30
0.0
 40
0.5
 50
0.0
 51
109.923538
  0
ARC
  5
BA4
  8
1
 62
     3
 10
-38.00404
 20
-9.788399999999999
 30
0.0
 40
0.5
 50
250.076462
 51
0.0
  0
ARC
  5
BA5
  8
1
 62
     3
 10
-75.00404
 20
-9.788399999999999
 30
0.0
 40
0.5
 50
180.0
 51
289.923538
  0
ARC
  5
BA6
  8
1
 62
     3
 10
-75.00404
 20
11.0614
 30
0.0
 40
0.5
 50
70.07646200000001
 51
180.0
  0
ARC
  5
BA7
  8
1
 62
     3
 10
-64.50404
 20
24.6894
 30
0.0
 40
2.0
 50
180.0
 51
269.0
  0
ARC
  5
BA8
  8
1
 62
     3
 10
-56.50404
 20
18.8865
 30
0.0
 40
1.75
 50
0.0
 51
90.0
  0
ARC
  5
BA9
  8
1
 62
     3
 10
-56.50404
 20
18.8865
 30
0.0
 40
1.75
 50
90.0
 51
180.0
  0
ARC
  5
BAA
  8
1
 62
     3
 10
-35.31974
 20
95.93380000000001
 30
0.0
 40
2.0
 50
93.0
 51
149.788132
  0
ARC
  5
BAB
  8
1
 62
     3
 10
-29.50404
 20
108.4267
 30
0.0
 40
2.0
 50
91.0
 51
180.0
  0
ARC
  5
BAC
  8
1
 62
     3
 10
-56.50404
 20
43.234
 30
0.0
 40
10.0
 50
150.003754
 51
180.0
  0
ARC
  5
BAD
  8
1
 62
     3
 10
-76.50404
 20
31.5629
 30
0.0
 40
4.0
 50
102.5
 51
180.0
  0
ARC
  5
BAE
  8
1
 62
     3
 10
-33.50404
 20
100.03436
 30
0.0
 40
2.0
 50
272.999283
 51
0.0
  0
LINE
  5
BAF
  8
1
 62
     3
 10
-31.50404
 20
108.4267
 30
0.0
 11
-31.50404
 21
100.03436
 31
0.0
  0
LINE
  5
BB0
  8
1
  6
MCDASH4
 62
     0
 10
-31.50404
 20
100.03436
 30
0.0
 11
-31.50404
 21
45.63635
 31
0.0
  0
LINE
  5
BB1
  8
1
  6
MCDASH4
 62
     0
 10
-66.50404
 20
37.877
 30
0.0
 11
-31.50404
 21
45.63635
 31
0.0
  0
LINE
  5
BB2
  8
1
 62
     3
 10
65.49596
 20
-19.53644
 30
0.0
 11
65.49596
 21
-8.84474
 31
0.0
  0
LINE
  5
BB3
  8
1
 62
     3
 10
65.49636
 20
9.77176
 30
0.0
 11
66.89006000000001
 21
9.39836
 31
0.0
  0
LINE
  5
BB4
  8
1
 62
     3
 10
65.49636
 20
22.29806
 30
0.0
 11
65.49636
 21
9.77176
 31
0.0
  0
LINE
  5
BB5
  8
1
 62
     3
 10
65.49636
 20
22.29806
 30
0.0
 11
65.49656
 21
34.60046
 31
0.0
  0
LINE
  5
BB6
  8
1
 62
     3
 10
56.15886
 20
-11.34674
 30
0.0
 11
66.89006000000001
 21
-8.47124
 31
0.0
  0
LINE
  5
BB7
  8
1
 62
     3
 10
56.15886
 20
12.27376
 30
0.0
 11
56.15886
 21
-11.34674
 31
0.0
  0
LINE
  5
BB8
  8
1
 62
     3
 10
56.15886
 20
12.27376
 30
0.0
 11
65.49636
 21
9.77176
 31
0.0
  0
LINE
  5
BB9
  8
1
  6
MCDASH3
 62
     0
 10
64.49596
 20
7.11076
 30
0.0
 11
64.49596
 21
-6.45564
 31
0.0
  0
LINE
  5
BBA
  8
1
 62
     3
 10
16.49596
 20
95.96356
 30
0.0
 11
16.49596
 21
100.14976
 31
0.0
  0
LINE
  5
BBB
  8
1
 62
     3
 10
66.49596
 20
95.96356
 30
0.0
 11
66.49596
 21
100.14976
 31
0.0
  0
LINE
  5
BBC
  8
1
 62
     3
 10
16.49596
 20
97.96356
 30
0.0
 11
19.99596
 21
97.96356
 31
0.0
  0
LINE
  5
BBD
  8
1
 62
     3
 10
66.49596
 20
95.96356
 30
0.0
 11
66.49596
 21
44.46356
 31
0.0
  0
LINE
  5
BBE
  8
1
 62
     3
 10
16.49596
 20
95.96356
 30
0.0
 11
16.49596
 21
44.46356
 31
0.0
  0
LINE
  5
BBF
  8
1
 62
     3
 10
66.49596
 20
97.96356
 30
0.0
 11
59.49596
 21
97.96356
 31
0.0
  0
LINE
  5
BC0
  8
1
 62
     3
 10
19.99596
 20
97.96356
 30
0.0
 11
23.49596
 21
97.96356
 31
0.0
  0
LINE
  5
BC1
  8
1
 62
     3
 10
23.49596
 20
97.96356
 30
0.0
 11
23.49596
 21
45.46356
 31
0.0
  0
LINE
  5
BC2
  8
1
 62
     3
 10
59.49596
 20
45.46356
 30
0.0
 11
59.49596
 21
97.96356
 31
0.0
  0
LINE
  5
BC3
  8
1
  6
MCDASH3
 62
     0
 10
41.49596
 20
114.17786
 30
0.0
 11
41.49596
 21
-24.44384
 31
0.0
  0
LINE
  5
BC4
  8
1
 62
     3
 10
16.49596
 20
23.29806
 30
0.0
 11
16.49596
 21
44.46356
 31
0.0
  0
LINE
  5
BC5
  8
1
 62
     3
 10
66.49596
 20
23.29806
 30
0.0
 11
66.49596
 21
44.46356
 31
0.0
  0
LINE
  5
BC6
  8
1
 62
     3
 10
17.49596
 20
-19.53644
 30
0.0
 11
65.49596
 21
-19.53644
 31
0.0
  0
LINE
  5
BC7
  8
1
 62
     3
 10
17.49596
 20
-19.53644
 30
0.0
 11
17.49596
 21
34.60046
 31
0.0
  0
LINE
  5
BC8
  8
1
 62
     3
 10
23.49596
 20
45.46356
 30
0.0
 11
23.49596
 21
37.19556
 31
0.0
  0
LINE
  5
BC9
  8
1
 62
     3
 10
59.49596
 20
45.46356
 30
0.0
 11
59.49596
 21
37.19546
 31
0.0
  0
LINE
  5
BCA
  8
1
  6
MCDASH3
 62
     0
 10
75.35316
 20
0.46356
 30
0.0
 11
57.40806
 21
0.46356
 31
0.0
  0
LINE
  5
BCB
  8
1
  6
MCDASH3
 62
     0
 10
37.24596
 20
77.46356
 30
0.0
 11
45.74596
 21
77.46356
 31
0.0
  0
LINE
  5
BCC
  8
1
  6
MCDASH3
 62
     0
 10
37.24596
 20
54.96356
 30
0.0
 11
45.74596
 21
54.96356
 31
0.0
  0
LINE
  5
BCD
  8
1
  6
MCDASH3
 62
     0
 10
33.82796
 20
98.45056
 30
0.0
 11
33.56126
 21
99.96356
 31
0.0
  0
LINE
  5
BCE
  8
1
  6
MCDASH3
 62
     0
 10
49.17186
 20
98.49606
 30
0.0
 11
49.43066
 21
99.96356
 31
0.0
  0
LINE
  5
BCF
  8
1
  6
MCDASH3
 62
     0
 10
40.85086
 20
102.21356
 30
0.0
 11
42.14266
 21
102.21356
 31
0.0
  0
LINE
  5
BD0
  8
1
 62
     3
 10
68.24876
 20
-6.03644
 30
0.0
 11
72.00145999999999
 21
0.46356
 31
0.0
  0
LINE
  5
BD1
  8
1
 62
     3
 10
72.00145999999999
 20
0.46356
 30
0.0
 11
68.24876
 21
6.96356
 31
0.0
  0
LINE
  5
BD2
  8
1
 62
     3
 10
68.24876
 20
6.96356
 30
0.0
 11
60.74316
 21
6.96356
 31
0.0
  0
LINE
  5
BD3
  8
1
 62
     3
 10
60.74316
 20
6.96356
 30
0.0
 11
56.99036
 21
0.46356
 31
0.0
  0
LINE
  5
BD4
  8
1
 62
     3
 10
56.99036
 20
0.46356
 30
0.0
 11
60.74316
 21
-6.03644
 31
0.0
  0
LINE
  5
BD5
  8
1
 62
     3
 10
60.74316
 20
-6.03644
 30
0.0
 11
68.24876
 21
-6.03644
 31
0.0
  0
ARC
  5
BD6
  8
1
 62
     3
 10
64.49596
 20
0.46356
 30
0.0
 40
9.25
 50
285.0
 51
75.0
  0
ARC
  5
BD7
  8
1
 62
     3
 10
41.49626
 20
119.78726
 30
0.0
 40
88.5031
 50
254.265472
 51
285.734528
  0
ARC
  5
BD8
  8
1
 62
     3
 10
47.06426
 20
26.83846
 30
0.0
 40
20.0
 50
22.836456
 51
32.154465
  0
ARC
  5
BD9
  8
1
 62
     3
 10
35.92826
 20
26.83846
 30
0.0
 40
20.0
 50
147.845535
 51
157.163544
  0
ARC
  5
BDA
  8
1
 62
     3
 10
41.49596
 20
60.46356
 30
0.0
 40
50.0
 50
90.0
 51
115.583008
  0
ARC
  5
BDB
  8
1
 62
     3
 10
41.49596
 20
60.46356
 30
0.0
 40
50.0
 50
64.41699199999999
 51
90.0
  0
ARC
  5
BDC
  8
1
 62
     3
 10
41.49626
 20
119.90086
 30
0.0
 40
85.4345
 50
254.730255
 51
285.26973
  0
ARC
  5
BDD
  8
1
  6
MCDASH4
 62
     0
 10
41.49596
 20
102.21356
 30
0.0
 40
4.25
 50
25.666199
 51
154.333801
  0
ARC
  5
BDE
  8
1
 62
     3
 10
41.49596
 20
54.96356
 30
0.0
 40
49.25
 50
80.0
 51
100.0
  0
ARC
  5
BDF
  8
1
 62
     3
 10
33.68176
 20
99.27986
 30
0.0
 40
4.25
 50
100.0
 51
280.0
  0
ARC
  5
BE0
  8
1
 62
     3
 10
41.49596
 20
54.96356
 30
0.0
 40
40.75
 50
80.0
 51
100.0
  0
ARC
  5
BE1
  8
1
 62
     3
 10
49.31016
 20
99.27986
 30
0.0
 40
4.25
 50
260.0
 51
80.0
  0
ARC
  5
BE2
  8
1
  6
MCDASH3
 62
     0
 10
41.49596
 20
54.96356
 30
0.0
 40
45.0
 50
73.70895400000001
 51
106.843185
  0
CIRCLE
  5
BE3
  8
1
 62
     3
 10
41.49596
 20
54.96356
 30
0.0
 40
4.25
  0
CIRCLE
  5
BE4
  8
1
 62
     3
 10
41.49596
 20
77.46356
 30
0.0
 40
4.25
  0
CIRCLE
  5
BE5
  8
1
 62
     3
 10
64.49596
 20
0.46356
 30
0.0
 40
8.0
  0
ARC
  5
BE6
  8
1
 62
     3
 10
60.49596
 20
100.14976
 30
0.0
 40
6.0
 50
0.0
 51
64.41699199999999
  0
ARC
  5
BE7
  8
1
 62
     3
 10
22.49596
 20
100.14976
 30
0.0
 40
6.0
 50
115.583008
 51
180.0
  0
ARC
  5
BE8
  8
1
 62
     3
 10
17.49596
 20
23.29806
 30
0.0
 40
1.0
 50
180.0
 51
270.0
  0
ARC
  5
BE9
  8
1
 62
     3
 10
65.49596
 20
23.29806
 30
0.0
 40
1.0
 50
270.0221560000001
 51
0.0
  0
ARC
  5
BEA
  8
1
 62
     3
 10
24.49596
 20
37.19556
 30
0.0
 40
1.0
 50
180.0
 51
258.384476
  0
ARC
  5
BEB
  8
1
 62
     3
 10
58.49596
 20
37.19546
 30
0.0
 40
1.0
 50
281.615082
 51
0.0
  0
LINE
  5
BEC
  8
1
  6
MCDASH3
 62
     0
 10
64.45789000000001
 20
-96.14834000000001
 30
0.0
 11
64.45789000000001
 21
-114.42214
 31
0.0
  0
LINE
  5
BED
  8
1
 62
     3
 10
65.72909
 20
-89.07214000000001
 30
0.0
 11
65.79019
 21
-85.57214000000001
 31
0.0
  0
LINE
  5
BEE
  8
1
 62
     3
 10
73.70789000000001
 20
-89.07214000000001
 30
0.0
 11
68.45789000000001
 21
-89.07214000000001
 31
0.0
  0
LINE
  5
BEF
  8
1
 62
     3
 10
65.79019
 20
-85.57214000000001
 30
0.0
 11
65.79459
 21
-85.32214000000001
 31
0.0
  0
LINE
  5
BF0
  8
1
 62
     3
 10
65.79019
 20
-85.57214000000001
 30
0.0
 11
68.45789000000001
 21
-85.57214000000001
 31
0.0
  0
LINE
  5
BF1
  8
1
 62
     3
 10
73.70789000000001
 20
-89.07214000000001
 30
0.0
 11
73.70789000000001
 21
-105.82214
 31
0.0
  0
LINE
  5
BF2
  8
1
 62
     3
 10
73.70789000000001
 20
-68.82214000000001
 30
0.0
 11
73.70789000000001
 21
-85.57214000000001
 31
0.0
  0
LINE
  5
BF3
  8
1
 62
     3
 10
56.12079
 20
-106.32214
 30
0.0
 11
73.20789000000001
 21
-106.32214
 31
0.0
  0
LINE
  5
BF4
  8
1
 62
     3
 10
66.10879
 20
-68.32214000000001
 30
0.0
 11
66.07389000000001
 21
-70.32214000000001
 31
0.0
  0
LINE
  5
BF5
  8
1
 62
     3
 10
66.10879
 20
-68.32214000000001
 30
0.0
 11
73.20789000000001
 21
-68.32214000000001
 31
0.0
  0
LINE
  5
BF6
  8
1
 62
     3
 10
19.64049
 20
-97.32214000000001
 30
0.0
 11
19.45789
 21
-97.32214000000001
 31
0.0
  0
LINE
  5
BF7
  8
1
  6
MCDASH3
 62
     0
 10
41.45789
 20
-43.59364
 30
0.0
 11
41.45789
 21
-113.62004
 31
0.0
  0
LINE
  5
BF8
  8
1
  6
MCDASH3
 62
     0
 10
75.55459000000001
 20
-87.32214000000001
 30
0.0
 11
15.79899
 21
-87.32214000000001
 31
0.0
  0
LINE
  5
BF9
  8
1
 62
     3
 10
65.72909
 20
-89.07214000000001
 30
0.0
 11
65.61939
 21
-95.35704
 31
0.0
  0
LINE
  5
BFA
  8
1
 62
     3
 10
16.45789
 20
-47.32214
 30
0.0
 11
16.66799
 21
-60.35704
 31
0.0
  0
LINE
  5
BFB
  8
1
 62
     3
 10
66.45789000000001
 20
-47.32214
 30
0.0
 11
16.45789
 21
-47.32214
 31
0.0
  0
LINE
  5
BFC
  8
1
 62
     3
 10
66.07389000000001
 20
-70.32214000000001
 30
0.0
 11
65.79459
 21
-85.32214000000001
 31
0.0
  0
LINE
  5
BFD
  8
1
 62
     3
 10
63.61969
 20
-97.32214000000001
 30
0.0
 11
59.45789
 21
-97.32214000000001
 31
0.0
  0
LINE
  5
BFE
  8
1
 62
     3
 10
66.24779
 20
-60.35704
 30
0.0
 11
66.45789000000001
 21
-47.32214
 31
0.0
  0
LINE
  5
BFF
  8
1
 62
     3
 10
23.45789
 20
-63.32214
 30
0.0
 11
23.45789
 21
-97.32214000000001
 31
0.0
  0
LINE
  5
C00
  8
1
 62
     3
 10
24.45789
 20
-62.32214
 30
0.0
 11
58.45789
 21
-62.32214
 31
0.0
  0
LINE
  5
C01
  8
1
 62
     3
 10
59.45789
 20
-63.32214
 30
0.0
 11
59.45789
 21
-97.32214000000001
 31
0.0
  0
LINE
  5
C02
  8
1
 62
     3
 10
23.45789
 20
-97.32214000000001
 30
0.0
 11
19.29599
 21
-97.32214000000001
 31
0.0
  0
LINE
  5
C03
  8
1
 62
     3
 10
63.45789
 20
-97.32214000000001
 30
0.0
 11
63.27529
 21
-97.32214000000001
 31
0.0
  0
LINE
  5
C04
  8
1
 62
     3
 10
21.45789
 20
-62.32214
 30
0.0
 11
18.66769
 21
-62.32214
 31
0.0
  0
LINE
  5
C05
  8
1
 62
     3
 10
61.45789
 20
-62.32214
 30
0.0
 11
64.24809000000001
 21
-62.32214
 31
0.0
  0
LINE
  5
C06
  8
1
 62
     3
 10
16.66799
 20
-60.35704
 30
0.0
 11
17.29629
 21
-95.35704
 31
0.0
  0
LINE
  5
C07
  8
1
 62
     3
 10
66.24779
 20
-60.35704
 30
0.0
 11
66.10879
 21
-68.32214000000001
 31
0.0
  0
LINE
  5
C08
  8
1
 62
     3
 10
24.45789
 20
-62.32214
 30
0.0
 11
21.45789
 21
-62.32214
 31
0.0
  0
LINE
  5
C09
  8
1
 62
     3
 10
58.45789
 20
-62.32214
 30
0.0
 11
61.45789
 21
-62.32214
 31
0.0
  0
LINE
  5
C0A
  8
1
 62
     3
 10
70.08709
 20
-60.32234
 30
0.0
 11
66.24839
 21
-60.32234
 31
0.0
  0
LINE
  5
C0B
  8
1
 62
     3
 10
71.96339
 20
-61.12234
 30
0.0
 11
71.96339
 21
-65.92234000000001
 31
0.0
  0
LINE
  5
C0C
  8
1
 62
     3
 10
68.21069
 20
-61.12234
 30
0.0
 11
68.21069
 21
-65.92234000000001
 31
0.0
  0
LINE
  5
C0D
  8
1
 62
     3
 10
72.45789000000001
 20
-68.32214000000001
 30
0.0
 11
72.45789000000001
 21
-67.29364
 31
0.0
  0
LINE
  5
C0E
  8
1
 62
     3
 10
56.45789
 20
-106.32214
 30
0.0
 11
56.45789
 21
-107.35074
 31
0.0
  0
LINE
  5
C0F
  8
1
 62
     3
 10
72.45789000000001
 20
-107.35074
 30
0.0
 11
72.45789000000001
 21
-106.32214
 31
0.0
  0
LINE
  5
C10
  8
1
 62
     3
 10
71.88649
 20
-107.92214
 30
0.0
 11
57.02929
 21
-107.92214
 31
0.0
  0
LINE
  5
C11
  8
1
 62
     3
 10
64.45789000000001
 20
-113.42214
 30
0.0
 11
58.82869
 21
-113.42214
 31
0.0
  0
LINE
  5
C12
  8
1
 62
     3
 10
60.70509
 20
-112.82024
 30
0.0
 11
60.70509
 21
-107.92214
 31
0.0
  0
LINE
  5
C13
  8
1
 62
     3
 10
56.95229
 20
-112.82024
 30
0.0
 11
56.95229
 21
-107.92214
 31
0.0
  0
LINE
  5
C14
  8
1
 62
     3
 10
70.08709
 20
-113.42214
 30
0.0
 11
64.45789000000001
 21
-113.42214
 31
0.0
  0
LINE
  5
C15
  8
1
 62
     3
 10
68.21069
 20
-107.92214
 30
0.0
 11
68.21069
 21
-112.82024
 31
0.0
  0
LINE
  5
C16
  8
1
 62
     3
 10
71.96339
 20
-107.92214
 30
0.0
 11
71.96339
 21
-112.82024
 31
0.0
  0
LINE
  5
C17
  8
1
 62
     3
 10
66.13669
 20
-66.72214
 30
0.0
 11
71.88649
 21
-66.72214
 31
0.0
  0
LINE
  5
C18
  8
1
 62
     3
 10
68.45789000000001
 20
-89.07214000000001
 30
0.0
 11
68.45789000000001
 21
-85.57214000000001
 31
0.0
  0
LINE
  5
C19
  8
1
 62
     3
 10
68.45789000000001
 20
-89.07214000000001
 30
0.0
 11
65.72909
 21
-89.07214000000001
 31
0.0
  0
LINE
  5
C1A
  8
1
 62
     3
 10
68.45789000000001
 20
-85.57214000000001
 30
0.0
 11
73.70789000000001
 21
-85.57214000000001
 31
0.0
  0
ARC
  5
C1B
  8
1
 62
     3
 10
41.45789
 20
-87.32214000000001
 30
0.0
 40
24.0
 50
204.624313
 51
307.658463
  0
ARC
  5
C1C
  8
1
 62
     3
 10
41.45789
 20
-87.32214000000001
 30
0.0
 40
24.0
 50
307.658463
 51
335.375687
  0
ARC
  5
C1D
  8
1
 62
     3
 10
64.45789000000001
 20
-57.52034
 30
0.0
 40
9.2021
 50
280.529022
 51
294.067856
  0
ARC
  5
C1E
  8
1
 62
     3
 10
70.08709
 20
-62.92294
 30
0.0
 40
2.6005
 50
43.817963
 51
136.182053
  0
ARC
  5
C1F
  8
1
 62
     3
 10
70.08709
 20
-64.12184000000001
 30
0.0
 40
2.6005
 50
223.817963
 51
316.182053
  0
ARC
  5
C20
  8
1
 62
     3
 10
71.88649
 20
-67.29364
 30
0.0
 40
0.5714
 50
0.0
 51
90.0
  0
ARC
  5
C21
  8
1
 62
     3
 10
57.02929
 20
-107.35074
 30
0.0
 40
0.5714
 50
180.0
 51
270.0
  0
ARC
  5
C22
  8
1
 62
     3
 10
71.88649
 20
-107.35074
 30
0.0
 40
0.5714
 50
270.0
 51
0.0
  0
ARC
  5
C23
  8
1
 62
     3
 10
58.82869
 20
-110.19644
 30
0.0
 40
3.2257
 50
234.429993
 51
270.0
  0
ARC
  5
C24
  8
1
 62
     3
 10
64.45789000000001
 20
-101.42214
 30
0.0
 40
12.0
 50
251.776093
 51
270.0
  0
ARC
  5
C25
  8
1
 62
     3
 10
58.82869
 20
-110.19644
 30
0.0
 40
3.2257
 50
270.0
 51
305.570007
  0
ARC
  5
C26
  8
1
 62
     3
 10
70.08709
 20
-110.19644
 30
0.0
 40
3.2257
 50
270.0
 51
305.570007
  0
ARC
  5
C27
  8
1
 62
     3
 10
64.45789000000001
 20
-101.42214
 30
0.0
 40
12.0
 50
270.0
 51
288.223907
  0
ARC
  5
C28
  8
1
 62
     3
 10
70.08709
 20
-110.19644
 30
0.0
 40
3.2257
 50
234.429993
 51
270.0
  0
ARC
  5
C29
  8
1
 62
     3
 10
64.45789000000001
 20
-69.52444
 30
0.0
 40
9.2021
 50
65.932159
 51
78.79927100000001
  0
ARC
  5
C2A
  8
1
 62
     3
 10
73.20789000000001
 20
-68.82214000000001
 30
0.0
 40
0.5
 50
0.0
 51
90.0
  0
ARC
  5
C2B
  8
1
 62
     3
 10
73.20789000000001
 20
-105.82214
 30
0.0
 40
0.5
 50
270.0
 51
0.0
  0
ARC
  5
C2C
  8
1
 62
     3
 10
19.29599
 20
-95.32214000000001
 30
0.0
 40
2.0
 50
181.0
 51
270.0
  0
ARC
  5
C2D
  8
1
 62
     3
 10
63.61969
 20
-95.32214000000001
 30
0.0
 40
2.0
 50
270.0
 51
359.0
  0
ARC
  5
C2E
  8
1
 62
     3
 10
18.66769
 20
-60.32214
 30
0.0
 40
2.0
 50
181.0
 51
270.0
  0
ARC
  5
C2F
  8
1
 62
     3
 10
64.24809000000001
 20
-60.32214
 30
0.0
 40
2.0
 50
270.0
 51
359.0
  0
ARC
  5
C30
  8
1
 62
     3
 10
24.45789
 20
-63.32214
 30
0.0
 40
1.0
 50
90.0
 51
180.0
  0
ARC
  5
C31
  8
1
 62
     3
 10
58.45789
 20
-63.32214
 30
0.0
 40
1.0
 50
0.0
 51
90.0
  0
LINE
  5
C32
  8
1
  6
MCDASH4
 62
     0
 10
-16.50404
 20
50.71356
 30
0.0
 11
-31.50404
 21
50.71356
 31
0.0
  0
LINE
  5
C33
  8
1
  6
MCDASH4
 62
     0
 10
-16.50404
 20
59.21356
 30
0.0
 11
-31.50404
 21
59.21356
 31
0.0
  0
LINE
  5
C34
  8
1
  6
MCDASH4
 62
     0
 10
-16.50404
 20
73.21356
 30
0.0
 11
-31.50404
 21
73.21356
 31
0.0
  0
LINE
  5
C35
  8
1
  6
MCDASH4
 62
     0
 10
-16.50404
 20
81.71356
 30
0.0
 11
-31.50404
 21
81.71356
 31
0.0
  0
LINE
  5
C36
  8
1
  6
MCDASH4
 62
     0
 10
-16.50404
 20
95.71356
 30
0.0
 11
-31.50404
 21
95.71356
 31
0.0
  0
LINE
  5
C37
  8
1
  6
MCDASH4
 62
     0
 10
-16.50404
 20
104.21356
 30
0.0
 11
-31.50404
 21
104.21356
 31
0.0
  0
LINE
  5
C38
  8
1
  6
MCDASH4
 62
     0
 10
-73.35404
 20
32.6365
 30
0.0
 11
-39.65404
 21
32.6365
 31
0.0
  0
LINE
  5
C39
  8
1
  6
MCDASH4
 62
     0
 10
-39.65404
 20
-19.3635
 30
0.0
 11
-39.65404
 21
32.6365
 31
0.0
  0
LINE
  5
C3A
  8
1
  6
MCDASH4
 62
     0
 10
-73.35404
 20
-19.3635
 30
0.0
 11
-73.35404
 21
32.6365
 31
0.0
  0
LINE
  5
C3B
  8
1
  6
MCDASH4
 62
     0
 10
24.64596
 20
32.46356
 30
0.0
 11
58.34596
 21
32.46356
 31
0.0
  0
LINE
  5
C3C
  8
1
  6
MCDASH4
 62
     0
 10
58.34596
 20
-19.53644
 30
0.0
 11
58.34596
 21
32.46356
 31
0.0
  0
LINE
  5
C3D
  8
1
  6
MCDASH4
 62
     0
 10
24.64596
 20
-19.53644
 30
0.0
 11
24.64596
 21
32.46356
 31
0.0
  0
ENDSEC
  0
EOF
