  0
SECTION
  2
HEADER
  9
$ACADVER
  1
AC1009
  9
$DWGCODEPAGE
  3
ansi_1252
  9
$INSBASE
 10
0.0
 20
0.0
 30
0.0
  9
$EXTMIN
 10
-53.65
 20
-77.882249
 30
0.0
  9
$EXTMAX
 10
53.65
 20
77.882249
 30
0.0
  9
$LIMMIN
 10
0.0
 20
0.0
  9
$LIMMAX
 10
12.0
 20
9.0
  9
$ORTHOMODE
 70
     0
  9
$REGENMODE
 70
     1
  9
$FILLMODE
 70
     1
  9
$QTEXTMODE
 70
     0
  9
$MIRRTEXT
 70
     1
  9
$DRAGMODE
 70
     2
  9
$LTSCALE
 40
0.565348
  9
$OSMODE
 70
    37
  9
$ATTMODE
 70
     1
  9
$TEXTSIZE
 40
0.2
  9
$TRACEWID
 40
0.05
  9
$TEXTSTYLE
  7
STANDARD
  9
$CLAYER
  8
0
  9
$CELTYPE
  6
BYBLOCK
  9
$CECOLOR
 62
   256
  9
$DIMSCALE
 40
1.0
  9
$DIMASZ
 40
0.18
  9
$DIMEXO
 40
0.0625
  9
$DIMDLI
 40
0.38
  9
$DIMRND
 40
0.0
  9
$DIMDLE
 40
0.0
  9
$DIMEXE
 40
0.18
  9
$DIMTP
 40
0.0
  9
$DIMTM
 40
0.0
  9
$DIMTXT
 40
0.18
  9
$DIMCEN
 40
0.09
  9
$DIMTSZ
 40
0.0
  9
$DIMTOL
 70
     0
  9
$DIMLIM
 70
     0
  9
$DIMTIH
 70
     1
  9
$DIMTOH
 70
     1
  9
$DIMSE1
 70
     0
  9
$DIMSE2
 70
     0
  9
$DIMTAD
 70
     0
  9
$DIMZIN
 70
     0
  9
$DIMBLK
  1

  9
$DIMASO
 70
     1
  9
$DIMSHO
 70
     1
  9
$DIMPOST
  1

  9
$DIMAPOST
  1

  9
$DIMALT
 70
     0
  9
$DIMALTD
 70
     2
  9
$DIMALTF
 40
25.4
  9
$DIMLFAC
 40
1.0
  9
$DIMTOFL
 70
     0
  9
$DIMTVP
 40
0.0
  9
$DIMTIX
 70
     0
  9
$DIMSOXD
 70
     0
  9
$DIMSAH
 70
     0
  9
$DIMBLK1
  1

  9
$DIMBLK2
  1

  9
$DIMSTYLE
  2
STANDARD
  9
$DIMCLRD
 70
     0
  9
$DIMCLRE
 70
     0
  9
$DIMCLRT
 70
     0
  9
$DIMTFAC
 40
1.0
  9
$DIMGAP
 40
0.09
  9
$LUNITS
 70
     2
  9
$LUPREC
 70
     4
  9
$SKETCHINC
 40
0.1
  9
$FILLETRAD
 40
0.5
  9
$AUNITS
 70
     0
  9
$AUPREC
 70
     0
  9
$MENU
  1
.
  9
$ELEVATION
 40
0.0
  9
$PELEVATION
 40
0.0
  9
$THICKNESS
 40
0.0
  9
$LIMCHECK
 70
     0
  9
$CHAMFERA
 40
0.5
  9
$CHAMFERB
 40
0.5
  9
$SKPOLY
 70
     0
  9
$TDCREATE
 40
2453619.495997558
  9
$TDUPDATE
 40
2453619.49599757
  9
$TDINDWG
 40
0.0000000116
  9
$TDUSRTIMER
 40
0.0000000116
  9
$USRTIMER
 70
     1
  9
$ANGBASE
 50
0.0
  9
$ANGDIR
 70
     0
  9
$PDMODE
 70
     0
  9
$PDSIZE
 40
0.0
  9
$PLINEWID
 40
0.0
  9
$COORDS
 70
     1
  9
$SPLFRAME
 70
     0
  9
$SPLINETYPE
 70
     6
  9
$SPLINESEGS
 70
     8
  9
$ATTDIA
 70
     0
  9
$ATTREQ
 70
     1
  9
$HANDLING
 70
     1
  9
$HANDSEED
  5
135
  9
$SURFTAB1
 70
     6
  9
$SURFTAB2
 70
     6
  9
$SURFTYPE
 70
     6
  9
$SURFU
 70
     6
  9
$SURFV
 70
     6
  9
$UCSNAME
  2

  9
$UCSORG
 10
0.0
 20
0.0
 30
0.0
  9
$UCSXDIR
 10
1.0
 20
0.0
 30
0.0
  9
$UCSYDIR
 10
0.0
 20
1.0
 30
0.0
  9
$PUCSNAME
  2

  9
$PUCSORG
 10
0.0
 20
0.0
 30
0.0
  9
$PUCSXDIR
 10
1.0
 20
0.0
 30
0.0
  9
$PUCSYDIR
 10
0.0
 20
1.0
 30
0.0
  9
$USERI1
 70
     0
  9
$USERI2
 70
     0
  9
$USERI3
 70
     0
  9
$USERI4
 70
     0
  9
$USERI5
 70
     0
  9
$USERR1
 40
0.0
  9
$USERR2
 40
0.0
  9
$USERR3
 40
0.0
  9
$USERR4
 40
0.0
  9
$USERR5
 40
0.0
  9
$WORLDVIEW
 70
     1
  9
$SHADEDGE
 70
     3
  9
$SHADEDIF
 70
    70
  9
$TILEMODE
 70
     1
  9
$MAXACTVP
 70
    64
  9
$PLIMCHECK
 70
     0
  9
$PEXTMIN
 10
1.000000000000000E+20
 20
1.000000000000000E+20
 30
1.000000000000000E+20
  9
$PEXTMAX
 10
-1.000000000000000E+20
 20
-1.000000000000000E+20
 30
-1.000000000000000E+20
  9
$PLIMMIN
 10
0.0
 20
0.0
  9
$PLIMMAX
 10
12.0
 20
9.0
  9
$UNITMODE
 70
     0
  9
$VISRETAIN
 70
     1
  9
$PLINEGEN
 70
     0
  9
$PSLTSCALE
 70
     1
  0
ENDSEC
  0
SECTION
  2
TABLES
  0
TABLE
  2
VPORT
 70
     1
  0
VPORT
  2
*ACTIVE
 70
     0
 10
0.0
 20
0.0
 11
1.0
 21
1.0
 12
10.42990654205607
 22
4.5
 13
0.0
 23
0.0
 14
0.5
 24
0.5
 15
0.5
 25
0.5
 16
0.0
 26
0.0
 36
1.0
 17
0.0
 27
0.0
 37
0.0
 40
9.0
 41
1.972972972850329
 42
50.0
 43
0.0
 44
0.0
 50
0.0
 51
0.0
 71
     0
 72
   100
 73
     1
 74
     3
 75
     0
 76
     0
 77
     0
 78
     0
  0
ENDTAB
  0
TABLE
  2
LTYPE
 70
     9
  0
LTYPE
  2
CONTINUOUS
 70
     0
  3
Solid Line
 72
    65
 73
     0
 40
0.0
  0
LTYPE
  2
MCDASH1
 70
     0
  3
MiniCad+ Generated
 72
    65
 73
     2
 40
2.116538
 49
1.058075
 49
-1.058463
  0
LTYPE
  2
MCDASH2
 70
     0
  3
MiniCad+ Generated
 72
    65
 73
     2
 40
3.527692
 49
2.469229
 49
-1.058463
  0
LTYPE
  2
MCDASH3
 70
     0
  3
MiniCad+ Generated
 72
    65
 73
     2
 40
6.35
 49
5.291537
 49
-1.058463
  0
LTYPE
  2
MCDASH4
 70
     0
  3
MiniCad+ Generated
 72
    65
 73
     2
 40
7.760767
 49
6.702692
 49
-1.058075
  0
LTYPE
  2
MCDASH5
 70
     0
  3
MiniCad+ Generated
 72
    65
 73
     2
 40
1.058075
 49
0.352692
 49
-0.705383
  0
LTYPE
  2
MCDASH6
 70
     0
  3
MiniCad+ Generated
 72
    65
 73
     4
 40
5.291538
 49
3.175
 49
-1.058075
 49
0.352692
 49
-0.705771
  0
LTYPE
  2
MCDASH7
 70
     0
  3
MiniCad+ Generated
 72
    65
 73
     6
 40
9.525001
 49
3.175
 49
-1.058075
 49
3.175
 49
-1.058463
 49
0.352692
 49
-0.705771
  0
LTYPE
  2
MCDASH8
 70
     0
  3
MiniCad+ Generated
 72
    65
 73
     6
 40
6.350001000000001
 49
3.175
 49
-1.058075
 49
0.352692
 49
-0.705771
 49
0.352692
 49
-0.705771
  0
ENDTAB
  0
TABLE
  2
LAYER
 70
     4
  0
LAYER
  2
0
 70
     0
 62
     7
  6
CONTINUOUS
  0
LAYER
  2
PROFILI
 70
     0
 62
     7
  6
CONTINUOUS
  0
LAYER
  2
FISSAGGI
 70
     0
 62
     2
  6
CONTINUOUS
  0
LAYER
  2
PANNELLI
 70
     0
 62
     6
  6
CONTINUOUS
  0
ENDTAB
  0
TABLE
  2
STYLE
 70
     1
  0
STYLE
  2
STANDARD
 70
     0
 40
0.0
 41
1.0
 50
0.0
 71
     0
 42
0.2
  3
txt
  4

  0
ENDTAB
  0
TABLE
  2
VIEW
 70
     0
  0
ENDTAB
  0
TABLE
  2
UCS
 70
     0
  0
ENDTAB
  0
TABLE
  2
APPID
 70
     1
  0
APPID
  2
ACAD
 70
     0
  0
ENDTAB
  0
TABLE
  2
DIMSTYLE
 70
     1
  0
DIMSTYLE
  2
STANDARD
 70
     0
  3

  4

  5

  6

  7

 40
1.0
 41
0.18
 42
0.0625
 43
0.38
 44
0.18
 45
0.0
 46
0.0
 47
0.0
 48
0.0
140
0.18
141
0.09
142
0.0
143
25.4
144
1.0
145
0.0
146
1.0
147
0.09
 71
     0
 72
     0
 73
     1
 74
     1
 75
     0
 76
     0
 77
     0
 78
     0
170
     0
171
     2
172
     0
173
     0
174
     0
175
     0
176
     0
177
     0
178
     0
  0
ENDTAB
  0
ENDSEC
  0
SECTION
  2
BLOCKS
  0
BLOCK
  8
0
  2
$MODEL_SPACE
 70
     0
 10
0.0
 20
0.0
 30
0.0
  3
$MODEL_SPACE
  1

  0
ENDBLK
  5
130
  8
0
  0
BLOCK
 67
     1
  8
0
  2
$PAPER_SPACE
 70
     0
 10
0.0
 20
0.0
 30
0.0
  3
$PAPER_SPACE
  1

  0
ENDBLK
  5
12E
 67
     1
  8
0
  0
BLOCK
  8
0
  2
$ARROW1$
 70
     0
 10
0.0
 20
0.0
 30
0.0
  3
$ARROW1$
  1

  0
POLYLINE
  5
30
  8
0
 62
     6
 66
     1
 10
0.0
 20
0.0
 30
0.0
 70
     1
  0
VERTEX
  5
C1
  8
0
 62
     6
 10
-25.4
 20
4.318
 30
0.0
  0
VERTEX
  5
C2
  8
0
 62
     6
 10
-25.4
 20
-4.318
 30
0.0
  0
VERTEX
  5
C3
  8
0
 62
     6
 10
0.0
 20
0.0
 30
0.0
  0
SEQEND
  5
120
  8
0
 62
     6
  0
ENDBLK
  5
122
  8
0
  0
BLOCK
  8
0
  2
$ARROW2$
 70
     0
 10
0.0
 20
0.0
 30
0.0
  3
$ARROW2$
  1

  0
POLYLINE
  5
38
  8
0
 62
     6
 66
     1
 10
0.0
 20
0.0
 30
0.0
 70
     1
  0
VERTEX
  5
C5
  8
0
 62
     6
 10
-25.4
 20
12.7
 30
0.0
  0
VERTEX
  5
C6
  8
0
 62
     6
 10
-25.4
 20
-12.7
 30
0.0
  0
VERTEX
  5
C7
  8
0
 62
     6
 10
0.0
 20
0.0
 30
0.0
  0
SEQEND
  5
123
  8
0
 62
     6
  0
ENDBLK
  5
125
  8
0
  0
BLOCK
  8
0
  2
$ARROW3$
 70
     0
 10
0.0
 20
0.0
 30
0.0
  3
$ARROW3$
  1

  0
POLYLINE
  5
40
  8
0
 62
     6
 66
     1
 10
0.0
 20
0.0
 30
0.0
 70
     1
 40
0.502595
 41
0.502595
  0
VERTEX
  5
C9
  8
0
 62
     6
 10
-6.35
 20
0.0
 30
0.0
  0
VERTEX
  5
CA
  8
0
 62
     6
 10
-6.253499
 20
-1.102835
 30
0.0
  0
VERTEX
  5
CB
  8
0
 62
     6
 10
-5.966995
 20
-2.171976
 30
0.0
  0
VERTEX
  5
CC
  8
0
 62
     6
 10
-5.499192
 20
-3.175123
 30
0.0
  0
VERTEX
  5
CD
  8
0
 62
     6
 10
-4.864305
 20
-4.08179
 30
0.0
  0
VERTEX
  5
CE
  8
0
 62
     6
 10
-4.081641
 20
-4.86443
 30
0.0
  0
VERTEX
  5
CF
  8
0
 62
     6
 10
-3.174956
 20
-5.499289
 30
0.0
  0
VERTEX
  5
D0
  8
0
 62
     6
 10
-2.171794
 20
-5.967061
 30
0.0
  0
VERTEX
  5
D1
  8
0
 62
     6
 10
-1.102644
 20
-6.253533
 30
0.0
  0
VERTEX
  5
D2
  8
0
 62
     6
 10
0.000097
 20
-6.35
 30
0.0
  0
VERTEX
  5
D3
  8
0
 62
     6
 10
0.0
 20
-6.35
 30
0.0
  0
VERTEX
  5
D4
  8
0
 62
     6
 10
1.10274
 20
-6.253516
 30
0.0
  0
VERTEX
  5
D5
  8
0
 62
     6
 10
2.171885
 20
-5.967028
 30
0.0
  0
VERTEX
  5
D6
  8
0
 62
     6
 10
3.175039
 20
-5.49924
 30
0.0
  0
VERTEX
  5
D7
  8
0
 62
     6
 10
4.081716
 20
-4.864367
 30
0.0
  0
VERTEX
  5
D8
  8
0
 62
     6
 10
4.86443
 20
-4.081641
 30
0.0
  0
VERTEX
  5
D9
  8
0
 62
     6
 10
5.499289
 20
-3.174956
 30
0.0
  0
VERTEX
  5
DA
  8
0
 62
     6
 10
5.967061
 20
-2.171794
 30
0.0
  0
VERTEX
  5
DB
  8
0
 62
     6
 10
6.253533
 20
-1.102644
 30
0.0
  0
VERTEX
  5
DC
  8
0
 62
     6
 10
6.35
 20
0.0
 30
0.0
  0
VERTEX
  5
DD
  8
0
 62
     6
 10
6.253533
 20
1.102644
 30
0.0
  0
VERTEX
  5
DE
  8
0
 62
     6
 10
5.967028
 20
2.171885
 30
0.0
  0
VERTEX
  5
DF
  8
0
 62
     6
 10
5.49924
 20
3.175039
 30
0.0
  0
VERTEX
  5
E0
  8
0
 62
     6
 10
4.864367
 20
4.081716
 30
0.0
  0
VERTEX
  5
E1
  8
0
 62
     6
 10
4.081716
 20
4.864367
 30
0.0
  0
VERTEX
  5
E2
  8
0
 62
     6
 10
3.175039
 20
5.49924
 30
0.0
  0
VERTEX
  5
E3
  8
0
 62
     6
 10
2.171794
 20
5.967061
 30
0.0
  0
VERTEX
  5
E4
  8
0
 62
     6
 10
1.102644
 20
6.253533
 30
0.0
  0
VERTEX
  5
E5
  8
0
 62
     6
 10
0.0
 20
6.35
 30
0.0
  0
VERTEX
  5
E6
  8
0
 62
     6
 10
-1.102644
 20
6.253533
 30
0.0
  0
VERTEX
  5
E7
  8
0
 62
     6
 10
-2.171885
 20
5.967028
 30
0.0
  0
VERTEX
  5
E8
  8
0
 62
     6
 10
-3.175039
 20
5.49924
 30
0.0
  0
VERTEX
  5
E9
  8
0
 62
     6
 10
-4.081716
 20
4.864367
 30
0.0
  0
VERTEX
  5
EA
  8
0
 62
     6
 10
-4.864367
 20
4.081716
 30
0.0
  0
VERTEX
  5
EB
  8
0
 62
     6
 10
-5.499289
 20
3.174956
 30
0.0
  0
VERTEX
  5
EC
  8
0
 62
     6
 10
-5.967061
 20
2.171794
 30
0.0
  0
VERTEX
  5
ED
  8
0
 62
     6
 10
-6.253533
 20
1.102644
 30
0.0
  0
VERTEX
  5
EE
  8
0
 62
     6
 10
-6.35
 20
0.0
 30
0.0
  0
SEQEND
  5
126
  8
0
 62
     6
  0
ENDBLK
  5
128
  8
0
  0
BLOCK
  8
0
  2
$ARROW4$
 70
     0
 10
0.0
 20
0.0
 30
0.0
  3
$ARROW4$
  1

  0
LINE
  5
6B
  8
0
 10
12.7
 20
12.7
 30
0.0
 11
-12.7
 21
-12.7
 31
0.0
  0
ENDBLK
  5
12A
  8
0
  0
BLOCK
  8
0
  2
$ARROW5$
 70
     0
 10
0.0
 20
0.0
 30
0.0
  3
$ARROW5$
  1

  0
LINE
  5
6F
  8
0
 10
12.7
 20
12.7
 30
0.0
 11
-12.7
 21
-12.7
 31
0.0
  0
LINE
  5
70
  8
0
 10
-12.7
 20
12.7
 30
0.0
 11
12.7
 21
-12.7
 31
0.0
  0
ENDBLK
  5
12C
  8
0
  0
ENDSEC
  0
SECTION
  2
ENTITIES
  0
LINE
  5
72
  8
0
 62
     6
 10
-53.65
 20
34.873051
 30
0.0
 11
-53.65
 21
24.873051
 31
0.0
  0
LINE
  5
73
  8
0
 62
     6
 10
-53.65
 20
24.873051
 30
0.0
 11
-52.65
 21
24.873051
 31
0.0
  0
LINE
  5
74
  8
0
 62
     6
 10
-53.65
 20
34.873051
 30
0.0
 11
-52.65
 21
34.873051
 31
0.0
  0
LINE
  5
75
  8
0
 62
     6
 10
-52.65
 20
25.873051
 30
0.0
 11
-48.65
 21
25.873051
 31
0.0
  0
LINE
  5
76
  8
0
 62
     6
 10
-52.65
 20
33.873051
 30
0.0
 11
-48.65
 21
33.873051
 31
0.0
  0
LINE
  5
77
  8
0
 62
     6
 10
-52.65
 20
34.873051
 30
0.0
 11
-52.65
 21
24.873051
 31
0.0
  0
LINE
  5
78
  8
0
 62
     6
 10
-46.65
 20
32.873051
 30
0.0
 11
-46.65
 21
26.873051
 31
0.0
  0
LINE
  5
79
  8
0
 62
     6
 10
-48.65
 20
33.873051
 30
0.0
 11
-46.65
 21
32.873051
 31
0.0
  0
LINE
  5
7A
  8
0
 62
     6
 10
-48.65
 20
25.873051
 30
0.0
 11
-46.65
 21
26.873051
 31
0.0
  0
LINE
  5
7B
  8
0
 62
     3
 10
12.65
 20
49.873051
 30
0.0
 11
12.65
 21
9.873051
 31
0.0
  0
LINE
  5
7C
  8
0
 62
     3
 10
53.65
 20
47.273051
 30
0.0
 11
53.65
 21
12.473051
 31
0.0
  0
LINE
  5
7D
  8
0
 62
     3
 10
18.65
 20
12.473051
 30
0.0
 11
53.65
 21
12.473051
 31
0.0
  0
LINE
  5
7E
  8
0
 62
     3
 10
18.65
 20
47.273051
 30
0.0
 11
53.65
 21
47.273051
 31
0.0
  0
LINE
  5
7F
  8
0
 62
     3
 10
12.65
 20
9.873051
 30
0.0
 11
18.65
 21
9.873051
 31
0.0
  0
LINE
  5
80
  8
0
 62
     3
 10
12.65
 20
49.873051
 30
0.0
 11
18.65
 21
49.873051
 31
0.0
  0
LINE
  5
81
  8
0
 62
     3
 10
53.65
 20
17.388115
 30
0.0
 11
20.9
 21
17.388115
 31
0.0
  0
LINE
  5
82
  8
0
 62
     3
 10
53.65
 20
22.584267
 30
0.0
 11
21.65
 21
22.584267
 31
0.0
  0
ARC
  5
83
  8
0
 62
     3
 10
21.275
 20
19.986191
 30
0.0
 40
2.625
 50
81.786789
 51
278.213211
  0
LINE
  5
84
  8
0
 62
     3
 10
20.9
 20
19.986191
 30
0.0
 11
53.65
 21
19.986191
 31
0.0
  0
ARC
  5
85
  8
0
 62
     3
 10
21.275
 20
22.584267
 30
0.0
 40
2.625
 50
209.661285
 51
278.213211
  0
ARC
  5
86
  8
0
 62
     3
 10
21.275
 20
37.161835
 30
0.0
 40
2.625
 50
81.786789
 51
150.338715
  0
LINE
  5
87
  8
0
 62
     3
 10
20.9
 20
39.759911
 30
0.0
 11
53.65
 21
39.759911
 31
0.0
  0
ARC
  5
88
  8
0
 62
     3
 10
21.275
 20
39.759911
 30
0.0
 40
2.625
 50
81.786789
 51
278.213211
  0
LINE
  5
89
  8
0
 62
     3
 10
53.65
 20
37.161835
 30
0.0
 11
21.65
 21
37.161835
 31
0.0
  0
LINE
  5
8A
  8
0
 62
     3
 10
53.65
 20
42.357987
 30
0.0
 11
20.9
 21
42.357987
 31
0.0
  0
LINE
  5
8B
  8
0
 62
     3
 10
12.65
 20
49.873051
 30
0.0
 11
12.65
 21
9.873051
 31
0.0
  0
LINE
  5
8C
  8
0
 62
     3
 10
18.65
 20
49.873051
 30
0.0
 11
18.65
 21
9.873051
 31
0.0
  0
ARC
  5
8D
  8
0
 62
     3
 10
-12.349971
 20
29.873051
 30
0.0
 40
19.0
 50
299.800003
 51
60.19999700000001
  0
LINE
  5
8E
  8
0
 62
     3
 10
12.65
 20
49.873051
 30
0.0
 11
-2.907407
 21
49.873051
 31
0.0
  0
LINE
  5
8F
  8
0
 62
     3
 10
12.65
 20
9.873051
 30
0.0
 11
-2.907407
 21
9.873051
 31
0.0
  0
ARC
  5
90
  8
0
 62
     3
 10
6.837202
 20
-30.126949
 30
0.0
 40
10.0
 50
146.362274
 51
213.637726
  0
LINE
  5
91
  8
0
 62
     3
 10
-1.488404
 20
-24.587608
 30
0.0
 11
12.65
 21
-10.126949
 31
0.0
  0
LINE
  5
92
  8
0
 62
     3
 10
12.65
 20
-50.126949
 30
0.0
 11
-1.48832
 21
-35.666417
 31
0.0
  0
LINE
  5
93
  8
0
 62
     6
 10
-53.65
 20
-25.126949
 30
0.0
 11
-53.65
 21
-35.126949
 31
0.0
  0
LINE
  5
94
  8
0
 62
     6
 10
-53.65
 20
-35.126949
 30
0.0
 11
-52.65
 21
-35.126949
 31
0.0
  0
LINE
  5
95
  8
0
 62
     6
 10
-53.65
 20
-25.126949
 30
0.0
 11
-52.65
 21
-25.126949
 31
0.0
  0
LINE
  5
96
  8
0
 62
     6
 10
-52.65
 20
-34.126949
 30
0.0
 11
-48.65
 21
-34.126949
 31
0.0
  0
LINE
  5
97
  8
0
 62
     6
 10
-52.65
 20
-26.126949
 30
0.0
 11
-48.65
 21
-26.126949
 31
0.0
  0
LINE
  5
98
  8
0
 62
     6
 10
-52.65
 20
-25.126949
 30
0.0
 11
-52.65
 21
-35.126949
 31
0.0
  0
LINE
  5
99
  8
0
 62
     6
 10
-46.65
 20
-27.126949
 30
0.0
 11
-46.65
 21
-33.126949
 31
0.0
  0
LINE
  5
9A
  8
0
 62
     6
 10
-48.65
 20
-26.126949
 30
0.0
 11
-46.65
 21
-27.126949
 31
0.0
  0
LINE
  5
9B
  8
0
 62
     6
 10
-48.65
 20
-34.126949
 30
0.0
 11
-46.65
 21
-33.126949
 31
0.0
  0
LINE
  5
9C
  8
0
 62
     3
 10
53.65
 20
-12.726949
 30
0.0
 11
53.65
 21
-47.526949
 31
0.0
  0
LINE
  5
9D
  8
0
 62
     3
 10
18.65
 20
-47.526949
 30
0.0
 11
53.65
 21
-47.526949
 31
0.0
  0
LINE
  5
9E
  8
0
 62
     3
 10
18.65
 20
-12.726949
 30
0.0
 11
53.65
 21
-12.726949
 31
0.0
  0
LINE
  5
9F
  8
0
 62
     3
 10
12.65
 20
-50.126949
 30
0.0
 11
18.65
 21
-50.126949
 31
0.0
  0
LINE
  5
A0
  8
0
 62
     3
 10
12.65
 20
-10.126949
 30
0.0
 11
18.65
 21
-10.126949
 31
0.0
  0
LINE
  5
A1
  8
0
 62
     3
 10
53.65
 20
-42.611885
 30
0.0
 11
20.9
 21
-42.611885
 31
0.0
  0
LINE
  5
A2
  8
0
 62
     3
 10
53.65
 20
-37.415733
 30
0.0
 11
21.65
 21
-37.415733
 31
0.0
  0
ARC
  5
A3
  8
0
 62
     3
 10
21.275
 20
-40.013809
 30
0.0
 40
2.625
 50
81.786789
 51
278.213211
  0
LINE
  5
A4
  8
0
 62
     3
 10
20.9
 20
-40.013809
 30
0.0
 11
53.65
 21
-40.013809
 31
0.0
  0
ARC
  5
A5
  8
0
 62
     3
 10
21.275
 20
-37.415733
 30
0.0
 40
2.625
 50
209.661285
 51
278.213211
  0
ARC
  5
A6
  8
0
 62
     3
 10
21.275
 20
-22.838165
 30
0.0
 40
2.625
 50
81.786789
 51
150.338715
  0
LINE
  5
A7
  8
0
 62
     3
 10
20.9
 20
-20.240089
 30
0.0
 11
53.65
 21
-20.240089
 31
0.0
  0
ARC
  5
A8
  8
0
 62
     3
 10
21.275
 20
-20.240089
 30
0.0
 40
2.625
 50
81.786789
 51
278.213211
  0
LINE
  5
A9
  8
0
 62
     3
 10
53.65
 20
-22.838165
 30
0.0
 11
21.65
 21
-22.838165
 31
0.0
  0
LINE
  5
AA
  8
0
 62
     3
 10
53.65
 20
-17.642013
 30
0.0
 11
20.9
 21
-17.642013
 31
0.0
  0
LINE
  5
AB
  8
0
 62
     3
 10
12.65
 20
-10.126949
 30
0.0
 11
12.65
 21
-50.126949
 31
0.0
  0
LINE
  5
AC
  8
0
 62
     3
 10
18.65
 20
-10.126949
 30
0.0
 11
18.65
 21
-50.126949
 31
0.0
  0
LINE
  5
AD
  8
0
 62
     3
 10
12.65
 20
-10.126949
 30
0.0
 11
12.65
 21
-50.126949
 31
0.0
  0
LINE
  5
AE
  8
0
 62
     3
 10
-2.907407
 20
46.360566
 30
0.0
 11
-2.907407
 21
49.873051
 31
0.0
  0
LINE
  5
AF
  8
0
 62
     3
 10
-2.907407
 20
13.385536
 30
0.0
 11
-2.907407
 21
9.873051
 31
0.0
  0
ENDSEC
  0
EOF
