  0
SECTION
  2
HEADER
  9
$ACADVER
  1
AC1014
  9
$ACADMAINTVER
 70
     9
  9
$DWGCODEPAGE
  3
ANSI_1252
  9
$INSBASE
 10
0.0
 20
0.0
 30
0.0
  9
$EXTMIN
 10
-24.2
 20
-120.0
 30
0.0
  9
$EXTMAX
 10
120.0
 20
26.2
 30
0.0
  9
$LIMMIN
 10
0.0
 20
0.0
  9
$LIMMAX
 10
12.0
 20
9.0
  9
$ORTHOMODE
 70
     0
  9
$REGENMODE
 70
     1
  9
$FILLMODE
 70
     1
  9
$QTEXTMODE
 70
     0
  9
$MIRRTEXT
 70
     1
  9
$DRAGMODE
 70
     2
  9
$LTSCALE
 40
1.0
  9
$OSMODE
 70
    37
  9
$ATTMODE
 70
     1
  9
$TEXTSIZE
 40
0.2
  9
$TRACEWID
 40
0.05
  9
$TEXTSTYLE
  7
STANDARD
  9
$CLAYER
  8
0
  9
$CELTYPE
  6
BYLAYER
  9
$CECOLOR
 62
   256
  9
$CELTSCALE
 40
1.0
  9
$DELOBJ
 70
     1
  9
$DISPSILH
 70
     0
  9
$DIMSCALE
 40
1.0
  9
$DIMASZ
 40
0.18
  9
$DIMEXO
 40
0.0625
  9
$DIMDLI
 40
0.38
  9
$DIMRND
 40
0.0
  9
$DIMDLE
 40
0.0
  9
$DIMEXE
 40
0.18
  9
$DIMTP
 40
0.0
  9
$DIMTM
 40
0.0
  9
$DIMTXT
 40
0.18
  9
$DIMCEN
 40
0.09
  9
$DIMTSZ
 40
0.0
  9
$DIMTOL
 70
     0
  9
$DIMLIM
 70
     0
  9
$DIMTIH
 70
     1
  9
$DIMTOH
 70
     1
  9
$DIMSE1
 70
     0
  9
$DIMSE2
 70
     0
  9
$DIMTAD
 70
     0
  9
$DIMZIN
 70
     0
  9
$DIMBLK
  1

  9
$DIMASO
 70
     1
  9
$DIMSHO
 70
     0
  9
$DIMPOST
  1

  9
$DIMAPOST
  1

  9
$DIMALT
 70
     0
  9
$DIMALTD
 70
     2
  9
$DIMALTF
 40
25.4
  9
$DIMLFAC
 40
1.0
  9
$DIMTOFL
 70
     0
  9
$DIMTVP
 40
0.0
  9
$DIMTIX
 70
     0
  9
$DIMSOXD
 70
     0
  9
$DIMSAH
 70
     0
  9
$DIMBLK1
  1

  9
$DIMBLK2
  1

  9
$DIMSTYLE
  2
STANDARD
  9
$DIMCLRD
 70
     0
  9
$DIMCLRE
 70
     0
  9
$DIMCLRT
 70
     0
  9
$DIMTFAC
 40
1.0
  9
$DIMGAP
 40
0.09
  9
$DIMJUST
 70
     0
  9
$DIMSD1
 70
     0
  9
$DIMSD2
 70
     0
  9
$DIMTOLJ
 70
     1
  9
$DIMTZIN
 70
     0
  9
$DIMALTZ
 70
     0
  9
$DIMALTTZ
 70
     0
  9
$DIMFIT
 70
     3
  9
$DIMUPT
 70
     0
  9
$DIMUNIT
 70
     2
  9
$DIMDEC
 70
     4
  9
$DIMTDEC
 70
     4
  9
$DIMALTU
 70
     2
  9
$DIMALTTD
 70
     2
  9
$DIMTXSTY
  7
STANDARD
  9
$DIMAUNIT
 70
     0
  9
$LUNITS
 70
     2
  9
$LUPREC
 70
     4
  9
$SKETCHINC
 40
0.1
  9
$FILLETRAD
 40
0.0
  9
$AUNITS
 70
     0
  9
$AUPREC
 70
     0
  9
$MENU
  1
acad
  9
$ELEVATION
 40
0.0
  9
$PELEVATION
 40
0.0
  9
$THICKNESS
 40
0.0
  9
$LIMCHECK
 70
     0
  9
$CHAMFERA
 40
0.0
  9
$CHAMFERB
 40
0.0
  9
$CHAMFERC
 40
0.0
  9
$CHAMFERD
 40
0.0
  9
$SKPOLY
 70
     0
  9
$TDCREATE
 40
2450506.011560764
  9
$TDUPDATE
 40
2453594.723887419
  9
$TDINDWG
 40
0.0001487153
  9
$TDUSRTIMER
 40
0.0001487153
  9
$USRTIMER
 70
     1
  9
$ANGBASE
 50
0.0
  9
$ANGDIR
 70
     0
  9
$PDMODE
 70
     0
  9
$PDSIZE
 40
0.0
  9
$PLINEWID
 40
0.0
  9
$COORDS
 70
     1
  9
$SPLFRAME
 70
     0
  9
$SPLINETYPE
 70
     6
  9
$SPLINESEGS
 70
     8
  9
$ATTDIA
 70
     0
  9
$ATTREQ
 70
     1
  9
$HANDLING
 70
     1
  9
$HANDSEED
  5
CD
  9
$SURFTAB1
 70
     6
  9
$SURFTAB2
 70
     6
  9
$SURFTYPE
 70
     6
  9
$SURFU
 70
     6
  9
$SURFV
 70
     6
  9
$UCSNAME
  2

  9
$UCSORG
 10
0.0
 20
0.0
 30
0.0
  9
$UCSXDIR
 10
1.0
 20
0.0
 30
0.0
  9
$UCSYDIR
 10
0.0
 20
1.0
 30
0.0
  9
$PUCSNAME
  2

  9
$PUCSORG
 10
0.0
 20
0.0
 30
0.0
  9
$PUCSXDIR
 10
1.0
 20
0.0
 30
0.0
  9
$PUCSYDIR
 10
0.0
 20
1.0
 30
0.0
  9
$USERI1
 70
     0
  9
$USERI2
 70
     0
  9
$USERI3
 70
     0
  9
$USERI4
 70
     0
  9
$USERI5
 70
     0
  9
$USERR1
 40
0.0
  9
$USERR2
 40
0.0
  9
$USERR3
 40
0.0
  9
$USERR4
 40
0.0
  9
$USERR5
 40
0.0
  9
$WORLDVIEW
 70
     1
  9
$SHADEDGE
 70
     3
  9
$SHADEDIF
 70
    70
  9
$TILEMODE
 70
     1
  9
$MAXACTVP
 70
    48
  9
$PINSBASE
 10
0.0
 20
0.0
 30
0.0
  9
$PLIMCHECK
 70
     0
  9
$PEXTMIN
 10
1.000000000000000E+20
 20
1.000000000000000E+20
 30
1.000000000000000E+20
  9
$PEXTMAX
 10
-1.000000000000000E+20
 20
-1.000000000000000E+20
 30
-1.000000000000000E+20
  9
$PLIMMIN
 10
0.0
 20
0.0
  9
$PLIMMAX
 10
12.0
 20
9.0
  9
$UNITMODE
 70
     0
  9
$VISRETAIN
 70
     1
  9
$PLINEGEN
 70
     0
  9
$PSLTSCALE
 70
     1
  9
$TREEDEPTH
 70
  3020
  9
$PICKSTYLE
 70
     1
  9
$CMLSTYLE
  2
STANDARD
  9
$CMLJUST
 70
     0
  9
$CMLSCALE
 40
1.0
  9
$PROXYGRAPHICS
 70
     1
  9
$MEASUREMENT
 70
     0
  0
ENDSEC
  0
SECTION
  2
CLASSES
  0
CLASS
  1
XRECORD
  2
AcDbXrecord
  3
AutoCAD 2000
 90
        0
280
     0
281
     0
  0
CLASS
  1
LWPOLYLINE
  2
AcDbPolyline
  3
AutoCAD 2000
 90
        0
280
     0
281
     1
  0
CLASS
  1
HATCH
  2
AcDbHatch
  3
AutoCAD 2000
 90
        0
280
     0
281
     1
  0
CLASS
  1
ACDBPLACEHOLDER
  2
AcDbPlaceHolder
  3
ObjectDBX Classes
 90
        0
280
     0
281
     0
  0
CLASS
  1
LAYOUT
  2
AcDbLayout
  3
ObjectDBX Classes
 90
        0
280
     0
281
     0
  0
ENDSEC
  0
SECTION
  2
TABLES
  0
TABLE
  2
VPORT
  5
8
330
0
100
AcDbSymbolTable
 70
     2
  0
VPORT
  5
A8
102
{ACAD_XDICTIONARY
360
CB
102
}
330
8
100
AcDbSymbolTableRecord
100
AcDbViewportTableRecord
  2
*ACTIVE
 70
     0
 10
0.0
 20
0.0
 11
1.0
 21
1.0
 12
47.90000000000001
 22
-46.90000000000001
 13
0.0
 23
0.0
 14
1.0
 24
1.0
 15
0.0
 25
0.0
 16
0.0
 26
0.0
 36
1.0
 17
0.0
 27
0.0
 37
0.0
 40
147.8550943396226
 41
1.748582230623819
 42
50.0
 43
0.0
 44
0.0
 50
0.0
 51
0.0
 71
     0
 72
   100
 73
     1
 74
     1
 75
     0
 76
     0
 77
     0
 78
     0
  0
ENDTAB
  0
TABLE
  2
LTYPE
  5
5
330
0
100
AcDbSymbolTable
 70
     1
  0
LTYPE
  5
12
330
5
100
AcDbSymbolTableRecord
100
AcDbLinetypeTableRecord
  2
BYBLOCK
 70
     0
  3

 72
    65
 73
     0
 40
0.0
  0
LTYPE
  5
13
330
5
100
AcDbSymbolTableRecord
100
AcDbLinetypeTableRecord
  2
BYLAYER
 70
     0
  3

 72
    65
 73
     0
 40
0.0
  0
LTYPE
  5
14
330
5
100
AcDbSymbolTableRecord
100
AcDbLinetypeTableRecord
  2
CONTINUOUS
 70
     0
  3
Solid line
 72
    65
 73
     0
 40
0.0
  0
ENDTAB
  0
TABLE
  2
LAYER
  5
2
330
0
100
AcDbSymbolTable
 70
     1
  0
LAYER
  5
E
330
2
100
AcDbSymbolTableRecord
100
AcDbLayerTableRecord
  2
0
 70
     0
 62
     7
  6
CONTINUOUS
  0
ENDTAB
  0
TABLE
  2
STYLE
  5
3
330
0
100
AcDbSymbolTable
 70
     1
  0
STYLE
  5
F
330
3
100
AcDbSymbolTableRecord
100
AcDbTextStyleTableRecord
  2
STANDARD
 70
     0
 40
0.0
 41
1.0
 50
0.0
 71
     0
 42
0.2
  3
txt
  4

  0
ENDTAB
  0
TABLE
  2
VIEW
  5
6
330
0
100
AcDbSymbolTable
 70
     0
  0
ENDTAB
  0
TABLE
  2
UCS
  5
7
330
0
100
AcDbSymbolTable
 70
     0
  0
ENDTAB
  0
TABLE
  2
APPID
  5
9
330
0
100
AcDbSymbolTable
 70
     1
  0
APPID
  5
10
330
9
100
AcDbSymbolTableRecord
100
AcDbRegAppTableRecord
  2
ACAD
 70
     0
  0
ENDTAB
  0
TABLE
  2
DIMSTYLE
  5
A
330
0
100
AcDbSymbolTable
 70
     1
  0
DIMSTYLE
105
A7
330
A
100
AcDbSymbolTableRecord
100
AcDbDimStyleTableRecord
  2
STANDARD
 70
     0
  3

  4

  5

  6

  7

 40
1.0
 41
0.18
 42
0.0625
 43
0.38
 44
0.18
 45
0.0
 46
0.0
 47
0.0
 48
0.0
140
0.18
141
0.09
142
0.0
143
25.4
144
1.0
145
0.0
146
1.0
147
0.09
 71
     0
 72
     0
 73
     1
 74
     1
 75
     0
 76
     0
 77
     0
 78
     0
170
     0
171
     2
172
     0
173
     0
174
     0
175
     0
176
     0
177
     0
178
     0
270
     2
271
     4
272
     4
273
     2
274
     2
340
F
275
     0
280
     0
281
     0
282
     0
283
     1
284
     0
285
     0
286
     0
287
     3
288
     0
  0
ENDTAB
  0
TABLE
  2
BLOCK_RECORD
  5
1
330
0
100
AcDbSymbolTable
 70
     3
  0
BLOCK_RECORD
  5
18
330
1
100
AcDbSymbolTableRecord
100
AcDbBlockTableRecord
  2
*MODEL_SPACE
  0
BLOCK_RECORD
  5
15
330
1
100
AcDbSymbolTableRecord
100
AcDbBlockTableRecord
  2
*PAPER_SPACE
  0
BLOCK_RECORD
  5
1F
330
1
100
AcDbSymbolTableRecord
100
AcDbBlockTableRecord
  2
373A
  0
BLOCK_RECORD
  5
62
330
1
100
AcDbSymbolTableRecord
100
AcDbBlockTableRecord
  2
373B
  0
BLOCK_RECORD
  5
89
330
1
100
AcDbSymbolTableRecord
100
AcDbBlockTableRecord
  2
373C
  0
ENDTAB
  0
ENDSEC
  0
SECTION
  2
BLOCKS
  0
BLOCK
  5
19
330
18
100
AcDbEntity
  8
0
100
AcDbBlockBegin
  2
*MODEL_SPACE
 70
     0
 71
     0
 10
0.0
 20
0.0
 30
0.0
  3
*MODEL_SPACE
  1

  0
ENDBLK
  5
1A
330
18
100
AcDbEntity
  8
0
100
AcDbBlockEnd
  0
BLOCK
  5
16
330
15
100
AcDbEntity
 67
     1
  8
0
100
AcDbBlockBegin
  2
*PAPER_SPACE
 70
     0
 71
     0
 10
0.0
 20
0.0
 30
0.0
  3
*PAPER_SPACE
  1

  0
ENDBLK
  5
17
330
15
100
AcDbEntity
 67
     1
  8
0
100
AcDbBlockEnd
  0
BLOCK
  5
20
330
1F
100
AcDbEntity
  8
0
100
AcDbBlockBegin
  2
373A
 70
     0
 71
     0
 10
0.0
 20
0.0
 30
0.0
  3
373A
  1

  0
LINE
  5
21
330
1F
100
AcDbEntity
  8
0
100
AcDbLine
 10
-17.2
 20
15.0
 30
0.0
 11
-18.2
 21
14.0
 31
0.0
  0
LINE
  5
22
330
1F
100
AcDbEntity
  8
0
100
AcDbLine
 10
-10.2
 20
14.0
 30
0.0
 11
-11.2
 21
15.0
 31
0.0
  0
LINE
  5
23
330
1F
100
AcDbEntity
  8
0
100
AcDbLine
 10
-11.2
 20
15.0
 30
0.0
 11
-11.2
 21
3.0
 31
0.0
  0
LINE
  5
24
330
1F
100
AcDbEntity
  8
0
100
AcDbLine
 10
-10.2
 20
14.0
 30
0.0
 11
-18.2
 21
14.0
 31
0.0
  0
LINE
  5
25
330
1F
100
AcDbEntity
  8
0
100
AcDbLine
 10
-17.2
 20
15.0
 30
0.0
 11
-17.2
 21
3.0
 31
0.0
  0
LINE
  5
26
330
1F
100
AcDbEntity
  8
0
100
AcDbLine
 10
-18.2
 20
14.0
 30
0.0
 11
-18.2
 21
3.0
 31
0.0
  0
LINE
  5
27
330
1F
100
AcDbEntity
  8
0
100
AcDbLine
 10
-10.2
 20
14.0
 30
0.0
 11
-10.2
 21
3.0
 31
0.0
  0
LINE
  5
28
330
1F
100
AcDbEntity
  8
0
100
AcDbLine
 10
-11.2
 20
15.0
 30
0.0
 11
-17.2
 21
15.0
 31
0.0
  0
LINE
  5
29
330
1F
100
AcDbEntity
  8
0
100
AcDbLine
 10
-19.2
 20
-8.5
 30
0.0
 11
-9.199999999999999
 21
-8.5
 31
0.0
  0
ARC
  5
2A
330
1F
100
AcDbEntity
  8
0
100
AcDbCircle
 10
-19.2
 20
-6.0
 30
0.0
 40
2.5
100
AcDbArc
 50
233.130102
 51
306.869898
  0
ARC
  5
2B
330
1F
100
AcDbEntity
  8
0
100
AcDbCircle
 10
-14.2
 20
4.0
 30
0.0
 40
12.5
100
AcDbArc
 50
253.739795
 51
286.260205
  0
ARC
  5
2C
330
1F
100
AcDbEntity
  8
0
100
AcDbCircle
 10
-9.199999999999999
 20
-6.0
 30
0.0
 40
2.5
100
AcDbArc
 50
233.130102
 51
306.869898
  0
LINE
  5
2D
330
1F
100
AcDbEntity
  8
0
100
AcDbLine
 10
-17.7
 20
-3.0
 30
0.0
 11
-17.7
 21
-8.0
 31
0.0
  0
LINE
  5
2E
330
1F
100
AcDbEntity
  8
0
100
AcDbLine
 10
-10.7
 20
-3.0
 30
0.0
 11
-10.7
 21
-8.0
 31
0.0
  0
LINE
  5
2F
330
1F
100
AcDbEntity
  8
0
100
AcDbLine
 10
-20.7
 20
-3.0
 30
0.0
 11
-20.7
 21
-8.0
 31
0.0
  0
LINE
  5
30
330
1F
100
AcDbEntity
  8
0
100
AcDbLine
 10
-7.7
 20
-3.0
 30
0.0
 11
-7.7
 21
-8.0
 31
0.0
  0
LINE
  5
31
330
1F
100
AcDbEntity
  8
0
 62
     2
100
AcDbLine
 10
28.5
 20
-23.2
 30
0.0
 11
12.5
 21
-23.2
 31
0.0
  0
LINE
  5
32
330
1F
100
AcDbEntity
  8
0
 62
     2
100
AcDbLine
 10
3.0
 20
-15.0
 30
0.0
 11
3.0
 21
-3.0
 31
0.0
  0
LINE
  5
33
330
1F
100
AcDbEntity
  8
0
 62
     2
100
AcDbLine
 10
33.0
 20
-20.8
 30
0.0
 11
30.0
 21
-20.8
 31
0.0
  0
LINE
  5
34
330
1F
100
AcDbEntity
  8
0
 62
     2
100
AcDbLine
 10
30.0
 20
-21.7
 30
0.0
 11
30.0
 21
-20.8
 31
0.0
  0
LINE
  5
35
330
1F
100
AcDbEntity
  8
0
 62
     2
100
AcDbLine
 10
11.0
 20
-21.7
 30
0.0
 11
11.0
 21
-20.0
 31
0.0
  0
LINE
  5
36
330
1F
100
AcDbEntity
  8
0
 62
     2
100
AcDbLine
 10
8.0
 20
-17.0
 30
0.0
 11
5.0
 21
-17.0
 31
0.0
  0
ARC
  5
37
330
1F
100
AcDbEntity
  8
0
 62
     2
100
AcDbCircle
 10
5.0
 20
-15.0
 30
0.0
 40
2.0
100
AcDbArc
 50
180.0
 51
270.0
  0
LINE
  5
38
330
1F
100
AcDbEntity
  8
0
 62
     2
100
AcDbLine
 10
0.0
 20
0.0
 30
0.0
 11
-24.2
 21
0.0
 31
0.0
  0
LINE
  5
39
330
1F
100
AcDbEntity
  8
0
 62
     2
100
AcDbLine
 10
33.0
 20
-20.8
 30
0.0
 11
33.0
 21
-23.2
 31
0.0
  0
LINE
  5
3A
330
1F
100
AcDbEntity
  8
0
 62
     2
100
AcDbLine
 10
30.0
 20
-26.2
 30
0.0
 11
11.0
 21
-26.2
 31
0.0
  0
LINE
  5
3B
330
1F
100
AcDbEntity
  8
0
 62
     2
100
AcDbLine
 10
8.0
 20
-23.2
 30
0.0
 11
8.0
 21
-21.5
 31
0.0
  0
LINE
  5
3C
330
1F
100
AcDbEntity
  8
0
 62
     2
100
AcDbLine
 10
6.5
 20
-20.0
 30
0.0
 11
6.0
 21
-20.0
 31
0.0
  0
LINE
  5
3D
330
1F
100
AcDbEntity
  8
0
 62
     2
100
AcDbLine
 10
0.0
 20
-4.5
 30
0.0
 11
0.0
 21
-14.0
 31
0.0
  0
LINE
  5
3E
330
1F
100
AcDbEntity
  8
0
 62
     2
100
AcDbLine
 10
-24.2
 20
0.0
 30
0.0
 11
-24.2
 21
-3.0
 31
0.0
  0
LINE
  5
3F
330
1F
100
AcDbEntity
  8
0
 62
     2
100
AcDbLine
 10
-1.5
 20
-3.0
 30
0.0
 11
-24.2
 21
-3.0
 31
0.0
  0
ARC
  5
40
330
1F
100
AcDbEntity
  8
0
 62
     2
100
AcDbCircle
 10
6.0
 20
-14.0
 30
0.0
 40
6.0
100
AcDbArc
 50
180.0
 51
270.0
  0
ARC
  5
41
330
1F
100
AcDbEntity
  8
0
 62
     2
100
AcDbCircle
 10
8.0
 20
-20.0
 30
0.0
 40
3.0
100
AcDbArc
 50
0.0
 51
90.0
  0
ARC
  5
42
330
1F
100
AcDbEntity
  8
0
 62
     2
100
AcDbCircle
 10
6.5
 20
-21.5
 30
0.0
 40
1.5
100
AcDbArc
 50
0.0
 51
90.0
  0
ARC
  5
43
330
1F
100
AcDbEntity
  8
0
 62
     2
100
AcDbCircle
 10
11.0
 20
-23.2
 30
0.0
 40
3.0
100
AcDbArc
 50
180.0
 51
270.0
  0
ARC
  5
44
330
1F
100
AcDbEntity
  8
0
 62
     2
100
AcDbCircle
 10
12.5
 20
-21.7
 30
0.0
 40
1.5
100
AcDbArc
 50
180.0
 51
270.0
  0
ARC
  5
45
330
1F
100
AcDbEntity
  8
0
 62
     2
100
AcDbCircle
 10
30.0
 20
-23.2
 30
0.0
 40
3.0
100
AcDbArc
 50
270.0
 51
0.0
  0
ARC
  5
46
330
1F
100
AcDbEntity
  8
0
 62
     2
100
AcDbCircle
 10
28.5
 20
-21.7
 30
0.0
 40
1.5
100
AcDbArc
 50
270.0
 51
0.0
  0
ARC
  5
47
330
1F
100
AcDbEntity
  8
0
 62
     2
100
AcDbCircle
 10
0.0
 20
-3.0
 30
0.0
 40
3.0
100
AcDbArc
 50
0.0
 51
90.0
  0
ARC
  5
48
330
1F
100
AcDbEntity
  8
0
 62
     2
100
AcDbCircle
 10
-1.5
 20
-4.5
 30
0.0
 40
1.5
100
AcDbArc
 50
0.0
 51
90.0
  0
ARC
  5
49
330
1F
100
AcDbEntity
  8
0
 62
     2
100
AcDbCircle
 10
-1.5
 20
4.5
 30
0.0
 40
1.5
100
AcDbArc
 50
270.0
 51
0.0
  0
ARC
  5
4A
330
1F
100
AcDbEntity
  8
0
 62
     2
100
AcDbCircle
 10
0.0
 20
3.0
 30
0.0
 40
3.0
100
AcDbArc
 50
270.0
 51
0.0
  0
ARC
  5
4B
330
1F
100
AcDbEntity
  8
0
 62
     2
100
AcDbCircle
 10
28.5
 20
21.7
 30
0.0
 40
1.5
100
AcDbArc
 50
0.0
 51
90.0
  0
ARC
  5
4C
330
1F
100
AcDbEntity
  8
0
 62
     2
100
AcDbCircle
 10
30.0
 20
23.2
 30
0.0
 40
3.0
100
AcDbArc
 50
0.0
 51
90.0
  0
ARC
  5
4D
330
1F
100
AcDbEntity
  8
0
 62
     2
100
AcDbCircle
 10
12.5
 20
21.7
 30
0.0
 40
1.5
100
AcDbArc
 50
90.0
 51
180.0
  0
ARC
  5
4E
330
1F
100
AcDbEntity
  8
0
 62
     2
100
AcDbCircle
 10
11.0
 20
23.2
 30
0.0
 40
3.0
100
AcDbArc
 50
90.0
 51
180.0
  0
ARC
  5
4F
330
1F
100
AcDbEntity
  8
0
 62
     2
100
AcDbCircle
 10
6.5
 20
21.5
 30
0.0
 40
1.5
100
AcDbArc
 50
270.0
 51
0.0
  0
ARC
  5
50
330
1F
100
AcDbEntity
  8
0
 62
     2
100
AcDbCircle
 10
8.0
 20
20.0
 30
0.0
 40
3.0
100
AcDbArc
 50
270.0
 51
0.0
  0
ARC
  5
51
330
1F
100
AcDbEntity
  8
0
 62
     2
100
AcDbCircle
 10
6.0
 20
14.0
 30
0.0
 40
6.0
100
AcDbArc
 50
90.0
 51
180.0
  0
LINE
  5
52
330
1F
100
AcDbEntity
  8
0
 62
     2
100
AcDbLine
 10
-1.5
 20
3.0
 30
0.0
 11
-24.2
 21
3.0
 31
0.0
  0
LINE
  5
53
330
1F
100
AcDbEntity
  8
0
 62
     2
100
AcDbLine
 10
-24.2
 20
0.0
 30
0.0
 11
-24.2
 21
3.0
 31
0.0
  0
LINE
  5
54
330
1F
100
AcDbEntity
  8
0
 62
     2
100
AcDbLine
 10
0.0
 20
4.5
 30
0.0
 11
0.0
 21
14.0
 31
0.0
  0
LINE
  5
55
330
1F
100
AcDbEntity
  8
0
 62
     2
100
AcDbLine
 10
6.5
 20
20.0
 30
0.0
 11
6.0
 21
20.0
 31
0.0
  0
LINE
  5
56
330
1F
100
AcDbEntity
  8
0
 62
     2
100
AcDbLine
 10
8.0
 20
23.2
 30
0.0
 11
8.0
 21
21.5
 31
0.0
  0
LINE
  5
57
330
1F
100
AcDbEntity
  8
0
 62
     2
100
AcDbLine
 10
30.0
 20
26.2
 30
0.0
 11
11.0
 21
26.2
 31
0.0
  0
LINE
  5
58
330
1F
100
AcDbEntity
  8
0
 62
     2
100
AcDbLine
 10
33.0
 20
20.8
 30
0.0
 11
33.0
 21
23.2
 31
0.0
  0
LINE
  5
59
330
1F
100
AcDbEntity
  8
0
 62
     2
100
AcDbLine
 10
0.0
 20
0.0
 30
0.0
 11
-24.2
 21
0.0
 31
0.0
  0
ARC
  5
5A
330
1F
100
AcDbEntity
  8
0
 62
     2
100
AcDbCircle
 10
5.0
 20
15.0
 30
0.0
 40
2.0
100
AcDbArc
 50
90.0
 51
180.0
  0
LINE
  5
5B
330
1F
100
AcDbEntity
  8
0
 62
     2
100
AcDbLine
 10
8.0
 20
17.0
 30
0.0
 11
5.0
 21
17.0
 31
0.0
  0
LINE
  5
5C
330
1F
100
AcDbEntity
  8
0
 62
     2
100
AcDbLine
 10
11.0
 20
21.7
 30
0.0
 11
11.0
 21
20.0
 31
0.0
  0
LINE
  5
5D
330
1F
100
AcDbEntity
  8
0
 62
     2
100
AcDbLine
 10
30.0
 20
21.7
 30
0.0
 11
30.0
 21
20.8
 31
0.0
  0
LINE
  5
5E
330
1F
100
AcDbEntity
  8
0
 62
     2
100
AcDbLine
 10
33.0
 20
20.8
 30
0.0
 11
30.0
 21
20.8
 31
0.0
  0
LINE
  5
5F
330
1F
100
AcDbEntity
  8
0
 62
     2
100
AcDbLine
 10
3.0
 20
15.0
 30
0.0
 11
3.0
 21
3.0
 31
0.0
  0
LINE
  5
60
330
1F
100
AcDbEntity
  8
0
 62
     2
100
AcDbLine
 10
28.5
 20
23.2
 30
0.0
 11
12.5
 21
23.2
 31
0.0
  0
ENDBLK
  5
61
330
1F
100
AcDbEntity
  8
0
100
AcDbBlockEnd
  0
BLOCK
  5
63
330
62
100
AcDbEntity
  8
0
100
AcDbBlockBegin
  2
373B
 70
     0
 71
     0
 10
0.0
 20
0.0
 30
0.0
  3
373B
  1

  0
LINE
  5
64
330
62
100
AcDbEntity
  8
0
100
AcDbLine
 10
6.5
 20
-3.0
 30
0.0
 11
6.5
 21
-8.0
 31
0.0
  0
LINE
  5
65
330
62
100
AcDbEntity
  8
0
100
AcDbLine
 10
-6.5
 20
-3.0
 30
0.0
 11
-6.5
 21
-8.0
 31
0.0
  0
LINE
  5
66
330
62
100
AcDbEntity
  8
0
100
AcDbLine
 10
3.5
 20
-3.0
 30
0.0
 11
3.5
 21
-8.0
 31
0.0
  0
LINE
  5
67
330
62
100
AcDbEntity
  8
0
100
AcDbLine
 10
-3.5
 20
-3.0
 30
0.0
 11
-3.5
 21
-8.0
 31
0.0
  0
ARC
  5
68
330
62
100
AcDbEntity
  8
0
100
AcDbCircle
 10
5.0
 20
-6.0
 30
0.0
 40
2.5
100
AcDbArc
 50
233.130102
 51
306.869898
  0
ARC
  5
69
330
62
100
AcDbEntity
  8
0
100
AcDbCircle
 10
0.0
 20
4.0
 30
0.0
 40
12.5
100
AcDbArc
 50
253.739795
 51
286.260205
  0
ARC
  5
6A
330
62
100
AcDbEntity
  8
0
100
AcDbCircle
 10
-5.0
 20
-6.0
 30
0.0
 40
2.5
100
AcDbArc
 50
233.130102
 51
306.869898
  0
LINE
  5
6B
330
62
100
AcDbEntity
  8
0
100
AcDbLine
 10
-5.0
 20
-8.5
 30
0.0
 11
5.0
 21
-8.5
 31
0.0
  0
LINE
  5
6C
330
62
100
AcDbEntity
  8
0
100
AcDbLine
 10
3.0
 20
15.0
 30
0.0
 11
-3.0
 21
15.0
 31
0.0
  0
LINE
  5
6D
330
62
100
AcDbEntity
  8
0
100
AcDbLine
 10
4.0
 20
14.0
 30
0.0
 11
4.0
 21
3.0
 31
0.0
  0
LINE
  5
6E
330
62
100
AcDbEntity
  8
0
100
AcDbLine
 10
-4.0
 20
14.0
 30
0.0
 11
-4.0
 21
3.0
 31
0.0
  0
LINE
  5
6F
330
62
100
AcDbEntity
  8
0
100
AcDbLine
 10
-3.0
 20
15.0
 30
0.0
 11
-3.0
 21
3.0
 31
0.0
  0
LINE
  5
70
330
62
100
AcDbEntity
  8
0
100
AcDbLine
 10
4.0
 20
14.0
 30
0.0
 11
-4.0
 21
14.0
 31
0.0
  0
LINE
  5
71
330
62
100
AcDbEntity
  8
0
100
AcDbLine
 10
3.0
 20
15.0
 30
0.0
 11
3.0
 21
3.0
 31
0.0
  0
LINE
  5
72
330
62
100
AcDbEntity
  8
0
100
AcDbLine
 10
4.0
 20
14.0
 30
0.0
 11
3.0
 21
15.0
 31
0.0
  0
LINE
  5
73
330
62
100
AcDbEntity
  8
0
100
AcDbLine
 10
-3.0
 20
15.0
 30
0.0
 11
-4.0
 21
14.0
 31
0.0
  0
LINE
  5
74
330
62
100
AcDbEntity
  8
0
 62
     2
100
AcDbLine
 10
15.0
 20
0.0
 30
0.0
 11
-15.0
 21
0.0
 31
0.0
  0
LINE
  5
75
330
62
100
AcDbEntity
  8
0
 62
     2
100
AcDbLine
 10
-15.0
 20
3.0
 30
0.0
 11
-15.0
 21
-3.0
 31
0.0
  0
LINE
  5
76
330
62
100
AcDbEntity
  8
0
 62
     2
100
AcDbLine
 10
15.0
 20
3.0
 30
0.0
 11
15.0
 21
-3.0
 31
0.0
  0
LINE
  5
77
330
62
100
AcDbEntity
  8
0
 62
     2
100
AcDbLine
 10
-15.0
 20
-3.0
 30
0.0
 11
15.0
 21
-3.0
 31
0.0
  0
LINE
  5
78
330
62
100
AcDbEntity
  8
0
 62
     2
100
AcDbLine
 10
-20.0
 20
-20.8
 30
0.0
 11
-15.0
 21
-3.0
 31
0.0
  0
LINE
  5
79
330
62
100
AcDbEntity
  8
0
 62
     2
100
AcDbLine
 10
20.0
 20
-20.8
 30
0.0
 11
15.0
 21
-3.0
 31
0.0
  0
LINE
  5
7A
330
62
100
AcDbEntity
  8
0
 62
     2
100
AcDbLine
 10
20.0
 20
20.8
 30
0.0
 11
15.0
 21
3.0
 31
0.0
  0
LINE
  5
7B
330
62
100
AcDbEntity
  8
0
 62
     2
100
AcDbLine
 10
-20.0
 20
20.8
 30
0.0
 11
-15.0
 21
3.0
 31
0.0
  0
LINE
  5
7C
330
62
100
AcDbEntity
  8
0
 62
     2
100
AcDbLine
 10
-15.0
 20
-3.0
 30
0.0
 11
15.0
 21
-3.0
 31
0.0
  0
LINE
  5
7D
330
62
100
AcDbEntity
  8
0
 62
     2
100
AcDbLine
 10
-15.0
 20
3.0
 30
0.0
 11
15.0
 21
3.0
 31
0.0
  0
LINE
  5
7E
330
62
100
AcDbEntity
  8
0
 62
     2
100
AcDbLine
 10
20.0
 20
23.5
 30
0.0
 11
-20.0
 21
23.5
 31
0.0
  0
LINE
  5
7F
330
62
100
AcDbEntity
  8
0
 62
     2
100
AcDbLine
 10
-20.0
 20
20.8
 30
0.0
 11
-20.0
 21
26.2
 31
0.0
  0
LINE
  5
80
330
62
100
AcDbEntity
  8
0
 62
     2
100
AcDbLine
 10
20.0
 20
20.8
 30
0.0
 11
20.0
 21
26.2
 31
0.0
  0
LINE
  5
81
330
62
100
AcDbEntity
  8
0
 62
     2
100
AcDbLine
 10
-20.0
 20
-26.2
 30
0.0
 11
-20.0
 21
-20.8
 31
0.0
  0
LINE
  5
82
330
62
100
AcDbEntity
  8
0
 62
     2
100
AcDbLine
 10
20.0
 20
-26.2
 30
0.0
 11
20.0
 21
-20.8
 31
0.0
  0
LINE
  5
83
330
62
100
AcDbEntity
  8
0
 62
     2
100
AcDbLine
 10
20.0
 20
-26.2
 30
0.0
 11
-20.0
 21
-26.2
 31
0.0
  0
LINE
  5
84
330
62
100
AcDbEntity
  8
0
 62
     2
100
AcDbLine
 10
20.0
 20
26.2
 30
0.0
 11
-20.0
 21
26.2
 31
0.0
  0
LINE
  5
85
330
62
100
AcDbEntity
  8
0
 62
     2
100
AcDbLine
 10
20.0
 20
-20.8
 30
0.0
 11
-20.0
 21
-20.8
 31
0.0
  0
LINE
  5
86
330
62
100
AcDbEntity
  8
0
 62
     2
100
AcDbLine
 10
20.0
 20
20.8
 30
0.0
 11
-20.0
 21
20.8
 31
0.0
  0
LINE
  5
87
330
62
100
AcDbEntity
  8
0
 62
     2
100
AcDbLine
 10
20.0
 20
-23.2
 30
0.0
 11
-20.0
 21
-23.2
 31
0.0
  0
ENDBLK
  5
88
330
62
100
AcDbEntity
  8
0
100
AcDbBlockEnd
  0
BLOCK
  5
8A
330
89
100
AcDbEntity
  8
0
100
AcDbBlockBegin
  2
373C
 70
     0
 71
     0
 10
0.0
 20
0.0
 30
0.0
  3
373C
  1

  0
CIRCLE
  5
8B
330
89
100
AcDbEntity
  8
0
100
AcDbCircle
 10
0.0
 20
0.0
 30
0.0
 40
6.5
  0
LWPOLYLINE
  5
8C
330
89
100
AcDbEntity
  8
0
100
AcDbPolyline
 90
        6
 70
     1
 43
0.0
 10
-6.5
 20
-3.752777
 10
0.0
 20
-7.505553
 10
6.5
 20
-3.752777
 10
6.5
 20
3.752777
 10
0.0
 20
7.505553
 10
-6.5
 20
3.752777
  0
ARC
  5
94
330
89
100
AcDbEntity
  8
0
 62
     2
100
AcDbCircle
 10
-8.5
 20
-13.800264
 30
0.0
 40
1.5
100
AcDbArc
 50
180.0
 51
257.307334
  0
ARC
  5
95
330
89
100
AcDbEntity
  8
0
 62
     2
100
AcDbCircle
 10
-8.5
 20
13.800264
 30
0.0
 40
1.5
100
AcDbArc
 50
102.692666
 51
180.0
  0
ARC
  5
96
330
89
100
AcDbEntity
  8
0
 62
     2
100
AcDbCircle
 10
46.7
 20
13.72255
 30
0.0
 40
1.5
100
AcDbArc
 50
0.0
 51
80.837653
  0
ARC
  5
97
330
89
100
AcDbEntity
  8
0
 62
     2
100
AcDbCircle
 10
46.7
 20
-13.72255
 30
0.0
 40
1.5
100
AcDbArc
 50
279.162347
 51
0.0
  0
LINE
  5
98
330
89
100
AcDbEntity
  8
0
 62
     2
100
AcDbLine
 10
-8.829582
 20
-15.263608
 30
0.0
 11
12.2
 21
-20.0
 31
0.0
  0
LINE
  5
99
330
89
100
AcDbEntity
  8
0
 62
     2
100
AcDbLine
 10
12.2
 20
20.0
 30
0.0
 11
-8.829582
 21
15.263608
 31
0.0
  0
LINE
  5
9A
330
89
100
AcDbEntity
  8
0
 62
     2
100
AcDbLine
 10
12.2
 20
-20.0
 30
0.0
 11
12.2
 21
20.0
 31
0.0
  0
LINE
  5
9B
330
89
100
AcDbEntity
  8
0
 62
     2
100
AcDbLine
 10
-10.0
 20
-13.800264
 30
0.0
 11
-10.0
 21
13.800264
 31
0.0
  0
LINE
  5
9C
330
89
100
AcDbEntity
  8
0
 62
     2
100
AcDbLine
 10
46.938849
 20
-15.203412
 30
0.0
 11
17.2
 21
-20.0
 31
0.0
  0
LINE
  5
9D
330
89
100
AcDbEntity
  8
0
 62
     2
100
AcDbLine
 10
46.938849
 20
15.203412
 30
0.0
 11
17.2
 21
20.0
 31
0.0
  0
LINE
  5
9E
330
89
100
AcDbEntity
  8
0
 62
     2
100
AcDbLine
 10
17.2
 20
-20.0
 30
0.0
 11
17.2
 21
20.0
 31
0.0
  0
LINE
  5
9F
330
89
100
AcDbEntity
  8
0
 62
     2
100
AcDbLine
 10
17.2
 20
-20.0
 30
0.0
 11
12.2
 21
-20.0
 31
0.0
  0
LINE
  5
A0
330
89
100
AcDbEntity
  8
0
 62
     2
100
AcDbLine
 10
17.2
 20
20.0
 30
0.0
 11
12.2
 21
20.0
 31
0.0
  0
LINE
  5
A1
330
89
100
AcDbEntity
  8
0
 62
     2
100
AcDbLine
 10
44.2
 20
-15.645161
 30
0.0
 11
44.2
 21
15.645161
 31
0.0
  0
LINE
  5
A2
330
89
100
AcDbEntity
  8
0
 62
     2
100
AcDbLine
 10
48.2
 20
-13.72255
 30
0.0
 11
48.2
 21
13.72255
 31
0.0
  0
ENDBLK
  5
A3
330
89
100
AcDbEntity
  8
0
100
AcDbBlockEnd
  0
ENDSEC
  0
SECTION
  2
ENTITIES
  0
INSERT
  5
A4
330
18
100
AcDbEntity
  8
0
100
AcDbBlockReference
  2
373A
 10
0.0
 20
0.0
 30
0.0
  0
INSERT
  5
A5
330
18
100
AcDbEntity
  8
0
100
AcDbBlockReference
  2
373B
 10
100.0
 20
0.0
 30
0.0
  0
INSERT
  5
A6
330
18
100
AcDbEntity
  8
0
100
AcDbBlockReference
  2
373C
 10
-14.116202
 20
-100.0
 30
0.0
  0
ENDSEC
  0
SECTION
  2
OBJECTS
  0
DICTIONARY
  5
C
330
0
100
AcDbDictionary
  3
ACAD_GROUP
350
D
  3
ACAD_LAYOUT
350
A9
  3
ACAD_MLINESTYLE
350
1B
  3
ACDBHEADERROUNDTRIPXREC
350
AC
  0
DICTIONARY
  5
CB
330
A8
100
AcDbDictionary
280
     1
  3
ACAD_XREC_ROUNDTRIP
360
CC
  0
DICTIONARY
  5
D
102
{ACAD_REACTORS
330
C
102
}
330
C
100
AcDbDictionary
  0
DICTIONARY
  5
A9
102
{ACAD_REACTORS
330
C
102
}
330
C
100
AcDbDictionary
  0
DICTIONARY
  5
1B
102
{ACAD_REACTORS
330
C
102
}
330
C
100
AcDbDictionary
  3
STANDARD
350
1C
  0
DICTIONARY
  5
AC
102
{ACAD_REACTORS
330
C
102
}
330
C
100
AcDbDictionary
  3
CEPSNTYPE
350
B4
  3
DIMSTYLEDATA
350
CA
  3
FINGERPRINTGUID
350
B5
  3
HYPERLINKBASE
350
AF
  3
INSUNITS
350
B3
  3
LAYOUTDICT
350
B1
  3
LWETCUNION
350
B2
  3
PSVPSCALE
350
B7
  3
PUCSBASE
350
BA
  3
PUCSORGBACK
350
C0
  3
PUCSORGBOTTOM
350
BC
  3
PUCSORGFRONT
350
BF
  3
PUCSORGLEFT
350
BD
  3
PUCSORGRIGHT
350
BE
  3
PUCSORGTOP
350
BB
  3
PUCSORTHOREF
350
B8
  3
PUCSORTHOVIEW
350
B9
  3
STYLESHEET
350
B0
  3
TSTACKALIGN
350
AD
  3
TSTACKSIZE
350
AE
  3
UCSBASE
350
C3
  3
UCSORGBACK
350
C9
  3
UCSORGBOTTOM
350
C5
  3
UCSORGFRONT
350
C8
  3
UCSORGLEFT
350
C6
  3
UCSORGRIGHT
350
C7
  3
UCSORGTOP
350
C4
  3
UCSORTHOREF
350
C1
  3
UCSORTHOVIEW
350
C2
  3
VERSIONGUID
350
B6
  0
XRECORD
  5
CC
102
{ACAD_REACTORS
330
CB
102
}
330
CB
100
AcDbXrecord
102
UCS
 74
     0
 71
     1
 10
0.0
 20
0.0
 30
0.0
 10
1.0
 20
0.0
 30
0.0
 10
0.0
 20
1.0
 30
0.0
146
0.0
 79
     0
102
VIEW
281
     0
  0
MLINESTYLE
  5
1C
102
{ACAD_REACTORS
330
1B
102
}
330
1B
100
AcDbMlineStyle
  2
STANDARD
 70
     0
  3

 62
   256
 51
90.0
 52
90.0
 71
     2
 49
0.5
 62
   256
  6
BYLAYER
 49
-0.5
 62
   256
  6
BYLAYER
  0
XRECORD
  5
B4
102
{ACAD_REACTORS
330
AC
102
}
330
AC
100
AcDbXrecord
 90
        0
  0
XRECORD
  5
CA
102
{ACAD_REACTORS
330
AC
102
}
330
AC
100
AcDbXrecord
1000
DSTYLE
1002
{
1070
   340
340
F
1002
}
  0
XRECORD
  5
B5
102
{ACAD_REACTORS
330
AC
102
}
330
AC
100
AcDbXrecord
  1
{FAEB1C30-E019-11D5-929B-00C0DF256EC4}
  0
XRECORD
  5
AF
102
{ACAD_REACTORS
330
AC
102
}
330
AC
100
AcDbXrecord
  1

  0
XRECORD
  5
B3
102
{ACAD_REACTORS
330
AC
102
}
330
AC
100
AcDbXrecord
 90
        0
  0
XRECORD
  5
B1
102
{ACAD_REACTORS
330
AC
102
}
330
AC
100
AcDbXrecord
340
A9
  0
XRECORD
  5
B2
102
{ACAD_REACTORS
330
AC
102
}
330
AC
100
AcDbXrecord
 90
    10781
  0
XRECORD
  5
B7
102
{ACAD_REACTORS
330
AC
102
}
330
AC
100
AcDbXrecord
 40
0.0
  0
XRECORD
  5
BA
102
{ACAD_REACTORS
330
AC
102
}
330
AC
100
AcDbXrecord
340
0
  0
XRECORD
  5
C0
102
{ACAD_REACTORS
330
AC
102
}
330
AC
100
AcDbXrecord
 10
0.0
 20
0.0
 30
0.0
  0
XRECORD
  5
BC
102
{ACAD_REACTORS
330
AC
102
}
330
AC
100
AcDbXrecord
 10
0.0
 20
0.0
 30
0.0
  0
XRECORD
  5
BF
102
{ACAD_REACTORS
330
AC
102
}
330
AC
100
AcDbXrecord
 10
0.0
 20
0.0
 30
0.0
  0
XRECORD
  5
BD
102
{ACAD_REACTORS
330
AC
102
}
330
AC
100
AcDbXrecord
 10
0.0
 20
0.0
 30
0.0
  0
XRECORD
  5
BE
102
{ACAD_REACTORS
330
AC
102
}
330
AC
100
AcDbXrecord
 10
0.0
 20
0.0
 30
0.0
  0
XRECORD
  5
BB
102
{ACAD_REACTORS
330
AC
102
}
330
AC
100
AcDbXrecord
 10
0.0
 20
0.0
 30
0.0
  0
XRECORD
  5
B8
102
{ACAD_REACTORS
330
AC
102
}
330
AC
100
AcDbXrecord
340
0
  0
XRECORD
  5
B9
102
{ACAD_REACTORS
330
AC
102
}
330
AC
100
AcDbXrecord
 70
     0
  0
XRECORD
  5
B0
102
{ACAD_REACTORS
330
AC
102
}
330
AC
100
AcDbXrecord
  1

  0
XRECORD
  5
AD
102
{ACAD_REACTORS
330
AC
102
}
330
AC
100
AcDbXrecord
 90
        1
  0
XRECORD
  5
AE
102
{ACAD_REACTORS
330
AC
102
}
330
AC
100
AcDbXrecord
 90
       70
  0
XRECORD
  5
C3
102
{ACAD_REACTORS
330
AC
102
}
330
AC
100
AcDbXrecord
340
0
  0
XRECORD
  5
C9
102
{ACAD_REACTORS
330
AC
102
}
330
AC
100
AcDbXrecord
 10
0.0
 20
0.0
 30
0.0
  0
XRECORD
  5
C5
102
{ACAD_REACTORS
330
AC
102
}
330
AC
100
AcDbXrecord
 10
0.0
 20
0.0
 30
0.0
  0
XRECORD
  5
C8
102
{ACAD_REACTORS
330
AC
102
}
330
AC
100
AcDbXrecord
 10
0.0
 20
0.0
 30
0.0
  0
XRECORD
  5
C6
102
{ACAD_REACTORS
330
AC
102
}
330
AC
100
AcDbXrecord
 10
0.0
 20
0.0
 30
0.0
  0
XRECORD
  5
C7
102
{ACAD_REACTORS
330
AC
102
}
330
AC
100
AcDbXrecord
 10
0.0
 20
0.0
 30
0.0
  0
XRECORD
  5
C4
102
{ACAD_REACTORS
330
AC
102
}
330
AC
100
AcDbXrecord
 10
0.0
 20
0.0
 30
0.0
  0
XRECORD
  5
C1
102
{ACAD_REACTORS
330
AC
102
}
330
AC
100
AcDbXrecord
340
0
  0
XRECORD
  5
C2
102
{ACAD_REACTORS
330
AC
102
}
330
AC
100
AcDbXrecord
 70
     0
  0
XRECORD
  5
B6
102
{ACAD_REACTORS
330
AC
102
}
330
AC
100
AcDbXrecord
  1
{FAEB1C32-E019-11D5-929B-00C0DF256EC4}
  0
ENDSEC
  0
EOF
