  0
SECTION
  2
HEADER
  9
$ACADVER
  1
AC1014
  9
$ACADMAINTVER
 70
     9
  9
$DWGCODEPAGE
  3
ANSI_1252
  9
$INSBASE
 10
0.0
 20
0.0
 30
0.0
  9
$EXTMIN
 10
-28.0
 20
-94.5
 30
0.0
  9
$EXTMAX
 10
258.5
 20
147.426685
 30
0.0
  9
$LIMMIN
 10
0.0
 20
0.0
  9
$LIMMAX
 10
297.0
 20
210.0
  9
$ORTHOMODE
 70
     0
  9
$REGENMODE
 70
     1
  9
$FILLMODE
 70
     1
  9
$QTEXTMODE
 70
     0
  9
$MIRRTEXT
 70
     1
  9
$DRAGMODE
 70
     2
  9
$LTSCALE
 40
10.0
  9
$OSMODE
 70
    37
  9
$ATTMODE
 70
     1
  9
$TEXTSIZE
 40
0.2
  9
$TRACEWID
 40
0.05
  9
$TEXTSTYLE
  7
STANDARD
  9
$CLAYER
  8
0
  9
$CELTYPE
  6
BYLAYER
  9
$CECOLOR
 62
   256
  9
$CELTSCALE
 40
1.0
  9
$DELOBJ
 70
     1
  9
$DISPSILH
 70
     0
  9
$DIMSCALE
 40
1.0
  9
$DIMASZ
 40
0.18
  9
$DIMEXO
 40
0.0625
  9
$DIMDLI
 40
0.38
  9
$DIMRND
 40
0.0
  9
$DIMDLE
 40
0.0
  9
$DIMEXE
 40
0.18
  9
$DIMTP
 40
0.0
  9
$DIMTM
 40
0.0
  9
$DIMTXT
 40
0.18
  9
$DIMCEN
 40
0.09
  9
$DIMTSZ
 40
0.0
  9
$DIMTOL
 70
     0
  9
$DIMLIM
 70
     0
  9
$DIMTIH
 70
     1
  9
$DIMTOH
 70
     1
  9
$DIMSE1
 70
     0
  9
$DIMSE2
 70
     0
  9
$DIMTAD
 70
     0
  9
$DIMZIN
 70
     0
  9
$DIMBLK
  1

  9
$DIMASO
 70
     1
  9
$DIMSHO
 70
     0
  9
$DIMPOST
  1

  9
$DIMAPOST
  1

  9
$DIMALT
 70
     0
  9
$DIMALTD
 70
     2
  9
$DIMALTF
 40
25.4
  9
$DIMLFAC
 40
1.0
  9
$DIMTOFL
 70
     0
  9
$DIMTVP
 40
0.0
  9
$DIMTIX
 70
     0
  9
$DIMSOXD
 70
     0
  9
$DIMSAH
 70
     0
  9
$DIMBLK1
  1

  9
$DIMBLK2
  1

  9
$DIMSTYLE
  2
STANDARD
  9
$DIMCLRD
 70
     0
  9
$DIMCLRE
 70
     0
  9
$DIMCLRT
 70
     0
  9
$DIMTFAC
 40
1.0
  9
$DIMGAP
 40
0.09
  9
$DIMJUST
 70
     0
  9
$DIMSD1
 70
     0
  9
$DIMSD2
 70
     0
  9
$DIMTOLJ
 70
     1
  9
$DIMTZIN
 70
     0
  9
$DIMALTZ
 70
     0
  9
$DIMALTTZ
 70
     0
  9
$DIMFIT
 70
     3
  9
$DIMUPT
 70
     0
  9
$DIMUNIT
 70
     2
  9
$DIMDEC
 70
     4
  9
$DIMTDEC
 70
     4
  9
$DIMALTU
 70
     2
  9
$DIMALTTD
 70
     2
  9
$DIMTXSTY
  7
STANDARD
  9
$DIMAUNIT
 70
     0
  9
$LUNITS
 70
     2
  9
$LUPREC
 70
     4
  9
$SKETCHINC
 40
0.1
  9
$FILLETRAD
 40
0.0
  9
$AUNITS
 70
     0
  9
$AUPREC
 70
     0
  9
$MENU
  1
sitopluk
  9
$ELEVATION
 40
0.0
  9
$PELEVATION
 40
0.0
  9
$THICKNESS
 40
0.0
  9
$LIMCHECK
 70
     0
  9
$CHAMFERA
 40
0.0
  9
$CHAMFERB
 40
0.0
  9
$CHAMFERC
 40
0.0
  9
$CHAMFERD
 40
0.0
  9
$SKPOLY
 70
     0
  9
$TDCREATE
 40
2450498.396253472
  9
$TDUPDATE
 40
2453594.711627894
  9
$TDINDWG
 40
0.0001474421
  9
$TDUSRTIMER
 40
0.0001474421
  9
$USRTIMER
 70
     1
  9
$ANGBASE
 50
0.0
  9
$ANGDIR
 70
     0
  9
$PDMODE
 70
     0
  9
$PDSIZE
 40
0.0
  9
$PLINEWID
 40
0.0
  9
$COORDS
 70
     1
  9
$SPLFRAME
 70
     0
  9
$SPLINETYPE
 70
     6
  9
$SPLINESEGS
 70
     8
  9
$ATTDIA
 70
     0
  9
$ATTREQ
 70
     1
  9
$HANDLING
 70
     1
  9
$HANDSEED
  5
194
  9
$SURFTAB1
 70
     6
  9
$SURFTAB2
 70
     6
  9
$SURFTYPE
 70
     6
  9
$SURFU
 70
     6
  9
$SURFV
 70
     6
  9
$UCSNAME
  2

  9
$UCSORG
 10
0.0
 20
0.0
 30
0.0
  9
$UCSXDIR
 10
1.0
 20
0.0
 30
0.0
  9
$UCSYDIR
 10
0.0
 20
1.0
 30
0.0
  9
$PUCSNAME
  2

  9
$PUCSORG
 10
0.0
 20
0.0
 30
0.0
  9
$PUCSXDIR
 10
1.0
 20
0.0
 30
0.0
  9
$PUCSYDIR
 10
0.0
 20
1.0
 30
0.0
  9
$USERI1
 70
     0
  9
$USERI2
 70
     0
  9
$USERI3
 70
     0
  9
$USERI4
 70
     0
  9
$USERI5
 70
     0
  9
$USERR1
 40
0.0
  9
$USERR2
 40
0.0
  9
$USERR3
 40
0.0
  9
$USERR4
 40
0.0
  9
$USERR5
 40
0.0
  9
$WORLDVIEW
 70
     1
  9
$SHADEDGE
 70
     3
  9
$SHADEDIF
 70
    70
  9
$TILEMODE
 70
     1
  9
$MAXACTVP
 70
    48
  9
$PINSBASE
 10
0.0
 20
0.0
 30
0.0
  9
$PLIMCHECK
 70
     0
  9
$PEXTMIN
 10
1.000000000000000E+20
 20
1.000000000000000E+20
 30
1.000000000000000E+20
  9
$PEXTMAX
 10
-1.000000000000000E+20
 20
-1.000000000000000E+20
 30
-1.000000000000000E+20
  9
$PLIMMIN
 10
0.0
 20
0.0
  9
$PLIMMAX
 10
12.0
 20
9.0
  9
$UNITMODE
 70
     0
  9
$VISRETAIN
 70
     1
  9
$PLINEGEN
 70
     0
  9
$PSLTSCALE
 70
     1
  9
$TREEDEPTH
 70
  3020
  9
$PICKSTYLE
 70
     1
  9
$CMLSTYLE
  2
STANDARD
  9
$CMLJUST
 70
     0
  9
$CMLSCALE
 40
1.0
  9
$PROXYGRAPHICS
 70
     1
  9
$MEASUREMENT
 70
     0
  0
ENDSEC
  0
SECTION
  2
CLASSES
  0
CLASS
  1
XRECORD
  2
AcDbXrecord
  3
AutoCAD 2000
 90
        0
280
     0
281
     0
  0
CLASS
  1
LWPOLYLINE
  2
AcDbPolyline
  3
AutoCAD 2000
 90
        0
280
     0
281
     1
  0
CLASS
  1
HATCH
  2
AcDbHatch
  3
AutoCAD 2000
 90
        0
280
     0
281
     1
  0
CLASS
  1
ACDBPLACEHOLDER
  2
AcDbPlaceHolder
  3
ObjectDBX Classes
 90
        0
280
     0
281
     0
  0
CLASS
  1
LAYOUT
  2
AcDbLayout
  3
ObjectDBX Classes
 90
        0
280
     0
281
     0
  0
ENDSEC
  0
SECTION
  2
TABLES
  0
TABLE
  2
VPORT
  5
8
330
0
100
AcDbSymbolTable
 70
     2
  0
VPORT
  5
16F
102
{ACAD_XDICTIONARY
360
192
102
}
330
8
100
AcDbSymbolTableRecord
100
AcDbViewportTableRecord
  2
*ACTIVE
 70
     0
 10
0.0
 20
0.0
 11
1.0
 21
1.0
 12
134.5
 22
57.75
 13
0.0
 23
0.0
 14
0.5
 24
0.5
 15
0.0
 25
0.0
 16
0.0
 26
0.0
 36
1.0
 17
0.0
 27
0.0
 37
0.0
 40
307.9471698113208
 41
1.748582230623819
 42
50.0
 43
0.0
 44
0.0
 50
0.0
 51
0.0
 71
     0
 72
   100
 73
     1
 74
     1
 75
     1
 76
     0
 77
     0
 78
     0
  0
ENDTAB
  0
TABLE
  2
LTYPE
  5
5
330
0
100
AcDbSymbolTable
 70
     2
  0
LTYPE
  5
12
330
5
100
AcDbSymbolTableRecord
100
AcDbLinetypeTableRecord
  2
BYBLOCK
 70
     0
  3

 72
    65
 73
     0
 40
0.0
  0
LTYPE
  5
13
330
5
100
AcDbSymbolTableRecord
100
AcDbLinetypeTableRecord
  2
BYLAYER
 70
     0
  3

 72
    65
 73
     0
 40
0.0
  0
LTYPE
  5
14
330
5
100
AcDbSymbolTableRecord
100
AcDbLinetypeTableRecord
  2
CONTINUOUS
 70
     0
  3
Solid line
 72
    65
 73
     0
 40
0.0
  0
LTYPE
  5
1F
330
5
100
AcDbSymbolTableRecord
100
AcDbLinetypeTableRecord
  2
HIDDEN
 70
     0
  3
_ _ _ _ _ _ _ _ _ _ _ _ _ _ _ _ _ _ _ _ _ _ _
 72
    65
 73
     2
 40
0.375
 49
0.25
 74
     0
 49
-0.125
 74
     0
  0
ENDTAB
  0
TABLE
  2
LAYER
  5
2
330
0
100
AcDbSymbolTable
 70
     4
  0
LAYER
  5
E
330
2
100
AcDbSymbolTableRecord
100
AcDbLayerTableRecord
  2
0
 70
     0
 62
     7
  6
CONTINUOUS
  0
LAYER
  5
20
330
2
100
AcDbSymbolTableRecord
100
AcDbLayerTableRecord
  2
PROFILI
 70
     0
 62
     7
  6
CONTINUOUS
  0
LAYER
  5
21
330
2
100
AcDbSymbolTableRecord
100
AcDbLayerTableRecord
  2
FISSAGGI
 70
     0
 62
     2
  6
CONTINUOUS
  0
LAYER
  5
22
330
2
100
AcDbSymbolTableRecord
100
AcDbLayerTableRecord
  2
PANNELLI
 70
     0
 62
     6
  6
CONTINUOUS
  0
ENDTAB
  0
TABLE
  2
STYLE
  5
3
330
0
100
AcDbSymbolTable
 70
     1
  0
STYLE
  5
F
330
3
100
AcDbSymbolTableRecord
100
AcDbTextStyleTableRecord
  2
STANDARD
 70
     0
 40
0.0
 41
1.0
 50
0.0
 71
     0
 42
0.2
  3
txt
  4

  0
ENDTAB
  0
TABLE
  2
VIEW
  5
6
330
0
100
AcDbSymbolTable
 70
     0
  0
ENDTAB
  0
TABLE
  2
UCS
  5
7
330
0
100
AcDbSymbolTable
 70
     0
  0
ENDTAB
  0
TABLE
  2
APPID
  5
9
330
0
100
AcDbSymbolTable
 70
     1
  0
APPID
  5
10
330
9
100
AcDbSymbolTableRecord
100
AcDbRegAppTableRecord
  2
ACAD
 70
     0
  0
ENDTAB
  0
TABLE
  2
DIMSTYLE
  5
A
330
0
100
AcDbSymbolTable
 70
     1
  0
DIMSTYLE
105
16E
330
A
100
AcDbSymbolTableRecord
100
AcDbDimStyleTableRecord
  2
STANDARD
 70
     0
  3

  4

  5

  6

  7

 40
1.0
 41
0.18
 42
0.0625
 43
0.38
 44
0.18
 45
0.0
 46
0.0
 47
0.0
 48
0.0
140
0.18
141
0.09
142
0.0
143
25.4
144
1.0
145
0.0
146
1.0
147
0.09
 71
     0
 72
     0
 73
     1
 74
     1
 75
     0
 76
     0
 77
     0
 78
     0
170
     0
171
     2
172
     0
173
     0
174
     0
175
     0
176
     0
177
     0
178
     0
270
     2
271
     4
272
     4
273
     2
274
     2
340
F
275
     0
280
     0
281
     0
282
     0
283
     1
284
     0
285
     0
286
     0
287
     3
288
     0
  0
ENDTAB
  0
TABLE
  2
BLOCK_RECORD
  5
1
330
0
100
AcDbSymbolTable
 70
     5
  0
BLOCK_RECORD
  5
18
330
1
100
AcDbSymbolTableRecord
100
AcDbBlockTableRecord
  2
*MODEL_SPACE
  0
BLOCK_RECORD
  5
15
330
1
100
AcDbSymbolTableRecord
100
AcDbBlockTableRecord
  2
*PAPER_SPACE
  0
BLOCK_RECORD
  5
23
330
1
100
AcDbSymbolTableRecord
100
AcDbBlockTableRecord
  2
BORDER
  0
BLOCK_RECORD
  5
2A
330
1
100
AcDbSymbolTableRecord
100
AcDbBlockTableRecord
  2
342A
  0
BLOCK_RECORD
  5
2C
330
1
100
AcDbSymbolTableRecord
100
AcDbBlockTableRecord
  2
340C
  0
BLOCK_RECORD
  5
6A
330
1
100
AcDbSymbolTableRecord
100
AcDbBlockTableRecord
  2
342C
  0
BLOCK_RECORD
  5
FB
330
1
100
AcDbSymbolTableRecord
100
AcDbBlockTableRecord
  2
342B
  0
ENDTAB
  0
ENDSEC
  0
SECTION
  2
BLOCKS
  0
BLOCK
  5
19
330
18
100
AcDbEntity
  8
0
100
AcDbBlockBegin
  2
*MODEL_SPACE
 70
     0
 71
     0
 10
0.0
 20
0.0
 30
0.0
  3
*MODEL_SPACE
  1

  0
ENDBLK
  5
1A
330
18
100
AcDbEntity
  8
0
100
AcDbBlockEnd
  0
BLOCK
  5
16
330
15
100
AcDbEntity
 67
     1
  8
0
100
AcDbBlockBegin
  2
*PAPER_SPACE
 70
     0
 71
     0
 10
0.0
 20
0.0
 30
0.0
  3
*PAPER_SPACE
  1

  0
ENDBLK
  5
17
330
15
100
AcDbEntity
 67
     1
  8
0
100
AcDbBlockEnd
  0
BLOCK
  5
24
330
23
100
AcDbEntity
  8
0
100
AcDbBlockBegin
  2
BORDER
 70
     0
 71
     0
 10
0.0
 20
0.0
 30
0.0
  3
BORDER
  1

  0
LINE
  5
25
330
23
100
AcDbEntity
  8
0
100
AcDbLine
 10
0.0
 20
0.0
 30
0.0
 11
1.0
 21
0.0
 31
0.0
  0
LINE
  5
26
330
23
100
AcDbEntity
  8
0
100
AcDbLine
 10
1.0
 20
0.0
 30
0.0
 11
1.0
 21
1.0
 31
0.0
  0
LINE
  5
27
330
23
100
AcDbEntity
  8
0
100
AcDbLine
 10
1.0
 20
1.0
 30
0.0
 11
0.0
 21
1.0
 31
0.0
  0
LINE
  5
28
330
23
100
AcDbEntity
  8
0
100
AcDbLine
 10
0.0
 20
1.0
 30
0.0
 11
0.0
 21
0.0
 31
0.0
  0
ENDBLK
  5
29
330
23
100
AcDbEntity
  8
0
100
AcDbBlockEnd
  0
BLOCK
  5
2B
330
2A
100
AcDbEntity
  8
0
100
AcDbBlockBegin
  2
342A
 70
     0
 71
     0
 10
0.0
 20
0.0
 30
0.0
  3
342A
  1

  0
INSERT
  5
2D
330
2A
100
AcDbEntity
  8
0
 62
     1
100
AcDbBlockReference
  2
340C
 10
0.0
 20
105.927567
 30
0.0
  0
LINE
  5
2E
330
2A
100
AcDbEntity
  8
0
 62
     7
100
AcDbLine
 10
-5.0
 20
-28.0
 30
0.0
 11
5.0
 21
-28.0
 31
0.0
  0
LINE
  5
2F
330
2A
100
AcDbEntity
  8
0
 62
     7
100
AcDbLine
 10
-5.0
 20
122.0
 30
0.0
 11
5.0
 21
122.0
 31
0.0
  0
LINE
  5
30
330
2A
100
AcDbEntity
  8
0
 62
     7
100
AcDbLine
 10
5.0
 20
15.0
 30
0.0
 11
5.0
 21
122.0
 31
0.0
  0
LINE
  5
31
330
2A
100
AcDbEntity
  8
0
 62
     7
100
AcDbLine
 10
-5.0
 20
15.0
 30
0.0
 11
-5.0
 21
122.0
 31
0.0
  0
LINE
  5
32
330
2A
100
AcDbEntity
  8
0
 62
     7
100
AcDbLine
 10
-5.0
 20
-15.0
 30
0.0
 11
-5.0
 21
-28.0
 31
0.0
  0
LINE
  5
33
330
2A
100
AcDbEntity
  8
0
 62
     7
100
AcDbLine
 10
5.0
 20
-15.0
 30
0.0
 11
5.0
 21
-28.0
 31
0.0
  0
LINE
  5
34
330
2A
100
AcDbEntity
  8
0
 62
     7
100
AcDbLine
 10
10.5
 20
111.427567
 30
0.0
 11
133.728933
 21
111.427567
 31
0.0
  0
LINE
  5
35
330
2A
100
AcDbEntity
  8
0
 62
     7
100
AcDbLine
 10
10.5
 20
101.427567
 30
0.0
 11
133.728933
 21
101.427567
 31
0.0
  0
LINE
  5
36
330
2A
100
AcDbEntity
  8
0
 62
     7
100
AcDbLine
 10
-16.271067
 20
111.427567
 30
0.0
 11
-16.271067
 21
101.427567
 31
0.0
  0
LINE
  5
37
330
2A
100
AcDbEntity
  8
0
 62
     7
100
AcDbLine
 10
133.728933
 20
111.427567
 30
0.0
 11
133.728933
 21
101.427567
 31
0.0
  0
LINE
  5
38
330
2A
100
AcDbEntity
  8
0
 62
     7
100
AcDbLine
 10
-10.5
 20
101.427567
 30
0.0
 11
-16.271067
 21
101.427567
 31
0.0
  0
LINE
  5
39
330
2A
100
AcDbEntity
  8
0
 62
     7
100
AcDbLine
 10
-10.5
 20
111.427567
 30
0.0
 11
-16.271067
 21
111.427567
 31
0.0
  0
LINE
  5
3A
330
2A
100
AcDbEntity
  8
0
100
AcDbLine
 10
114.526532
 20
110.068552
 30
0.0
 11
84.52653199999999
 21
110.068552
 31
0.0
  0
LINE
  5
3B
330
2A
100
AcDbEntity
  8
0
  6
HIDDEN
100
AcDbLine
 10
114.316732
 20
101.426685
 30
0.0
 11
84.736333
 21
101.426685
 31
0.0
  0
LINE
  5
3C
330
2A
100
AcDbEntity
  8
0
  6
HIDDEN
100
AcDbLine
 10
114.526532
 20
113.426685
 30
0.0
 11
84.52653199999999
 21
113.426685
 31
0.0
  0
LINE
  5
3D
330
2A
100
AcDbEntity
  8
0
100
AcDbLine
 10
114.526532
 20
118.426685
 30
0.0
 11
84.52653199999999
 21
118.426685
 31
0.0
  0
ARC
  5
3E
330
2A
100
AcDbEntity
  8
0
100
AcDbCircle
 10
99.52653199999999
 20
103.926685
 30
0.0
 40
15.0
100
AcDbArc
 50
180.0
 51
0.0
  0
CIRCLE
  5
3F
330
2A
100
AcDbEntity
  8
0
100
AcDbCircle
 10
99.52653199999999
 20
132.426685
 30
0.0
 40
9.5
  0
ARC
  5
40
330
2A
100
AcDbEntity
  8
0
100
AcDbCircle
 10
99.52653199999999
 20
132.426685
 30
0.0
 40
15.0
100
AcDbArc
 50
0.0
 51
180.0
  0
LINE
  5
41
330
2A
100
AcDbEntity
  8
0
100
AcDbLine
 10
114.526532
 20
103.926685
 30
0.0
 11
114.526532
 21
132.426684
 31
0.0
  0
LINE
  5
42
330
2A
100
AcDbEntity
  8
0
100
AcDbLine
 10
84.52653199999999
 20
103.926685
 30
0.0
 11
84.52653199999999
 21
132.426684
 31
0.0
  0
LWPOLYLINE
  5
43
330
2A
100
AcDbEntity
  8
0
100
AcDbPolyline
 90
        6
 70
     1
 43
0.0
 10
101.547258
 20
93.42668499999999
 10
103.567984
 20
96.92668499999999
 10
101.547258
 20
100.426685
 10
97.50580600000001
 20
100.426685
 10
95.48508000000001
 20
96.92668499999999
 10
97.50580600000001
 20
93.42668499999999
  0
ARC
  5
4B
330
2A
100
AcDbEntity
  8
0
100
AcDbCircle
 10
99.52653199999999
 20
96.92668499999999
 30
0.0
 40
2.0
100
AcDbArc
 50
90.0
 51
0.0
  0
CIRCLE
  5
4C
330
2A
100
AcDbEntity
  8
0
100
AcDbCircle
 10
99.52653199999999
 20
96.92668499999999
 30
0.0
 40
1.5
  0
LINE
  5
4D
330
2A
100
AcDbEntity
  8
0
100
AcDbLine
 10
10.5
 20
15.0
 30
0.0
 11
10.5
 21
-15.0
 31
0.0
  0
LINE
  5
4E
330
2A
100
AcDbEntity
  8
0
100
AcDbLine
 10
8.0
 20
15.0
 30
0.0
 11
8.0
 21
-15.0
 31
0.0
  0
LINE
  5
4F
330
2A
100
AcDbEntity
  8
0
100
AcDbLine
 10
1.0
 20
15.0
 30
0.0
 11
1.0
 21
-15.0
 31
0.0
  0
LINE
  5
50
330
2A
100
AcDbEntity
  8
0
  6
HIDDEN
100
AcDbLine
 10
6.0
 20
15.0
 30
0.0
 11
6.0
 21
-15.0
 31
0.0
  0
LINE
  5
51
330
2A
100
AcDbEntity
  8
0
  6
HIDDEN
100
AcDbLine
 10
-6.0
 20
15.0
 30
0.0
 11
-6.0
 21
-15.0
 31
0.0
  0
LINE
  5
52
330
2A
100
AcDbEntity
  8
0
100
AcDbLine
 10
-1.0
 20
15.0
 30
0.0
 11
-1.0
 21
-15.0
 31
0.0
  0
LINE
  5
53
330
2A
100
AcDbEntity
  8
0
100
AcDbLine
 10
-8.0
 20
15.0
 30
0.0
 11
-8.0
 21
-15.0
 31
0.0
  0
LINE
  5
54
330
2A
100
AcDbEntity
  8
0
100
AcDbLine
 10
-10.5
 20
15.0
 30
0.0
 11
-10.5
 21
-15.0
 31
0.0
  0
CIRCLE
  5
55
330
2A
100
AcDbEntity
  8
0
100
AcDbCircle
 10
20.0
 20
0.0
 30
0.0
 40
5.25
  0
CIRCLE
  5
56
330
2A
100
AcDbEntity
  8
0
100
AcDbCircle
 10
20.0
 20
0.0
 30
0.0
 40
3.25
  0
CIRCLE
  5
57
330
2A
100
AcDbEntity
  8
0
100
AcDbCircle
 10
-20.0
 20
0.0
 30
0.0
 40
3.25
  0
CIRCLE
  5
58
330
2A
100
AcDbEntity
  8
0
100
AcDbCircle
 10
-20.0
 20
0.0
 30
0.0
 40
5.25
  0
ARC
  5
59
330
2A
100
AcDbEntity
  8
0
100
AcDbCircle
 10
13.0
 20
0.0
 30
0.0
 40
15.0
100
AcDbArc
 50
270.0
 51
90.0
  0
ARC
  5
5A
330
2A
100
AcDbEntity
  8
0
100
AcDbCircle
 10
-13.0
 20
0.0
 30
0.0
 40
15.0
100
AcDbArc
 50
90.0
 51
270.0
  0
LINE
  5
5B
330
2A
100
AcDbEntity
  8
0
100
AcDbLine
 10
-13.0
 20
-15.0
 30
0.0
 11
13.0
 21
-15.0
 31
0.0
  0
LINE
  5
5C
330
2A
100
AcDbEntity
  8
0
100
AcDbLine
 10
-13.0
 20
15.0
 30
0.0
 11
13.0
 21
15.0
 31
0.0
  0
ENDBLK
  5
5D
330
2A
100
AcDbEntity
  8
0
100
AcDbBlockEnd
  0
BLOCK
  5
5E
330
2C
100
AcDbEntity
  8
0
 62
     1
100
AcDbBlockBegin
  2
340C
 70
     0
 71
     0
 10
0.0
 20
0.0
 30
0.0
  3
340C
  1

  0
LINE
  5
5F
330
2C
100
AcDbEntity
  8
0
  6
HIDDEN
100
AcDbLine
 10
6.0
 20
-10.5
 30
0.0
 11
6.0
 21
10.5
 31
0.0
  0
LINE
  5
60
330
2C
100
AcDbEntity
  8
0
  6
HIDDEN
100
AcDbLine
 10
-6.0
 20
-10.5
 30
0.0
 11
-6.0
 21
10.5
 31
0.0
  0
LINE
  5
61
330
2C
100
AcDbEntity
  8
0
100
AcDbLine
 10
-8.0
 20
-10.5
 30
0.0
 11
-8.0
 21
10.5
 31
0.0
  0
LINE
  5
62
330
2C
100
AcDbEntity
  8
0
100
AcDbLine
 10
8.0
 20
-10.5
 30
0.0
 11
8.0
 21
10.5
 31
0.0
  0
LINE
  5
63
330
2C
100
AcDbEntity
  8
0
100
AcDbLine
 10
1.0
 20
-10.5
 30
0.0
 11
1.0
 21
10.5
 31
0.0
  0
LINE
  5
64
330
2C
100
AcDbEntity
  8
0
100
AcDbLine
 10
-1.0
 20
-10.5
 30
0.0
 11
-1.0
 21
10.5
 31
0.0
  0
LINE
  5
65
330
2C
100
AcDbEntity
  8
0
100
AcDbLine
 10
-10.5
 20
10.5
 30
0.0
 11
10.5
 21
10.5
 31
0.0
  0
LINE
  5
66
330
2C
100
AcDbEntity
  8
0
100
AcDbLine
 10
-10.5
 20
-10.5
 30
0.0
 11
10.5
 21
-10.5
 31
0.0
  0
LINE
  5
67
330
2C
100
AcDbEntity
  8
0
100
AcDbLine
 10
-10.5
 20
-10.5
 30
0.0
 11
-10.5
 21
10.5
 31
0.0
  0
LINE
  5
68
330
2C
100
AcDbEntity
  8
0
100
AcDbLine
 10
10.5
 20
-10.5
 30
0.0
 11
10.5
 21
10.5
 31
0.0
  0
ENDBLK
  5
69
330
2C
100
AcDbEntity
  8
0
 62
     1
100
AcDbBlockEnd
  0
BLOCK
  5
6B
330
6A
100
AcDbEntity
  8
0
100
AcDbBlockBegin
  2
342C
 70
     0
 71
     0
 10
0.0
 20
0.0
 30
0.0
  3
342C
  1

  0
LINE
  5
6C
330
6A
100
AcDbEntity
  8
0
 62
     7
100
AcDbLine
 10
13.710963
 20
128.539337
 30
0.0
 11
13.710963
 21
-21.460663
 31
0.0
  0
LINE
  5
6D
330
6A
100
AcDbEntity
  8
0
 62
     7
100
AcDbLine
 10
13.710963
 20
-21.460663
 30
0.0
 11
23.710963
 21
-21.460663
 31
0.0
  0
LINE
  5
6E
330
6A
100
AcDbEntity
  8
0
 62
     7
100
AcDbLine
 10
23.710963
 20
-21.460663
 30
0.0
 11
23.710963
 21
128.539337
 31
0.0
  0
LINE
  5
6F
330
6A
100
AcDbEntity
  8
0
 62
     7
100
AcDbLine
 10
23.710963
 20
128.539337
 30
0.0
 11
13.710963
 21
128.539337
 31
0.0
  0
LWPOLYLINE
  5
70
330
6A
100
AcDbEntity
  8
0
100
AcDbPolyline
 90
        6
 70
     1
 43
0.0
 10
29.899082
 20
108.09153
 10
28.399082
 20
108.957555
 10
26.899082
 20
108.09153
 10
26.899082
 20
106.359479
 10
28.399082
 20
105.493454
 10
29.899082
 20
106.359479
  0
CIRCLE
  5
78
330
6A
100
AcDbEntity
  8
0
100
AcDbCircle
 10
28.399082
 20
107.225504
 30
0.0
 40
3.5
  0
LINE
  5
79
330
6A
100
AcDbEntity
  8
0
100
AcDbLine
 10
26.399082
 20
117.725504
 30
0.0
 11
0.8990819999999999
 21
117.725504
 31
0.0
  0
LINE
  5
7A
330
6A
100
AcDbEntity
  8
0
100
AcDbLine
 10
26.399082
 20
96.725504
 30
0.0
 11
0.8990819999999999
 21
96.725504
 31
0.0
  0
LINE
  5
7B
330
6A
100
AcDbEntity
  8
0
100
AcDbLine
 10
-16.100918
 20
99.225504
 30
0.0
 11
-16.100918
 21
106.225504
 31
0.0
  0
ARC
  5
7C
330
6A
100
AcDbEntity
  8
0
100
AcDbCircle
 10
26.399082
 20
107.225504
 30
0.0
 40
10.5
100
AcDbArc
 50
270.0
 51
90.0
  0
ARC
  5
7D
330
6A
100
AcDbEntity
  8
0
100
AcDbCircle
 10
2.399082
 20
107.225504
 30
0.0
 40
6.0
100
AcDbArc
 50
326.44269
 51
33.55731000000001
  0
LWPOLYLINE
  5
7E
330
6A
100
AcDbEntity
  8
0
100
AcDbPolyline
 90
        2
 70
     0
 43
0.0
 10
-2.600918
 20
102.225504
 10
-0.917543
 20
102.225504
  0
ARC
  5
82
330
6A
100
AcDbEntity
  8
0
100
AcDbCircle
 10
2.399082
 20
107.225504
 30
0.0
 40
6.0
100
AcDbArc
 50
236.44269
 51
303.55731
  0
LWPOLYLINE
  5
83
330
6A
100
AcDbEntity
  8
0
100
AcDbPolyline
 90
        2
 70
     0
 43
0.0
 10
-2.600918
 20
103.90888
 10
-2.600918
 20
102.225504
  0
ARC
  5
87
330
6A
100
AcDbEntity
  8
0
100
AcDbCircle
 10
2.399082
 20
107.225504
 30
0.0
 40
6.0
100
AcDbArc
 50
146.44269
 51
170.405932
  0
LWPOLYLINE
  5
88
330
6A
100
AcDbEntity
  8
0
100
AcDbPolyline
 90
        3
 70
     0
 43
0.0
 10
-0.917543
 20
112.225504
 10
-2.600918
 20
112.225504
 10
-2.600918
 20
110.542129
  0
ARC
  5
8D
330
6A
100
AcDbEntity
  8
0
100
AcDbCircle
 10
2.399082
 20
107.225504
 30
0.0
 40
6.0
100
AcDbArc
 50
56.44269000000001
 51
123.55731
  0
LWPOLYLINE
  5
8E
330
6A
100
AcDbEntity
  8
0
100
AcDbPolyline
 90
        3
 70
     0
 43
0.0
 10
5.715707
 20
102.225504
 10
7.399082000000001
 20
102.225504
 10
7.399082000000001
 20
103.90888
  0
LWPOLYLINE
  5
93
330
6A
100
AcDbEntity
  8
0
100
AcDbPolyline
 90
        3
 70
     0
 43
0.0
 10
7.399082000000001
 20
110.542129
 10
7.399082000000001
 20
112.225504
 10
5.715707
 20
112.225504
  0
LINE
  5
98
330
6A
100
AcDbEntity
  8
0
100
AcDbLine
 10
0.8990819999999999
 20
96.725504
 30
0.0
 11
-16.100918
 21
99.225504
 31
0.0
  0
LINE
  5
99
330
6A
100
AcDbEntity
  8
0
100
AcDbLine
 10
-3.516998000000001
 20
106.225504
 30
0.0
 11
-16.100918
 21
106.225504
 31
0.0
  0
LINE
  5
9A
330
6A
100
AcDbEntity
  8
0
100
AcDbLine
 10
-3.516998000000001
 20
108.225504
 30
0.0
 11
-16.100918
 21
108.225504
 31
0.0
  0
ARC
  5
9B
330
6A
100
AcDbEntity
  8
0
100
AcDbCircle
 10
2.399082
 20
107.225504
 30
0.0
 40
6.0
100
AcDbArc
 50
189.594068
 51
213.55731
  0
LINE
  5
9C
330
6A
100
AcDbEntity
  8
0
100
AcDbLine
 10
-16.100918
 20
108.225504
 30
0.0
 11
-16.100918
 21
115.225504
 31
0.0
  0
LINE
  5
9D
330
6A
100
AcDbEntity
  8
0
100
AcDbLine
 10
0.8990819999999999
 20
117.725504
 30
0.0
 11
-16.100918
 21
115.225504
 31
0.0
  0
LINE
  5
9E
330
6A
100
AcDbEntity
  8
0
  6
HIDDEN
100
AcDbLine
 10
24.399082
 20
96.725504
 30
0.0
 11
24.399082
 21
117.725504
 31
0.0
  0
LINE
  5
9F
330
6A
100
AcDbEntity
  8
0
  6
HIDDEN
100
AcDbLine
 10
11.899082
 20
96.725504
 30
0.0
 11
11.899082
 21
117.725504
 31
0.0
  0
ARC
  5
A0
330
6A
100
AcDbEntity
  8
0
100
AcDbCircle
 10
-0.6009180000000001
 20
146.225504
 30
0.0
 40
1.0
100
AcDbArc
 50
90.0
 51
180.0
  0
ARC
  5
A1
330
6A
100
AcDbEntity
  8
0
100
AcDbCircle
 10
5.399082
 20
146.225504
 30
0.0
 40
1.0
100
AcDbArc
 50
0.0
 51
90.0
  0
ARC
  5
A2
330
6A
100
AcDbEntity
  8
0
100
AcDbCircle
 10
-3.953573
 20
110.215995
 30
0.0
 40
4.0
100
AcDbArc
 50
135.0
 51
185.0
  0
ARC
  5
A3
330
6A
100
AcDbEntity
  8
0
100
AcDbCircle
 10
8.751738000000001
 20
110.215995
 30
0.0
 40
4.0
100
AcDbArc
 50
355.0
 51
45.0
  0
ARC
  5
A4
330
6A
100
AcDbEntity
  8
0
100
AcDbCircle
 10
-4.256016000000001
 20
90.725504
 30
0.0
 40
2.0
100
AcDbArc
 50
185.0
 51
270.0
  0
ARC
  5
A5
330
6A
100
AcDbEntity
  8
0
100
AcDbCircle
 10
9.054181
 20
90.725504
 30
0.0
 40
2.0
100
AcDbArc
 50
270.0
 51
355.0
  0
LINE
  5
A6
330
6A
100
AcDbEntity
  8
0
100
AcDbLine
 10
1.399082
 20
88.725504
 30
0.0
 11
-4.256016000000001
 21
88.725504
 31
0.0
  0
LINE
  5
A7
330
6A
100
AcDbEntity
  8
0
100
AcDbLine
 10
1.399082
 20
101.309425
 30
0.0
 11
1.399082
 21
88.725504
 31
0.0
  0
LINE
  5
A8
330
6A
100
AcDbEntity
  8
0
100
AcDbLine
 10
3.399082
 20
101.309425
 30
0.0
 11
3.399082
 21
88.725504
 31
0.0
  0
LINE
  5
A9
330
6A
100
AcDbEntity
  8
0
100
AcDbLine
 10
-1.600918
 20
118.225504
 30
0.0
 11
-6.782000999999999
 21
113.044422
 31
0.0
  0
LINE
  5
AA
330
6A
100
AcDbEntity
  8
0
100
AcDbLine
 10
-7.938352
 20
109.867372
 30
0.0
 11
-6.248406
 21
90.55119300000001
 31
0.0
  0
LINE
  5
AB
330
6A
100
AcDbEntity
  8
0
100
AcDbLine
 10
12.736517
 20
109.867372
 30
0.0
 11
11.04657
 21
90.55119300000001
 31
0.0
  0
LINE
  5
AC
330
6A
100
AcDbEntity
  8
0
100
AcDbLine
 10
6.399082
 20
118.225504
 30
0.0
 11
11.580165
 21
113.044422
 31
0.0
  0
LINE
  5
AD
330
6A
100
AcDbEntity
  8
0
100
AcDbLine
 10
-1.600918
 20
146.225504
 30
0.0
 11
-1.600918
 21
118.225504
 31
0.0
  0
LINE
  5
AE
330
6A
100
AcDbEntity
  8
0
100
AcDbLine
 10
6.399082
 20
146.225504
 30
0.0
 11
6.399082
 21
118.225504
 31
0.0
  0
LINE
  5
AF
330
6A
100
AcDbEntity
  8
0
  6
HIDDEN
100
AcDbLine
 10
6.399082
 20
141.725504
 30
0.0
 11
-1.600918
 21
141.725504
 31
0.0
  0
LINE
  5
B0
330
6A
100
AcDbEntity
  8
0
  6
HIDDEN
100
AcDbLine
 10
6.399082
 20
122.725504
 30
0.0
 11
-1.600918
 21
122.725504
 31
0.0
  0
LINE
  5
B1
330
6A
100
AcDbEntity
  8
0
100
AcDbLine
 10
9.054181
 20
88.725504
 30
0.0
 11
3.399082
 21
88.725504
 31
0.0
  0
LINE
  5
B2
330
6A
100
AcDbEntity
  8
0
100
AcDbLine
 10
5.399082
 20
147.225504
 30
0.0
 11
-0.6009180000000001
 21
147.225504
 31
0.0
  0
ARC
  5
B3
330
6A
100
AcDbEntity
  8
0
100
AcDbCircle
 10
2.399082
 20
107.225504
 30
0.0
 40
6.0
100
AcDbArc
 50
56.44269000000001
 51
123.55731
  0
LWPOLYLINE
  5
B4
330
6A
100
AcDbEntity
  8
0
100
AcDbPolyline
 90
        2
 70
     0
 43
0.0
 10
7.399082000000001
 20
102.225504
 10
7.399082000000001
 20
103.90888
  0
ARC
  5
B8
330
6A
100
AcDbEntity
  8
0
100
AcDbCircle
 10
2.399082
 20
107.225504
 30
0.0
 40
6.0
100
AcDbArc
 50
326.44269
 51
33.55731000000001
  0
LWPOLYLINE
  5
B9
330
6A
100
AcDbEntity
  8
0
100
AcDbPolyline
 90
        2
 70
     0
 43
0.0
 10
5.715707
 20
102.225504
 10
7.399082000000001
 20
102.225504
  0
ARC
  5
BD
330
6A
100
AcDbEntity
  8
0
100
AcDbCircle
 10
2.399082
 20
107.225504
 30
0.0
 40
6.0
100
AcDbArc
 50
236.44269
 51
260.405932
  0
LWPOLYLINE
  5
BE
330
6A
100
AcDbEntity
  8
0
100
AcDbPolyline
 90
        3
 70
     0
 43
0.0
 10
-2.600918
 20
103.90888
 10
-2.600918
 20
102.225504
 10
-0.917543
 20
102.225504
  0
ARC
  5
C3
330
6A
100
AcDbEntity
  8
0
100
AcDbCircle
 10
2.399082
 20
107.225504
 30
0.0
 40
6.0
100
AcDbArc
 50
146.44269
 51
213.55731
  0
LWPOLYLINE
  5
C4
330
6A
100
AcDbEntity
  8
0
100
AcDbPolyline
 90
        3
 70
     0
 43
0.0
 10
7.399082000000001
 20
110.542129
 10
7.399082000000001
 20
112.225504
 10
5.715707
 20
112.225504
  0
LWPOLYLINE
  5
C9
330
6A
100
AcDbEntity
  8
0
100
AcDbPolyline
 90
        3
 70
     0
 43
0.0
 10
-0.917543
 20
112.225504
 10
-2.600918
 20
112.225504
 10
-2.600918
 20
110.542129
  0
ARC
  5
CE
330
6A
100
AcDbEntity
  8
0
100
AcDbCircle
 10
2.399082
 20
107.225504
 30
0.0
 40
6.0
100
AcDbArc
 50
279.594068
 51
303.55731
  0
LWPOLYLINE
  5
CF
330
6A
100
AcDbEntity
  8
0
100
AcDbPolyline
 90
        6
 70
     1
 43
0.0
 10
34.020726
 20
-3.5
 10
36.041452
 20
0.0
 10
34.020726
 20
3.5
 10
29.979274
 20
3.5
 10
27.958548
 20
0.0
 10
29.979274
 20
-3.5
  0
ARC
  5
D7
330
6A
100
AcDbEntity
  8
0
100
AcDbCircle
 10
32.0
 20
0.0
 30
0.0
 40
2.0
100
AcDbArc
 50
90.0
 51
0.0
  0
CIRCLE
  5
D8
330
6A
100
AcDbEntity
  8
0
100
AcDbCircle
 10
32.0
 20
0.0
 30
0.0
 40
1.5
  0
LINE
  5
D9
330
6A
100
AcDbEntity
  8
0
  6
HIDDEN
100
AcDbLine
 10
26.0
 20
14.790199
 30
0.0
 11
26.0
 21
-14.790199
 31
0.0
  0
LINE
  5
DA
330
6A
100
AcDbEntity
  8
0
  6
HIDDEN
100
AcDbLine
 10
14.0
 20
15.0
 30
0.0
 11
14.0
 21
-15.0
 31
0.0
  0
LWPOLYLINE
  5
DB
330
6A
100
AcDbEntity
  8
0
100
AcDbPolyline
 90
       16
 70
     1
 43
0.0
 10
10.395941
 20
5.25
 42
0.264625
 10
10.025915
 20
5.039418
 42
0.073822
 10
9.482512
 20
3.712311
 42
0.034938
 10
9.214010999999999
 20
2.161305
 42
0.025398
 10
9.104157000000001
 20
0.0
 42
0.025398
 10
9.214010999999999
 20
-2.161305
 42
0.034938
 10
9.482512
 20
-3.712311
 42
0.073822
 10
10.025915
 20
-5.039418
 42
0.264625
 10
10.395941
 20
-5.25
 42
0.264625
 10
10.765967
 20
-5.039418
 42
0.073822
 10
11.30937
 20
-3.712311
 42
0.034938
 10
11.577871
 20
-2.161305
 42
0.025398
 10
11.687725
 20
0.0
 42
0.025398
 10
11.577871
 20
2.161305
 42
0.034938
 10
11.30937
 20
3.712311
 42
0.073822
 10
10.765967
 20
5.039418
 42
0.264625
  0
LINE
  5
ED
330
6A
100
AcDbEntity
  8
0
  6
HIDDEN
100
AcDbLine
 10
10.395941
 20
5.25
 30
0.0
 11
6.5
 21
5.25
 31
0.0
  0
LINE
  5
EE
330
6A
100
AcDbEntity
  8
0
  6
HIDDEN
100
AcDbLine
 10
6.5
 20
3.25
 30
0.0
 11
0.0
 21
3.25
 31
0.0
  0
LINE
  5
EF
330
6A
100
AcDbEntity
  8
0
  6
HIDDEN
100
AcDbLine
 10
6.5
 20
-3.25
 30
0.0
 11
0.0
 21
-3.25
 31
0.0
  0
LINE
  5
F0
330
6A
100
AcDbEntity
  8
0
  6
HIDDEN
100
AcDbLine
 10
10.395941
 20
-5.25
 30
0.0
 11
6.5
 21
-5.25
 31
0.0
  0
LINE
  5
F1
330
6A
100
AcDbEntity
  8
0
  6
HIDDEN
100
AcDbLine
 10
6.5
 20
-5.25
 30
0.0
 11
6.5
 21
5.25
 31
0.0
  0
LINE
  5
F2
330
6A
100
AcDbEntity
  8
0
100
AcDbLine
 10
7.206072
 20
15.0
 30
0.0
 11
7.206072
 21
-15.0
 31
0.0
  0
LINE
  5
F3
330
6A
100
AcDbEntity
  8
0
100
AcDbLine
 10
11.680546
 20
15.0
 30
0.0
 11
11.680546
 21
-15.0
 31
0.0
  0
LINE
  5
F4
330
6A
100
AcDbEntity
  8
0
100
AcDbLine
 10
15.665325
 20
15.0
 30
0.0
 11
15.665325
 21
-15.0
 31
0.0
  0
ARC
  5
F5
330
6A
100
AcDbEntity
  8
0
100
AcDbCircle
 10
23.5
 20
0.0
 30
0.0
 40
15.0
100
AcDbArc
 50
270.0
 51
90.0
  0
LINE
  5
F6
330
6A
100
AcDbEntity
  8
0
100
AcDbLine
 10
23.5
 20
15.0
 30
0.0
 11
23.5
 21
-15.0
 31
0.0
  0
LINE
  5
F7
330
6A
100
AcDbEntity
  8
0
100
AcDbLine
 10
0.0
 20
15.0
 30
0.0
 11
23.5
 21
15.0
 31
0.0
  0
LINE
  5
F8
330
6A
100
AcDbEntity
  8
0
100
AcDbLine
 10
0.0
 20
-15.0
 30
0.0
 11
23.5
 21
-15.0
 31
0.0
  0
LINE
  5
F9
330
6A
100
AcDbEntity
  8
0
100
AcDbLine
 10
0.0
 20
15.0
 30
0.0
 11
0.0
 21
-15.0
 31
0.0
  0
ENDBLK
  5
FA
330
6A
100
AcDbEntity
  8
0
100
AcDbBlockEnd
  0
BLOCK
  5
FC
330
FB
100
AcDbEntity
  8
0
100
AcDbBlockBegin
  2
342B
 70
     0
 71
     0
 10
0.0
 20
0.0
 30
0.0
  3
342B
  1

  0
LINE
  5
FD
330
FB
100
AcDbEntity
  8
0
 62
     7
100
AcDbLine
 10
-20.398272
 20
-9.485352000000001
 30
0.0
 11
-20.398272
 21
-19.485352
 31
0.0
  0
LINE
  5
FE
330
FB
100
AcDbEntity
  8
0
 62
     7
100
AcDbLine
 10
129.601728
 20
-9.485352000000001
 30
0.0
 11
-20.398272
 21
-9.485352000000001
 31
0.0
  0
LINE
  5
FF
330
FB
100
AcDbEntity
  8
0
 62
     7
100
AcDbLine
 10
-20.398272
 20
-19.485352
 30
0.0
 11
129.601728
 21
-19.485352
 31
0.0
  0
LINE
  5
100
330
FB
100
AcDbEntity
  8
0
100
AcDbLine
 10
10.5
 20
-4.334675
 30
0.0
 11
10.5
 21
1.5
 31
0.0
  0
LINE
  5
101
330
FB
100
AcDbEntity
  8
0
100
AcDbLine
 10
27.36955
 20
-12.793928
 30
0.0
 11
28.0
 21
-20.0
 31
0.0
  0
ARC
  5
102
330
FB
100
AcDbEntity
  8
0
100
AcDbCircle
 10
23.384772
 20
-13.142551
 30
0.0
 40
4.0
100
AcDbArc
 50
5.0
 51
85.0
  0
LINE
  5
103
330
FB
100
AcDbEntity
  8
0
100
AcDbLine
 10
23.733395
 20
-9.157772
 30
0.0
 11
14.151377
 21
-8.319453999999999
 31
0.0
  0
ARC
  5
104
330
FB
100
AcDbEntity
  8
0
100
AcDbCircle
 10
14.5
 20
-4.334675
 30
0.0
 40
4.0
100
AcDbArc
 50
180.0
 51
265.0
  0
ARC
  5
105
330
FB
100
AcDbEntity
  8
0
100
AcDbCircle
 10
-23.384772
 20
-13.142551
 30
0.0
 40
4.0
100
AcDbArc
 50
95.0
 51
175.0
  0
ARC
  5
106
330
FB
100
AcDbEntity
  8
0
100
AcDbCircle
 10
-14.5
 20
-4.334675
 30
0.0
 40
4.0
100
AcDbArc
 50
275.0
 51
0.0
  0
LINE
  5
107
330
FB
100
AcDbEntity
  8
0
100
AcDbLine
 10
-23.733395
 20
-9.157772
 30
0.0
 11
-14.151377
 21
-8.319453999999999
 31
0.0
  0
LINE
  5
108
330
FB
100
AcDbEntity
  8
0
100
AcDbLine
 10
-10.5
 20
-4.334675
 30
0.0
 11
-10.5
 21
1.5
 31
0.0
  0
LINE
  5
109
330
FB
100
AcDbEntity
  8
0
100
AcDbLine
 10
-8.0
 20
18.5
 30
0.0
 11
-1.0
 21
18.5
 31
0.0
  0
ARC
  5
10A
330
FB
100
AcDbEntity
  8
0
100
AcDbCircle
 10
0.0
 20
0.0
 30
0.0
 40
6.0
100
AcDbArc
 50
236.44269
 51
303.55731
  0
LWPOLYLINE
  5
10B
330
FB
100
AcDbEntity
  8
0
100
AcDbPolyline
 90
        2
 70
     0
 43
0.0
 10
-5.0
 20
5.0
 10
-5.0
 20
3.316625
  0
ARC
  5
10F
330
FB
100
AcDbEntity
  8
0
100
AcDbCircle
 10
0.0
 20
0.0
 30
0.0
 40
6.0
100
AcDbArc
 50
146.44269
 51
213.55731
  0
LWPOLYLINE
  5
110
330
FB
100
AcDbEntity
  8
0
100
AcDbPolyline
 90
        2
 70
     0
 43
0.0
 10
-3.316625
 20
5.0
 10
-5.0
 20
5.0
  0
ARC
  5
114
330
FB
100
AcDbEntity
  8
0
100
AcDbCircle
 10
0.0
 20
0.0
 30
0.0
 40
6.0
100
AcDbArc
 50
56.44269000000001
 51
80.40593199999999
  0
LWPOLYLINE
  5
115
330
FB
100
AcDbEntity
  8
0
100
AcDbPolyline
 90
        3
 70
     0
 43
0.0
 10
5.0
 20
3.316625
 10
5.0
 20
5.0
 10
3.316625
 20
5.0
  0
ARC
  5
11A
330
FB
100
AcDbEntity
  8
0
100
AcDbCircle
 10
0.0
 20
0.0
 30
0.0
 40
6.0
100
AcDbArc
 50
326.44269
 51
33.55731000000001
  0
LWPOLYLINE
  5
11B
330
FB
100
AcDbEntity
  8
0
100
AcDbPolyline
 90
        3
 70
     0
 43
0.0
 10
-5.0
 20
-3.316625
 10
-5.0
 20
-5.0
 10
-3.316625
 20
-5.0
  0
LWPOLYLINE
  5
120
330
FB
100
AcDbEntity
  8
0
100
AcDbPolyline
 90
        3
 70
     0
 43
0.0
 10
3.316625
 20
-5.0
 10
5.0
 20
-5.0
 10
5.0
 20
-3.316625
  0
LINE
  5
125
330
FB
100
AcDbEntity
  8
0
100
AcDbLine
 10
-10.5
 20
1.5
 30
0.0
 11
-8.0
 21
18.5
 31
0.0
  0
LINE
  5
126
330
FB
100
AcDbEntity
  8
0
100
AcDbLine
 10
-1.0
 20
5.91608
 30
0.0
 11
-1.0
 21
18.5
 31
0.0
  0
LINE
  5
127
330
FB
100
AcDbEntity
  8
0
100
AcDbLine
 10
1.0
 20
5.91608
 30
0.0
 11
1.0
 21
18.5
 31
0.0
  0
ARC
  5
128
330
FB
100
AcDbEntity
  8
0
100
AcDbCircle
 10
0.0
 20
0.0
 30
0.0
 40
6.0
100
AcDbArc
 50
99.59406800000002
 51
123.55731
  0
LINE
  5
129
330
FB
100
AcDbEntity
  8
0
100
AcDbLine
 10
1.0
 20
18.5
 30
0.0
 11
8.0
 21
18.5
 31
0.0
  0
LINE
  5
12A
330
FB
100
AcDbEntity
  8
0
100
AcDbLine
 10
10.5
 20
1.5
 30
0.0
 11
8.0
 21
18.5
 31
0.0
  0
LINE
  5
12B
330
FB
100
AcDbEntity
  8
0
100
AcDbLine
 10
-28.0
 20
-20.0
 30
0.0
 11
-10.5
 21
-20.0
 31
0.0
  0
LINE
  5
12C
330
FB
100
AcDbEntity
  8
0
100
AcDbLine
 10
-27.36955
 20
-12.793928
 30
0.0
 11
-28.0
 21
-20.0
 31
0.0
  0
LINE
  5
12D
330
FB
100
AcDbEntity
  8
0
  6
HIDDEN
100
AcDbLine
 10
-10.5
 20
-9.5
 30
0.0
 11
10.5
 21
-9.5
 31
0.0
  0
LINE
  5
12E
330
FB
100
AcDbEntity
  8
0
  6
HIDDEN
100
AcDbLine
 10
-10.5
 20
-22.0
 30
0.0
 11
10.5
 21
-22.0
 31
0.0
  0
CIRCLE
  5
12F
330
FB
100
AcDbEntity
  8
0
100
AcDbCircle
 10
0.0
 20
-26.0
 30
0.0
 40
1.5
  0
ARC
  5
130
330
FB
100
AcDbEntity
  8
0
100
AcDbCircle
 10
0.0
 20
-26.0
 30
0.0
 40
2.0
100
AcDbArc
 50
270.0
 51
180.0
  0
LWPOLYLINE
  5
131
330
FB
100
AcDbEntity
  8
0
100
AcDbPolyline
 90
        6
 70
     1
 43
0.0
 10
-2.020726
 20
-22.5
 10
-4.041452
 20
-26.0
 10
-2.020726
 20
-29.5
 10
2.020726
 20
-29.5
 10
4.041452
 20
-26.0
 10
2.020726
 20
-22.5
  0
LINE
  5
139
330
FB
100
AcDbEntity
  8
0
100
AcDbLine
 10
10.5
 20
1.5
 30
0.0
 11
8.0
 21
18.5
 31
0.0
  0
LINE
  5
13A
330
FB
100
AcDbEntity
  8
0
100
AcDbLine
 10
1.0
 20
18.5
 30
0.0
 11
8.0
 21
18.5
 31
0.0
  0
ARC
  5
13B
330
FB
100
AcDbEntity
  8
0
100
AcDbCircle
 10
0.0
 20
0.0
 30
0.0
 40
6.0
100
AcDbArc
 50
99.59406800000002
 51
123.55731
  0
LINE
  5
13C
330
FB
100
AcDbEntity
  8
0
100
AcDbLine
 10
1.0
 20
5.91608
 30
0.0
 11
1.0
 21
18.5
 31
0.0
  0
LINE
  5
13D
330
FB
100
AcDbEntity
  8
0
100
AcDbLine
 10
-1.0
 20
5.91608
 30
0.0
 11
-1.0
 21
18.5
 31
0.0
  0
LINE
  5
13E
330
FB
100
AcDbEntity
  8
0
100
AcDbLine
 10
-10.5
 20
1.5
 30
0.0
 11
-8.0
 21
18.5
 31
0.0
  0
LWPOLYLINE
  5
13F
330
FB
100
AcDbEntity
  8
0
100
AcDbPolyline
 90
        3
 70
     0
 43
0.0
 10
3.316625
 20
-5.0
 10
5.0
 20
-5.0
 10
5.0
 20
-3.316625
  0
LWPOLYLINE
  5
144
330
FB
100
AcDbEntity
  8
0
100
AcDbPolyline
 90
        3
 70
     0
 43
0.0
 10
-5.0
 20
-3.316625
 10
-5.0
 20
-5.0
 10
-3.316625
 20
-5.0
  0
ARC
  5
149
330
FB
100
AcDbEntity
  8
0
100
AcDbCircle
 10
0.0
 20
0.0
 30
0.0
 40
6.0
100
AcDbArc
 50
326.44269
 51
33.55731000000001
  0
LWPOLYLINE
  5
14A
330
FB
100
AcDbEntity
  8
0
100
AcDbPolyline
 90
        3
 70
     0
 43
0.0
 10
5.0
 20
3.316625
 10
5.0
 20
5.0
 10
3.316625
 20
5.0
  0
ARC
  5
14F
330
FB
100
AcDbEntity
  8
0
100
AcDbCircle
 10
0.0
 20
0.0
 30
0.0
 40
6.0
100
AcDbArc
 50
56.44269000000001
 51
80.40593199999999
  0
LWPOLYLINE
  5
150
330
FB
100
AcDbEntity
  8
0
100
AcDbPolyline
 90
        2
 70
     0
 43
0.0
 10
-3.316625
 20
5.0
 10
-5.0
 20
5.0
  0
ARC
  5
154
330
FB
100
AcDbEntity
  8
0
100
AcDbCircle
 10
0.0
 20
0.0
 30
0.0
 40
6.0
100
AcDbArc
 50
146.44269
 51
213.55731
  0
LWPOLYLINE
  5
155
330
FB
100
AcDbEntity
  8
0
100
AcDbPolyline
 90
        2
 70
     0
 43
0.0
 10
-5.0
 20
5.0
 10
-5.0
 20
3.316625
  0
ARC
  5
159
330
FB
100
AcDbEntity
  8
0
100
AcDbCircle
 10
0.0
 20
0.0
 30
0.0
 40
6.0
100
AcDbArc
 50
236.44269
 51
303.55731
  0
ARC
  5
15A
330
FB
100
AcDbEntity
  8
0
100
AcDbCircle
 10
0.0
 20
-24.0
 30
0.0
 40
10.5
100
AcDbArc
 50
180.0
 51
0.0
  0
LINE
  5
15B
330
FB
100
AcDbEntity
  8
0
100
AcDbLine
 10
-8.0
 20
18.5
 30
0.0
 11
-1.0
 21
18.5
 31
0.0
  0
LINE
  5
15C
330
FB
100
AcDbEntity
  8
0
100
AcDbLine
 10
-10.5
 20
-24.0
 30
0.0
 11
-10.5
 21
1.5
 31
0.0
  0
LINE
  5
15D
330
FB
100
AcDbEntity
  8
0
100
AcDbLine
 10
10.5
 20
-24.0
 30
0.0
 11
10.5
 21
1.5
 31
0.0
  0
LINE
  5
15E
330
FB
100
AcDbEntity
  8
0
100
AcDbLine
 10
10.5
 20
-20.0
 30
0.0
 11
28.0
 21
-20.0
 31
0.0
  0
LINE
  5
15F
330
FB
100
AcDbEntity
  8
0
 62
     7
100
AcDbLine
 10
129.601728
 20
-19.485352
 30
0.0
 11
129.601728
 21
-9.485352000000001
 31
0.0
  0
LINE
  5
160
330
FB
100
AcDbEntity
  8
0
  6
HIDDEN
100
AcDbLine
 10
120.908891
 20
-17.728132
 30
0.0
 11
120.908891
 21
-9.728132
 31
0.0
  0
LINE
  5
161
330
FB
100
AcDbEntity
  8
0
  6
HIDDEN
100
AcDbLine
 10
101.908891
 20
-17.728132
 30
0.0
 11
101.908891
 21
-9.728132
 31
0.0
  0
LINE
  5
162
330
FB
100
AcDbEntity
  8
0
  6
HIDDEN
100
AcDbLine
 10
96.408891
 20
-19.728132
 30
0.0
 11
126.408891
 21
-19.728132
 31
0.0
  0
LINE
  5
163
330
FB
100
AcDbEntity
  8
0
  6
HIDDEN
100
AcDbLine
 10
96.408891
 20
-7.728132
 30
0.0
 11
126.408891
 21
-7.728132
 31
0.0
  0
LINE
  5
164
330
FB
100
AcDbEntity
  8
0
100
AcDbLine
 10
96.408891
 20
-17.728132
 30
0.0
 11
126.408891
 21
-17.728132
 31
0.0
  0
LINE
  5
165
330
FB
100
AcDbEntity
  8
0
100
AcDbLine
 10
96.408891
 20
-9.728132
 30
0.0
 11
126.408891
 21
-9.728132
 31
0.0
  0
LINE
  5
166
330
FB
100
AcDbEntity
  8
0
100
AcDbLine
 10
96.408891
 20
-24.228132
 30
0.0
 11
96.408891
 21
-3.228132
 31
0.0
  0
LINE
  5
167
330
FB
100
AcDbEntity
  8
0
100
AcDbLine
 10
126.408891
 20
-24.228132
 30
0.0
 11
96.408891
 21
-24.228132
 31
0.0
  0
LINE
  5
168
330
FB
100
AcDbEntity
  8
0
100
AcDbLine
 10
126.408891
 20
-3.228132
 30
0.0
 11
96.408891
 21
-3.228132
 31
0.0
  0
LINE
  5
169
330
FB
100
AcDbEntity
  8
0
100
AcDbLine
 10
126.408891
 20
-24.228132
 30
0.0
 11
126.408891
 21
-3.228132
 31
0.0
  0
ENDBLK
  5
16A
330
FB
100
AcDbEntity
  8
0
100
AcDbBlockEnd
  0
ENDSEC
  0
SECTION
  2
ENTITIES
  0
INSERT
  5
16B
330
18
100
AcDbEntity
  8
0
100
AcDbBlockReference
  2
342A
 10
0.0
 20
0.0
 30
0.0
  0
INSERT
  5
16C
330
18
100
AcDbEntity
  8
0
100
AcDbBlockReference
  2
342C
 10
220.0
 20
0.0
 30
0.0
  0
INSERT
  5
16D
330
18
100
AcDbEntity
  8
0
100
AcDbBlockReference
  2
342B
 10
0.0
 20
-60.0
 30
0.0
  0
ENDSEC
  0
SECTION
  2
OBJECTS
  0
DICTIONARY
  5
C
330
0
100
AcDbDictionary
  3
ACAD_GROUP
350
D
  3
ACAD_LAYOUT
350
170
  3
ACAD_MLINESTYLE
350
1B
  3
ACDBHEADERROUNDTRIPXREC
350
173
  0
DICTIONARY
  5
192
330
16F
100
AcDbDictionary
280
     1
  3
ACAD_XREC_ROUNDTRIP
360
193
  0
DICTIONARY
  5
D
102
{ACAD_REACTORS
330
C
102
}
330
C
100
AcDbDictionary
  0
DICTIONARY
  5
170
102
{ACAD_REACTORS
330
C
102
}
330
C
100
AcDbDictionary
  0
DICTIONARY
  5
1B
102
{ACAD_REACTORS
330
C
102
}
330
C
100
AcDbDictionary
  3
STANDARD
350
1C
  0
DICTIONARY
  5
173
102
{ACAD_REACTORS
330
C
102
}
330
C
100
AcDbDictionary
  3
CEPSNTYPE
350
17B
  3
DIMSTYLEDATA
350
191
  3
FINGERPRINTGUID
350
17C
  3
HYPERLINKBASE
350
176
  3
INSUNITS
350
17A
  3
LAYOUTDICT
350
178
  3
LWETCUNION
350
179
  3
PSVPSCALE
350
17E
  3
PUCSBASE
350
181
  3
PUCSORGBACK
350
187
  3
PUCSORGBOTTOM
350
183
  3
PUCSORGFRONT
350
186
  3
PUCSORGLEFT
350
184
  3
PUCSORGRIGHT
350
185
  3
PUCSORGTOP
350
182
  3
PUCSORTHOREF
350
17F
  3
PUCSORTHOVIEW
350
180
  3
STYLESHEET
350
177
  3
TSTACKALIGN
350
174
  3
TSTACKSIZE
350
175
  3
UCSBASE
350
18A
  3
UCSORGBACK
350
190
  3
UCSORGBOTTOM
350
18C
  3
UCSORGFRONT
350
18F
  3
UCSORGLEFT
350
18D
  3
UCSORGRIGHT
350
18E
  3
UCSORGTOP
350
18B
  3
UCSORTHOREF
350
188
  3
UCSORTHOVIEW
350
189
  3
VERSIONGUID
350
17D
  0
XRECORD
  5
193
102
{ACAD_REACTORS
330
192
102
}
330
192
100
AcDbXrecord
102
UCS
 74
     0
 71
     1
 10
0.0
 20
0.0
 30
0.0
 10
1.0
 20
0.0
 30
0.0
 10
0.0
 20
1.0
 30
0.0
146
0.0
 79
     0
102
VIEW
281
     0
  0
MLINESTYLE
  5
1C
102
{ACAD_REACTORS
330
1B
102
}
330
1B
100
AcDbMlineStyle
  2
STANDARD
 70
     0
  3

 62
   256
 51
90.0
 52
90.0
 71
     2
 49
0.5
 62
   256
  6
BYLAYER
 49
-0.5
 62
   256
  6
BYLAYER
  0
XRECORD
  5
17B
102
{ACAD_REACTORS
330
173
102
}
330
173
100
AcDbXrecord
 90
        0
  0
XRECORD
  5
191
102
{ACAD_REACTORS
330
173
102
}
330
173
100
AcDbXrecord
1000
DSTYLE
1002
{
1070
   340
340
F
1002
}
  0
XRECORD
  5
17C
102
{ACAD_REACTORS
330
173
102
}
330
173
100
AcDbXrecord
  1
{FAEB1C30-E019-11D5-929B-00C0DF256EC4}
  0
XRECORD
  5
176
102
{ACAD_REACTORS
330
173
102
}
330
173
100
AcDbXrecord
  1

  0
XRECORD
  5
17A
102
{ACAD_REACTORS
330
173
102
}
330
173
100
AcDbXrecord
 90
        0
  0
XRECORD
  5
178
102
{ACAD_REACTORS
330
173
102
}
330
173
100
AcDbXrecord
340
170
  0
XRECORD
  5
179
102
{ACAD_REACTORS
330
173
102
}
330
173
100
AcDbXrecord
 90
    10781
  0
XRECORD
  5
17E
102
{ACAD_REACTORS
330
173
102
}
330
173
100
AcDbXrecord
 40
0.0
  0
XRECORD
  5
181
102
{ACAD_REACTORS
330
173
102
}
330
173
100
AcDbXrecord
340
0
  0
XRECORD
  5
187
102
{ACAD_REACTORS
330
173
102
}
330
173
100
AcDbXrecord
 10
0.0
 20
0.0
 30
0.0
  0
XRECORD
  5
183
102
{ACAD_REACTORS
330
173
102
}
330
173
100
AcDbXrecord
 10
0.0
 20
0.0
 30
0.0
  0
XRECORD
  5
186
102
{ACAD_REACTORS
330
173
102
}
330
173
100
AcDbXrecord
 10
0.0
 20
0.0
 30
0.0
  0
XRECORD
  5
184
102
{ACAD_REACTORS
330
173
102
}
330
173
100
AcDbXrecord
 10
0.0
 20
0.0
 30
0.0
  0
XRECORD
  5
185
102
{ACAD_REACTORS
330
173
102
}
330
173
100
AcDbXrecord
 10
0.0
 20
0.0
 30
0.0
  0
XRECORD
  5
182
102
{ACAD_REACTORS
330
173
102
}
330
173
100
AcDbXrecord
 10
0.0
 20
0.0
 30
0.0
  0
XRECORD
  5
17F
102
{ACAD_REACTORS
330
173
102
}
330
173
100
AcDbXrecord
340
0
  0
XRECORD
  5
180
102
{ACAD_REACTORS
330
173
102
}
330
173
100
AcDbXrecord
 70
     0
  0
XRECORD
  5
177
102
{ACAD_REACTORS
330
173
102
}
330
173
100
AcDbXrecord
  1

  0
XRECORD
  5
174
102
{ACAD_REACTORS
330
173
102
}
330
173
100
AcDbXrecord
 90
        1
  0
XRECORD
  5
175
102
{ACAD_REACTORS
330
173
102
}
330
173
100
AcDbXrecord
 90
       70
  0
XRECORD
  5
18A
102
{ACAD_REACTORS
330
173
102
}
330
173
100
AcDbXrecord
340
0
  0
XRECORD
  5
190
102
{ACAD_REACTORS
330
173
102
}
330
173
100
AcDbXrecord
 10
0.0
 20
0.0
 30
0.0
  0
XRECORD
  5
18C
102
{ACAD_REACTORS
330
173
102
}
330
173
100
AcDbXrecord
 10
0.0
 20
0.0
 30
0.0
  0
XRECORD
  5
18F
102
{ACAD_REACTORS
330
173
102
}
330
173
100
AcDbXrecord
 10
0.0
 20
0.0
 30
0.0
  0
XRECORD
  5
18D
102
{ACAD_REACTORS
330
173
102
}
330
173
100
AcDbXrecord
 10
0.0
 20
0.0
 30
0.0
  0
XRECORD
  5
18E
102
{ACAD_REACTORS
330
173
102
}
330
173
100
AcDbXrecord
 10
0.0
 20
0.0
 30
0.0
  0
XRECORD
  5
18B
102
{ACAD_REACTORS
330
173
102
}
330
173
100
AcDbXrecord
 10
0.0
 20
0.0
 30
0.0
  0
XRECORD
  5
188
102
{ACAD_REACTORS
330
173
102
}
330
173
100
AcDbXrecord
340
0
  0
XRECORD
  5
189
102
{ACAD_REACTORS
330
173
102
}
330
173
100
AcDbXrecord
 70
     0
  0
XRECORD
  5
17D
102
{ACAD_REACTORS
330
173
102
}
330
173
100
AcDbXrecord
  1
{FAEB1C32-E019-11D5-929B-00C0DF256EC4}
  0
ENDSEC
  0
EOF
