  0
SECTION
  2
HEADER
  9
$ACADVER
  1
AC1012
  9
$DWGCODEPAGE
  3
ansi_1252
  9
$INSBASE
 10
0.0
 20
0.0
 30
0.0
  9
$EXTMIN
 10
-26.600642
 20
-125.119442
 30
0.0
  9
$EXTMAX
 10
115.25
 20
127.560849
 30
0.0
  9
$LIMMIN
 10
0.0
 20
0.0
  9
$LIMMAX
 10
297.0
 20
210.0
  9
$ORTHOMODE
 70
     1
  9
$REGENMODE
 70
     1
  9
$FILLMODE
 70
     1
  9
$QTEXTMODE
 70
     0
  9
$MIRRTEXT
 70
     1
  9
$DRAGMODE
 70
     2
  9
$LTSCALE
 40
10.0
  9
$OSMODE
 70
    37
  9
$ATTMODE
 70
     1
  9
$TEXTSIZE
 40
0.2
  9
$TRACEWID
 40
0.05
  9
$TEXTSTYLE
  7
STANDARD
  9
$CLAYER
  8
0
  9
$CELTYPE
  6
BYLAYER
  9
$CECOLOR
 62
   256
  9
$CELTSCALE
 40
1.0
  9
$DELOBJ
 70
     1
  9
$DISPSILH
 70
     0
  9
$DIMSCALE
 40
1.0
  9
$DIMASZ
 40
0.18
  9
$DIMEXO
 40
0.0625
  9
$DIMDLI
 40
0.38
  9
$DIMRND
 40
0.0
  9
$DIMDLE
 40
0.0
  9
$DIMEXE
 40
0.18
  9
$DIMTP
 40
0.0
  9
$DIMTM
 40
0.0
  9
$DIMTXT
 40
0.18
  9
$DIMCEN
 40
0.09
  9
$DIMTSZ
 40
0.0
  9
$DIMTOL
 70
     0
  9
$DIMLIM
 70
     0
  9
$DIMTIH
 70
     1
  9
$DIMTOH
 70
     1
  9
$DIMSE1
 70
     0
  9
$DIMSE2
 70
     0
  9
$DIMTAD
 70
     0
  9
$DIMZIN
 70
     0
  9
$DIMBLK
  1

  9
$DIMASO
 70
     1
  9
$DIMSHO
 70
     0
  9
$DIMPOST
  1

  9
$DIMAPOST
  1

  9
$DIMALT
 70
     0
  9
$DIMALTD
 70
     2
  9
$DIMALTF
 40
25.4
  9
$DIMLFAC
 40
1.0
  9
$DIMTOFL
 70
     0
  9
$DIMTVP
 40
0.0
  9
$DIMTIX
 70
     0
  9
$DIMSOXD
 70
     0
  9
$DIMSAH
 70
     0
  9
$DIMBLK1
  1

  9
$DIMBLK2
  1

  9
$DIMSTYLE
  2
STANDARD
  9
$DIMCLRD
 70
     0
  9
$DIMCLRE
 70
     0
  9
$DIMCLRT
 70
     0
  9
$DIMTFAC
 40
1.0
  9
$DIMGAP
 40
0.09
  9
$DIMJUST
 70
     0
  9
$DIMSD1
 70
     0
  9
$DIMSD2
 70
     0
  9
$DIMTOLJ
 70
     1
  9
$DIMTZIN
 70
     0
  9
$DIMALTZ
 70
     0
  9
$DIMALTTZ
 70
     0
  9
$DIMFIT
 70
     3
  9
$DIMUPT
 70
     0
  9
$DIMUNIT
 70
     2
  9
$DIMDEC
 70
     4
  9
$DIMTDEC
 70
     4
  9
$DIMALTU
 70
     2
  9
$DIMALTTD
 70
     2
  9
$DIMTXSTY
  7
STANDARD
  9
$DIMAUNIT
 70
     0
  9
$LUNITS
 70
     2
  9
$LUPREC
 70
     4
  9
$SKETCHINC
 40
0.1
  9
$FILLETRAD
 40
0.0
  9
$AUNITS
 70
     0
  9
$AUPREC
 70
     0
  9
$MENU
  1
c:\sitoplas\menu\CCing
  9
$ELEVATION
 40
0.0
  9
$PELEVATION
 40
0.0
  9
$THICKNESS
 40
0.0
  9
$LIMCHECK
 70
     0
  9
$CHAMFERA
 40
0.0
  9
$CHAMFERB
 40
0.0
  9
$CHAMFERC
 40
0.0
  9
$CHAMFERD
 40
0.0
  9
$SKPOLY
 70
     0
  9
$TDCREATE
 40
2447893.083333334
  9
$TDUPDATE
 40
2447893.083333334
  9
$TDINDWG
 40
0.0026356481
  9
$TDUSRTIMER
 40
0.0026356481
  9
$USRTIMER
 70
     1
  9
$ANGBASE
 50
0.0
  9
$ANGDIR
 70
     0
  9
$PDMODE
 70
     0
  9
$PDSIZE
 40
0.0
  9
$PLINEWID
 40
0.0
  9
$COORDS
 70
     1
  9
$SPLFRAME
 70
     0
  9
$SPLINETYPE
 70
     6
  9
$SPLINESEGS
 70
     8
  9
$ATTDIA
 70
     0
  9
$ATTREQ
 70
     1
  9
$HANDLING
 70
     1
  9
$HANDSEED
  5
15B
  9
$SURFTAB1
 70
     6
  9
$SURFTAB2
 70
     6
  9
$SURFTYPE
 70
     6
  9
$SURFU
 70
     6
  9
$SURFV
 70
     6
  9
$UCSNAME
  2

  9
$UCSORG
 10
0.0
 20
0.0
 30
0.0
  9
$UCSXDIR
 10
1.0
 20
0.0
 30
0.0
  9
$UCSYDIR
 10
0.0
 20
1.0
 30
0.0
  9
$PUCSNAME
  2

  9
$PUCSORG
 10
0.0
 20
0.0
 30
0.0
  9
$PUCSXDIR
 10
1.0
 20
0.0
 30
0.0
  9
$PUCSYDIR
 10
0.0
 20
1.0
 30
0.0
  9
$USERI1
 70
     0
  9
$USERI2
 70
     0
  9
$USERI3
 70
     0
  9
$USERI4
 70
     0
  9
$USERI5
 70
     0
  9
$USERR1
 40
0.0
  9
$USERR2
 40
0.0
  9
$USERR3
 40
0.0
  9
$USERR4
 40
0.0
  9
$USERR5
 40
0.0
  9
$WORLDVIEW
 70
     1
  9
$SHADEDGE
 70
     3
  9
$SHADEDIF
 70
    70
  9
$TILEMODE
 70
     1
  9
$MAXACTVP
 70
    16
  9
$PINSBASE
 10
0.0
 20
0.0
 30
0.0
  9
$PLIMCHECK
 70
     0
  9
$PEXTMIN
 10
1.000000000000000E+20
 20
1.000000000000000E+20
 30
1.000000000000000E+20
  9
$PEXTMAX
 10
-1.000000000000000E+20
 20
-1.000000000000000E+20
 30
-1.000000000000000E+20
  9
$PLIMMIN
 10
0.0
 20
0.0
  9
$PLIMMAX
 10
12.0
 20
9.0
  9
$UNITMODE
 70
     0
  9
$VISRETAIN
 70
     0
  9
$PLINEGEN
 70
     0
  9
$PSLTSCALE
 70
     0
  9
$TREEDEPTH
 70
  3020
  9
$PICKSTYLE
 70
     1
  9
$CMLSTYLE
  2
STANDARD
  9
$CMLJUST
 70
     0
  9
$CMLSCALE
 40
1.0
  9
$SAVEIMAGES
 70
     1
  0
ENDSEC
  0
SECTION
  2
CLASSES
  0
CLASS
  1
XRECORD
  2
AcDbXrecord
  3
AutoCAD 2000
 90
    32768
280
     0
281
     0
  0
CLASS
  1
LWPOLYLINE
  2
AcDbPolyline
  3
AutoCAD 2000
 90
    32768
280
     0
281
     1
  0
CLASS
  1
HATCH
  2
AcDbHatch
  3
AutoCAD 2000
 90
    32768
280
     0
281
     1
  0
CLASS
  1
ACDBPLACEHOLDER
  2
AcDbPlaceHolder
  3
ObjectDBX Classes
 90
        0
280
     0
281
     0
  0
CLASS
  1
LAYOUT
  2
AcDbLayout
  3
ObjectDBX Classes
 90
        0
280
     0
281
     0
  0
ENDSEC
  0
SECTION
  2
TABLES
  0
TABLE
  2
VPORT
  5
8
330
0
100
AcDbSymbolTable
 70
     1
  0
VPORT
  5
120
102
{ACAD_XDICTIONARY
360
159
102
}
330
8
100
AcDbSymbolTableRecord
100
AcDbViewportTableRecord
  2
*ACTIVE
 70
     0
 10
0.0
 20
0.0
 11
1.0
 21
1.0
 12
292.836237
 22
42.440279
 13
0.0
 23
0.0
 14
0.5
 24
0.5
 15
0.0
 25
0.0
 16
0.0
 26
0.0
 36
1.0
 17
0.0
 27
0.0
 37
0.0
 40
335.119442
 41
1.915354
 42
50.0
 43
0.0
 44
0.0
 50
0.0
 51
0.0
 71
     0
 72
   100
 73
     1
 74
     3
 75
     1
 76
     0
 77
     0
 78
     0
  0
ENDTAB
  0
TABLE
  2
LTYPE
  5
5
330
0
100
AcDbSymbolTable
 70
     2
  0
LTYPE
  5
12
330
5
100
AcDbSymbolTableRecord
100
AcDbLinetypeTableRecord
  2
BYBLOCK
 70
     0
  3

 72
    65
 73
     0
 40
0.0
  0
LTYPE
  5
13
330
5
100
AcDbSymbolTableRecord
100
AcDbLinetypeTableRecord
  2
BYLAYER
 70
     0
  3

 72
    65
 73
     0
 40
0.0
  0
LTYPE
  5
14
330
5
100
AcDbSymbolTableRecord
100
AcDbLinetypeTableRecord
  2
CONTINUOUS
 70
     0
  3
Solid line
 72
    65
 73
     0
 40
0.0
  0
LTYPE
  5
8C
330
5
100
AcDbSymbolTableRecord
100
AcDbLinetypeTableRecord
  2
DASHDOT
 70
     0
  3
__ . __ . __ . __ . __ . __ . __ . __ . __ . __
 72
    65
 73
     4
 40
1.0
 49
0.5
 74
     0
 49
-0.25
 74
     0
 49
0.0
 74
     0
 49
-0.25
 74
     0
  0
ENDTAB
  0
TABLE
  2
LAYER
  5
2
330
0
100
AcDbSymbolTable
 70
     3
  0
LAYER
  5
F
330
2
100
AcDbSymbolTableRecord
100
AcDbLayerTableRecord
  2
0
 70
     0
 62
     7
  6
CONTINUOUS
  0
LAYER
  5
35
330
2
100
AcDbSymbolTableRecord
100
AcDbLayerTableRecord
  2
DRIP
 70
     0
 62
     5
  6
CONTINUOUS
  0
LAYER
  5
8D
330
2
100
AcDbSymbolTableRecord
100
AcDbLayerTableRecord
  2
AXIS
 70
     0
 62
     1
  6
DASHDOT
  0
ENDTAB
  0
TABLE
  2
STYLE
  5
3
330
0
100
AcDbSymbolTable
 70
     1
  0
STYLE
  5
10
330
3
100
AcDbSymbolTableRecord
100
AcDbTextStyleTableRecord
  2
STANDARD
 70
     0
 40
0.0
 41
1.0
 50
0.0
 71
     0
 42
0.2
  3
txt
  4

  0
ENDTAB
  0
TABLE
  2
VIEW
  5
6
330
0
100
AcDbSymbolTable
 70
     0
  0
ENDTAB
  0
TABLE
  2
UCS
  5
7
330
0
100
AcDbSymbolTable
 70
     0
  0
ENDTAB
  0
TABLE
  2
APPID
  5
9
330
0
100
AcDbSymbolTable
 70
     1
  0
APPID
  5
11
330
9
100
AcDbSymbolTableRecord
100
AcDbRegAppTableRecord
  2
ACAD
 70
     0
  0
ENDTAB
  0
TABLE
  2
DIMSTYLE
  5
A
330
0
100
AcDbSymbolTable
 70
     1
  0
DIMSTYLE
105
2D
330
A
100
AcDbSymbolTableRecord
100
AcDbDimStyleTableRecord
  2
STANDARD
 70
     0
  3

  4

  5

  6

  7

 40
1.0
 41
0.18
 42
0.0625
 43
0.38
 44
0.18
 45
0.0
 46
0.0
 47
0.0
 48
0.0
140
0.18
141
0.09
142
0.0
143
25.4
144
1.0
145
0.0
146
1.0
147
0.09
 71
     0
 72
     0
 73
     1
 74
     1
 75
     0
 76
     0
 77
     0
 78
     0
170
     0
171
     2
172
     0
173
     0
174
     0
175
     0
176
     0
177
     0
178
     0
270
     2
271
     4
272
     4
273
     2
274
     2
340
10
275
     0
280
     0
281
     0
282
     0
283
     1
284
     0
285
     0
286
     0
287
     3
288
     0
  0
ENDTAB
  0
TABLE
  2
BLOCK_RECORD
  5
1
330
0
100
AcDbSymbolTable
 70
     0
  0
BLOCK_RECORD
  5
18
330
1
100
AcDbSymbolTableRecord
100
AcDbBlockTableRecord
  2
*MODEL_SPACE
  0
BLOCK_RECORD
  5
15
330
1
100
AcDbSymbolTableRecord
100
AcDbBlockTableRecord
  2
*PAPER_SPACE
  0
ENDTAB
  0
ENDSEC
  0
SECTION
  2
BLOCKS
  0
BLOCK
  5
24
330
18
100
AcDbEntity
  8
0
100
AcDbBlockBegin
  2
*MODEL_SPACE
 70
     0
 71
     0
 10
0.0
 20
0.0
 30
0.0
  3
*MODEL_SPACE
  1

  0
ENDBLK
  5
25
330
18
100
AcDbEntity
  8
0
100
AcDbBlockEnd
  0
BLOCK
  5
22
330
15
100
AcDbEntity
 67
     1
  8
0
100
AcDbBlockBegin
  2
*PAPER_SPACE
 70
     0
 71
     0
 10
0.0
 20
0.0
 30
0.0
  3
*PAPER_SPACE
  1

  0
ENDBLK
  5
23
330
15
100
AcDbEntity
 67
     1
  8
0
100
AcDbBlockEnd
  0
ENDSEC
  0
SECTION
  2
ENTITIES
  0
LINE
  5
B7
330
18
100
AcDbEntity
  8
DRIP
100
AcDbLine
 10
83.75
 20
-23.939151
 30
0.0
 11
115.25
 21
-23.939151
 31
0.0
  0
LINE
  5
B8
330
18
100
AcDbEntity
  8
DRIP
100
AcDbLine
 10
83.75
 20
-17.939151
 30
0.0
 11
115.25
 21
-17.939151
 31
0.0
  0
LINE
  5
B9
330
18
100
AcDbEntity
  8
DRIP
100
AcDbLine
 10
83.75
 20
4.0
 30
0.0
 11
115.25
 21
4.0
 31
0.0
  0
LINE
  5
BA
330
18
100
AcDbEntity
  8
DRIP
100
AcDbLine
 10
113.25
 20
8.060848999999999
 30
0.0
 11
113.25
 21
127.560849
 31
0.0
  0
LINE
  5
BB
330
18
100
AcDbEntity
  8
DRIP
100
AcDbLine
 10
109.25
 20
8.060848999999999
 30
0.0
 11
109.25
 21
127.560849
 31
0.0
  0
LINE
  5
BC
330
18
100
AcDbEntity
  8
DRIP
100
AcDbLine
 10
85.75
 20
8.060848999999999
 30
0.0
 11
85.75
 21
127.560849
 31
0.0
  0
LINE
  5
BD
330
18
100
AcDbEntity
  8
DRIP
100
AcDbLine
 10
89.75
 20
8.060848999999999
 30
0.0
 11
89.75
 21
127.560849
 31
0.0
  0
LINE
  5
BE
330
18
100
AcDbEntity
  8
DRIP
100
AcDbLine
 10
83.75
 20
-26.939151
 30
0.0
 11
83.75
 21
8.060848999999999
 31
0.0
  0
LINE
  5
BF
330
18
100
AcDbEntity
  8
DRIP
100
AcDbLine
 10
115.25
 20
-26.939151
 30
0.0
 11
115.25
 21
8.060848999999999
 31
0.0
  0
LINE
  5
C0
330
18
100
AcDbEntity
  8
DRIP
100
AcDbLine
 10
83.75
 20
8.060848999999999
 30
0.0
 11
115.25
 21
8.060848999999999
 31
0.0
  0
LINE
  5
C1
330
18
100
AcDbEntity
  8
DRIP
100
AcDbLine
 10
83.75
 20
-26.939151
 30
0.0
 11
115.25
 21
-26.939151
 31
0.0
  0
ARC
  5
C2
330
18
100
AcDbEntity
  8
DRIP
100
AcDbCircle
 10
111.25
 20
-54.439151
 30
0.0
 40
2.0
100
AcDbArc
 50
270.0
 51
90.0
  0
ARC
  5
C3
330
18
100
AcDbEntity
  8
DRIP
100
AcDbCircle
 10
87.75
 20
-54.439151
 30
0.0
 40
2.0
100
AcDbArc
 50
90.0
 51
270.0
  0
LINE
  5
C4
330
18
100
AcDbEntity
  8
DRIP
100
AcDbLine
 10
109.25
 20
127.560849
 30
0.0
 11
113.25
 21
127.560849
 31
0.0
  0
LINE
  5
C5
330
18
100
AcDbEntity
  8
DRIP
100
AcDbLine
 10
87.75
 20
-52.439151
 30
0.0
 11
111.25
 21
-52.439151
 31
0.0
  0
LINE
  5
C6
330
18
100
AcDbEntity
  8
DRIP
100
AcDbLine
 10
87.75
 20
-56.439151
 30
0.0
 11
111.25
 21
-56.439151
 31
0.0
  0
LINE
  5
C7
330
18
100
AcDbEntity
  8
DRIP
100
AcDbLine
 10
113.25
 20
-54.439151
 30
0.0
 11
113.25
 21
-26.939151
 31
0.0
  0
LINE
  5
C8
330
18
100
AcDbEntity
  8
DRIP
100
AcDbLine
 10
109.25
 20
-52.439151
 30
0.0
 11
109.25
 21
-26.939151
 31
0.0
  0
LINE
  5
C9
330
18
100
AcDbEntity
  8
DRIP
100
AcDbLine
 10
89.75
 20
-52.439151
 30
0.0
 11
89.75
 21
-26.939151
 31
0.0
  0
LINE
  5
CA
330
18
100
AcDbEntity
  8
DRIP
100
AcDbLine
 10
85.75
 20
-54.439151
 30
0.0
 11
85.75
 21
-26.939151
 31
0.0
  0
LINE
  5
CB
330
18
100
AcDbEntity
  8
DRIP
100
AcDbLine
 10
85.75
 20
127.560849
 30
0.0
 11
89.75
 21
127.560849
 31
0.0
  0
LINE
  5
CC
330
18
100
AcDbEntity
  8
DRIP
100
AcDbLine
 10
85.75
 20
25.112739
 30
0.0
 11
89.75
 21
25.112739
 31
0.0
  0
LINE
  5
CD
330
18
100
AcDbEntity
  8
DRIP
100
AcDbLine
 10
109.25
 20
25.112739
 30
0.0
 11
113.25
 21
25.112739
 31
0.0
  0
CIRCLE
  5
CE
330
18
100
AcDbEntity
  8
DRIP
100
AcDbCircle
 10
99.5
 20
-6.9696
 30
0.0
 40
3.0
  0
CIRCLE
  5
CF
330
18
100
AcDbEntity
  8
DRIP
100
AcDbCircle
 10
99.5
 20
-6.9696
 30
0.0
 40
4.0
  0
POLYLINE
  5
D0
330
18
100
AcDbEntity
  8
DRIP
100
AcDb2dPolyline
 66
     1
 10
0.0
 20
0.0
 30
0.0
 70
     1
  0
VERTEX
  5
153
330
D0
100
AcDbEntity
  8
DRIP
100
AcDbVertex
100
AcDb2dVertex
 10
98.5
 20
-5.237549
 30
0.0
  0
VERTEX
  5
154
330
D0
100
AcDbEntity
  8
DRIP
100
AcDbVertex
100
AcDb2dVertex
 10
97.5
 20
-6.9696
 30
0.0
  0
VERTEX
  5
155
330
D0
100
AcDbEntity
  8
DRIP
100
AcDbVertex
100
AcDb2dVertex
 10
98.5
 20
-8.701651
 30
0.0
  0
VERTEX
  5
156
330
D0
100
AcDbEntity
  8
DRIP
100
AcDbVertex
100
AcDb2dVertex
 10
100.5
 20
-8.701651
 30
0.0
  0
VERTEX
  5
157
330
D0
100
AcDbEntity
  8
DRIP
100
AcDbVertex
100
AcDb2dVertex
 10
101.5
 20
-6.9696
 30
0.0
  0
VERTEX
  5
158
330
D0
100
AcDbEntity
  8
DRIP
100
AcDbVertex
100
AcDb2dVertex
 10
100.5
 20
-5.237549
 30
0.0
  0
SEQEND
  5
152
330
D0
100
AcDbEntity
  8
DRIP
  0
LINE
  5
D8
330
18
100
AcDbEntity
  8
DRIP
100
AcDbLine
 10
2.117658
 20
-27.119442
 30
0.0
 11
8.349997
 21
-27.119442
 31
0.0
  0
LINE
  5
D9
330
18
100
AcDbEntity
  8
DRIP
100
AcDbLine
 10
2.750018
 20
-18.119442
 30
0.0
 11
2.750018
 21
0.88051
 31
0.0
  0
LINE
  5
DA
330
18
100
AcDbEntity
  8
DRIP
100
AcDbLine
 10
2.750018
 20
-18.119442
 30
0.0
 11
0.750018
 21
-18.119442
 31
0.0
  0
LINE
  5
DB
330
18
100
AcDbEntity
  8
DRIP
100
AcDbLine
 10
0.750018
 20
-18.119442
 30
0.0
 11
0.750018
 21
-25.619442
 31
0.0
  0
LINE
  5
DC
330
18
100
AcDbEntity
  8
DRIP
100
AcDbLine
 10
0.750018
 20
-25.619442
 30
0.0
 11
2.117658
 21
-27.119442
 31
0.0
  0
LINE
  5
DD
330
18
100
AcDbEntity
  8
DRIP
100
AcDbLine
 10
-4.050042
 20
-25.119442
 30
0.0
 11
-6.050042
 21
-22.119442
 31
0.0
  0
LINE
  5
DE
330
18
100
AcDbEntity
  8
DRIP
100
AcDbLine
 10
-2.117642
 20
-25.119442
 30
0.0
 11
-4.050042
 21
-25.119442
 31
0.0
  0
LINE
  5
DF
330
18
100
AcDbEntity
  8
DRIP
100
AcDbLine
 10
-0.750002
 20
-23.619442
 30
0.0
 11
-2.117642
 21
-25.119442
 31
0.0
  0
LINE
  5
E0
330
18
100
AcDbEntity
  8
DRIP
100
AcDbLine
 10
-0.750002
 20
-18.119442
 30
0.0
 11
-0.750002
 21
-23.619442
 31
0.0
  0
LINE
  5
E1
330
18
100
AcDbEntity
  8
DRIP
100
AcDbLine
 10
-2.750002
 20
0.880558
 30
0.0
 11
-2.750002
 21
-18.119442
 31
0.0
  0
ARC
  5
E2
330
18
100
AcDbEntity
  8
DRIP
100
AcDbCircle
 10
0.0
 20
0.0
 30
0.0
 40
2.887541
100
AcDbArc
 50
17.754194
 51
162.24479
  0
LINE
  5
E3
330
18
100
AcDbEntity
  8
DRIP
100
AcDbLine
 10
-2.750002
 20
-18.119442
 30
0.0
 11
-0.750002
 21
-18.119442
 31
0.0
  0
LINE
  5
E4
330
18
100
AcDbEntity
  8
DRIP
100
AcDbLine
 10
12.399358
 20
-27.119442
 30
0.0
 11
18.249958
 21
-24.025692
 31
0.0
  0
ARC
  5
E5
330
18
100
AcDbEntity
  8
DRIP
100
AcDbCircle
 10
5.533577
 20
-8.006185
 30
0.0
 40
15.933494
100
AcDbArc
 50
64.475156
 51
76.389831
  0
ARC
  5
E6
330
18
100
AcDbEntity
  8
DRIP
100
AcDbCircle
 10
4.59826
 20
-13.346922
 30
0.0
 40
21.20613
100
AcDbArc
 50
49.927093
 51
68.41569
  0
LINE
  5
E7
330
18
100
AcDbEntity
  8
DRIP
100
AcDbLine
 10
18.249958
 20
-24.025692
 30
0.0
 11
18.249958
 21
2.880558
 31
0.0
  0
LINE
  5
E8
330
18
100
AcDbEntity
  8
DRIP
100
AcDbLine
 10
-6.050042
 20
-22.119442
 30
0.0
 11
-6.050042
 21
2.880558
 31
0.0
  0
LINE
  5
E9
330
18
100
AcDbEntity
  8
DRIP
100
AcDbLine
 10
-4.050042
 20
-25.119442
 30
0.0
 11
-2.117642
 21
-25.119442
 31
0.0
  0
ARC
  5
EA
330
18
100
AcDbEntity
  8
DRIP
100
AcDbCircle
 10
4.783427
 20
17.545861
 30
0.0
 40
3.477033
100
AcDbArc
 50
357.274868
 51
100.963924
  0
ARC
  5
EB
330
18
100
AcDbEntity
  8
DRIP
100
AcDbCircle
 10
8.492001999999999
 20
21.205422
 30
0.0
 40
3.765251
100
AcDbArc
 50
358.875699
 51
98.170954
  0
ARC
  5
EC
330
18
100
AcDbEntity
  8
DRIP
100
AcDbCircle
 10
-1.22673
 20
28.090133
 30
0.0
 40
3.517011
100
AcDbArc
 50
179.252561
 51
258.842598
  0
ARC
  5
ED
330
18
100
AcDbEntity
  8
DRIP
100
AcDbCircle
 10
-5.236947
 20
24.23018
 30
0.0
 40
3.509913
100
AcDbArc
 50
177.471627
 51
276.21879
  0
LINE
  5
EE
330
18
100
AcDbEntity
  8
DRIP
100
AcDbLine
 10
4.122126
 20
20.959428
 30
0.0
 11
-4.856734
 21
20.740922
 31
0.0
  0
LINE
  5
EF
330
18
100
AcDbEntity
  8
DRIP
100
AcDbLine
 10
7.956857
 20
24.932449
 30
0.0
 11
-1.907289
 21
24.639595
 31
0.0
  0
ARC
  5
F0
330
18
100
AcDbEntity
  8
DRIP
100
AcDbCircle
 10
6.399358
 20
-50.619442
 30
0.0
 40
2.0
100
AcDbArc
 50
270.0
 51
0.0
  0
ARC
  5
F1
330
18
100
AcDbEntity
  8
DRIP
100
AcDbCircle
 10
8.399357999999999
 20
-52.619442
 30
0.0
 40
4.0
100
AcDbArc
 50
270.0
 51
0.0
  0
LINE
  5
F2
330
18
100
AcDbEntity
  8
DRIP
100
AcDbLine
 10
-4.743442
 20
28.136012
 30
0.0
 11
-4.743442
 21
127.380558
 31
0.0
  0
LINE
  5
F3
330
18
100
AcDbEntity
  8
DRIP
100
AcDbLine
 10
-8.743442
 20
24.385017
 30
0.0
 11
-8.743442
 21
127.380558
 31
0.0
  0
LINE
  5
F4
330
18
100
AcDbEntity
  8
DRIP
100
AcDbLine
 10
8.399357999999999
 20
-50.619442
 30
0.0
 11
8.256527999999999
 21
17.380547
 31
0.0
  0
LINE
  5
F5
330
18
100
AcDbEntity
  8
DRIP
100
AcDbLine
 10
12.399358
 20
-52.619442
 30
0.0
 11
12.349973
 21
-27.119442
 31
0.0
  0
LINE
  5
F6
330
18
100
AcDbEntity
  8
DRIP
100
AcDbLine
 10
-26.600642
 20
-52.619442
 30
0.0
 11
6.399358
 21
-52.619442
 31
0.0
  0
LINE
  5
F7
330
18
100
AcDbEntity
  8
DRIP
100
AcDbLine
 10
-8.743442
 20
127.380558
 30
0.0
 11
-4.743442
 21
127.380558
 31
0.0
  0
LINE
  5
F8
330
18
100
AcDbEntity
  8
DRIP
100
AcDbLine
 10
-26.600642
 20
-56.619442
 30
0.0
 11
8.399357999999999
 21
-56.619442
 31
0.0
  0
LINE
  5
F9
330
18
100
AcDbEntity
  8
DRIP
100
AcDbLine
 10
-26.600642
 20
-52.619442
 30
0.0
 11
-26.600642
 21
-56.619442
 31
0.0
  0
LINE
  5
FA
330
18
100
AcDbEntity
  8
DRIP
100
AcDbLine
 10
9.282961
 20
7.479885
 30
0.0
 11
9.349968000000001
 21
-27.119442
 31
0.0
  0
LINE
  5
FB
330
18
100
AcDbEntity
  8
DRIP
100
AcDbLine
 10
9.349968000000001
 20
-27.119442
 30
0.0
 11
12.399358
 21
-27.119442
 31
0.0
  0
ARC
  5
FC
330
18
100
AcDbEntity
  8
DRIP
100
AcDbCircle
 10
5.542879
 20
-7.911746
 30
0.0
 40
15.838866
100
AcDbArc
 50
80.060183
 51
137.048333
  0
LINE
  5
FD
330
18
100
AcDbEntity
  8
DRIP
100
AcDbLine
 10
12.285007
 20
6.426224
 30
0.0
 11
12.256528
 21
21.131542
 31
0.0
  0
LINE
  5
FE
330
18
100
AcDbEntity
  8
DRIP
100
AcDbLine
 10
-6.000642
 20
-120.619442
 30
0.0
 11
-12.100642
 21
-120.619442
 31
0.0
  0
LINE
  5
FF
330
18
100
AcDbEntity
  8
DRIP
100
AcDbLine
 10
-6.000642
 20
-99.61944200000001
 30
0.0
 11
-12.100642
 21
-99.61944200000001
 31
0.0
  0
ARC
  5
100
330
18
100
AcDbEntity
  8
DRIP
100
AcDbCircle
 10
-12.100642
 20
-110.119442
 30
0.0
 40
10.5
100
AcDbArc
 50
90.0
 51
270.0
  0
ARC
  5
101
330
18
100
AcDbEntity
  8
DRIP
100
AcDbCircle
 10
-12.100642
 20
-110.119442
 30
0.0
 40
14.5
100
AcDbArc
 50
90.0
 51
270.0
  0
LINE
  5
102
330
18
100
AcDbEntity
  8
DRIP
100
AcDbLine
 10
-6.000642
 20
-124.619442
 30
0.0
 11
-12.100642
 21
-124.619442
 31
0.0
  0
LINE
  5
103
330
18
100
AcDbEntity
  8
DRIP
100
AcDbLine
 10
-6.000642
 20
-95.61944200000001
 30
0.0
 11
-12.100642
 21
-95.61944200000001
 31
0.0
  0
LINE
  5
104
330
18
100
AcDbEntity
  8
DRIP
100
AcDbLine
 10
-6.000642
 20
-125.119442
 30
0.0
 11
8.399357999999999
 21
-125.119442
 31
0.0
  0
LINE
  5
105
330
18
100
AcDbEntity
  8
DRIP
100
AcDbLine
 10
8.399357999999999
 20
-125.119442
 30
0.0
 11
8.399357999999999
 21
-124.619442
 31
0.0
  0
ARC
  5
106
330
18
100
AcDbEntity
  8
DRIP
100
AcDbCircle
 10
10.399358
 20
-122.619442
 30
0.0
 40
2.0
100
AcDbArc
 50
270.0
 51
90.0
  0
LINE
  5
107
330
18
100
AcDbEntity
  8
DRIP
100
AcDbLine
 10
10.399358
 20
-125.119442
 30
0.0
 11
15.899358
 21
-125.119442
 31
0.0
  0
LINE
  5
108
330
18
100
AcDbEntity
  8
DRIP
100
AcDbLine
 10
10.399358
 20
-95.11944200000001
 30
0.0
 11
15.899358
 21
-95.11944200000001
 31
0.0
  0
ARC
  5
109
330
18
100
AcDbEntity
  8
DRIP
100
AcDbCircle
 10
10.399358
 20
-97.61944200000001
 30
0.0
 40
2.0
100
AcDbArc
 50
270.0
 51
90.0
  0
LINE
  5
10A
330
18
100
AcDbEntity
  8
DRIP
100
AcDbLine
 10
8.399357999999999
 20
-95.11944200000001
 30
0.0
 11
8.399357999999999
 21
-95.61944200000001
 31
0.0
  0
LINE
  5
10B
330
18
100
AcDbEntity
  8
DRIP
100
AcDbLine
 10
-6.000642
 20
-95.11944200000001
 30
0.0
 11
8.399357999999999
 21
-95.11944200000001
 31
0.0
  0
LINE
  5
10C
330
18
100
AcDbEntity
  8
DRIP
100
AcDbLine
 10
-6.000642
 20
-95.11944200000001
 30
0.0
 11
-6.000642
 21
-95.711563
 31
0.0
  0
LINE
  5
10D
330
18
100
AcDbEntity
  8
DRIP
100
AcDbLine
 10
12.399358
 20
-97.61944200000001
 30
0.0
 11
12.399358
 21
-122.619442
 31
0.0
  0
LINE
  5
10E
330
18
100
AcDbEntity
  8
DRIP
100
AcDbLine
 10
9.399357999999999
 20
-105.119442
 30
0.0
 11
12.399358
 21
-106.119442
 31
0.0
  0
LINE
  5
10F
330
18
100
AcDbEntity
  8
DRIP
100
AcDbLine
 10
9.399357999999999
 20
-115.119442
 30
0.0
 11
12.399358
 21
-114.119442
 31
0.0
  0
LINE
  5
110
330
18
100
AcDbEntity
  8
DRIP
100
AcDbLine
 10
9.399357999999999
 20
-99.61944200000001
 30
0.0
 11
9.399357999999999
 21
-105.119442
 31
0.0
  0
LINE
  5
111
330
18
100
AcDbEntity
  8
DRIP
100
AcDbLine
 10
9.399357999999999
 20
-115.119442
 30
0.0
 11
9.399357999999999
 21
-120.619442
 31
0.0
  0
LINE
  5
112
330
18
100
AcDbEntity
  8
DRIP
100
AcDbLine
 10
10.399358
 20
-95.11944200000001
 30
0.0
 11
10.399358
 21
-95.61944200000001
 31
0.0
  0
LINE
  5
113
330
18
100
AcDbEntity
  8
DRIP
100
AcDbLine
 10
10.399358
 20
-125.119442
 30
0.0
 11
10.399358
 21
-124.619442
 31
0.0
  0
LINE
  5
114
330
18
100
AcDbEntity
  8
AXIS
100
AcDbLine
 10
20.676057
 20
-110.119442
 30
0.0
 11
1.261875
 21
-110.119442
 31
0.0
  0
CIRCLE
  5
115
330
18
100
AcDbEntity
  8
DRIP
100
AcDbCircle
 10
-6.600642
 20
-97.61944200000001
 30
0.0
 40
2.0
  0
CIRCLE
  5
116
330
18
100
AcDbEntity
  8
DRIP
100
AcDbCircle
 10
-6.600642
 20
-122.619442
 30
0.0
 40
2.0
  0
LINE
  5
117
330
18
100
AcDbEntity
  8
DRIP
100
AcDbLine
 10
-6.600642
 20
-95.61944200000001
 30
0.0
 11
10.399358
 21
-95.61944200000001
 31
0.0
  0
LINE
  5
118
330
18
100
AcDbEntity
  8
DRIP
100
AcDbLine
 10
-6.600642
 20
-99.61944200000001
 30
0.0
 11
10.399358
 21
-99.61944200000001
 31
0.0
  0
LINE
  5
119
330
18
100
AcDbEntity
  8
DRIP
100
AcDbLine
 10
-6.600642
 20
-124.619442
 30
0.0
 11
10.399358
 21
-124.619442
 31
0.0
  0
LINE
  5
11A
330
18
100
AcDbEntity
  8
DRIP
100
AcDbLine
 10
-6.600642
 20
-120.619442
 30
0.0
 11
10.399358
 21
-120.619442
 31
0.0
  0
LINE
  5
11B
330
18
100
AcDbEntity
  8
DRIP
100
AcDbLine
 10
18.299358
 20
-104.476553
 30
0.0
 11
18.299358
 21
-115.76233
 31
0.0
  0
LINE
  5
11C
330
18
100
AcDbEntity
  8
DRIP
100
AcDbLine
 10
15.899358
 20
-95.11944200000001
 30
0.0
 11
18.299358
 21
-104.476553
 31
0.0
  0
LINE
  5
11D
330
18
100
AcDbEntity
  8
DRIP
100
AcDbLine
 10
18.299358
 20
-115.76233
 30
0.0
 11
15.899358
 21
-125.119442
 31
0.0
  0
LINE
  5
11E
330
18
100
AcDbEntity
  8
DRIP
100
AcDbLine
 10
-6.000642
 20
-99.52732
 30
0.0
 11
-6.000642
 21
-120.711563
 31
0.0
  0
LINE
  5
11F
330
18
100
AcDbEntity
  8
DRIP
100
AcDbLine
 10
-6.000642
 20
-124.52732
 30
0.0
 11
-6.000642
 21
-125.119442
 31
0.0
  0
ENDSEC
  0
SECTION
  2
OBJECTS
  0
DICTIONARY
  5
C
330
0
100
AcDbDictionary
  3
ACAD_GROUP
350
D
  3
ACAD_LAYOUT
350
121
  3
ACAD_MLINESTYLE
350
E
1001
ACAD
1000
TREAT_AS_HARD
1070
     0
  0
DICTIONARY
  5
159
330
120
100
AcDbDictionary
  3
ACAD_XREC_ROUNDTRIP
360
15A
  0
DICTIONARY
  5
D
102
{ACAD_REACTORS
330
C
102
}
330
C
100
AcDbDictionary
1001
ACAD
1000
TREAT_AS_HARD
1070
     0
  0
DICTIONARY
  5
121
102
{ACAD_REACTORS
330
C
102
}
330
C
100
AcDbDictionary
1001
ACAD
1000
TREAT_AS_HARD
1070
     0
  0
DICTIONARY
  5
E
102
{ACAD_REACTORS
330
C
102
}
330
C
100
AcDbDictionary
  3
STANDARD
350
1B
1001
ACAD
1000
TREAT_AS_HARD
1070
     0
  0
XRECORD
  5
15A
102
{ACAD_REACTORS
330
159
102
}
330
159
100
AcDbXrecord
102
UCS
 74
     0
 71
     1
 10
0.0
 20
0.0
 30
0.0
 10
1.0
 20
0.0
 30
0.0
 10
0.0
 20
1.0
 30
0.0
146
0.0
 79
     0
102
VIEW
281
     0
  0
MLINESTYLE
  5
1B
102
{ACAD_REACTORS
330
E
102
}
330
E
100
AcDbMlineStyle
  2
STANDARD
 70
     0
  3

 62
     0
 51
90.0
 52
90.0
 71
     2
 49
0.5
 62
   256
  6
BYLAYER
 49
-0.5
 62
   256
  6
BYLAYER
  0
ENDSEC
  0
EOF
