  0
SECTION
  2
HEADER
  9
$ACADVER
  1
AC1014
  9
$ACADMAINTVER
 70
     9
  9
$DWGCODEPAGE
  3
ANSI_1252
  9
$INSBASE
 10
0.0
 20
0.0
 30
0.0
  9
$EXTMIN
 10
-1513.814612431155
 20
-19.84330695640892
 30
-0.0015258207003583
  9
$EXTMAX
 10
1513.814626571944
 20
20.1796549382143
 30
0.0000000349246037
  9
$LIMMIN
 10
0.0
 20
0.0
  9
$LIMMAX
 10
12.0
 20
9.0
  9
$ORTHOMODE
 70
     0
  9
$REGENMODE
 70
     1
  9
$FILLMODE
 70
     1
  9
$QTEXTMODE
 70
     0
  9
$MIRRTEXT
 70
     1
  9
$DRAGMODE
 70
     2
  9
$LTSCALE
 40
16.0
  9
$OSMODE
 70
    37
  9
$ATTMODE
 70
     1
  9
$TEXTSIZE
 40
0.2
  9
$TRACEWID
 40
0.05
  9
$TEXTSTYLE
  7
STANDARD
  9
$CLAYER
  8
0
  9
$CELTYPE
  6
CONTINUOUS
  9
$CECOLOR
 62
   256
  9
$CELTSCALE
 40
1.0
  9
$DELOBJ
 70
     1
  9
$DISPSILH
 70
     0
  9
$DIMSCALE
 40
1.0
  9
$DIMASZ
 40
0.18
  9
$DIMEXO
 40
0.0625
  9
$DIMDLI
 40
0.38
  9
$DIMRND
 40
0.0
  9
$DIMDLE
 40
0.0
  9
$DIMEXE
 40
0.18
  9
$DIMTP
 40
0.0
  9
$DIMTM
 40
0.0
  9
$DIMTXT
 40
0.18
  9
$DIMCEN
 40
0.09
  9
$DIMTSZ
 40
0.0
  9
$DIMTOL
 70
     0
  9
$DIMLIM
 70
     0
  9
$DIMTIH
 70
     1
  9
$DIMTOH
 70
     1
  9
$DIMSE1
 70
     0
  9
$DIMSE2
 70
     0
  9
$DIMTAD
 70
     0
  9
$DIMZIN
 70
     0
  9
$DIMBLK
  1

  9
$DIMASO
 70
     1
  9
$DIMSHO
 70
     1
  9
$DIMPOST
  1

  9
$DIMAPOST
  1

  9
$DIMALT
 70
     0
  9
$DIMALTD
 70
     2
  9
$DIMALTF
 40
25.4
  9
$DIMLFAC
 40
1.0
  9
$DIMTOFL
 70
     0
  9
$DIMTVP
 40
0.0
  9
$DIMTIX
 70
     0
  9
$DIMSOXD
 70
     0
  9
$DIMSAH
 70
     0
  9
$DIMBLK1
  1

  9
$DIMBLK2
  1

  9
$DIMSTYLE
  2
STANDARD
  9
$DIMCLRD
 70
     0
  9
$DIMCLRE
 70
     0
  9
$DIMCLRT
 70
     0
  9
$DIMTFAC
 40
1.0
  9
$DIMGAP
 40
0.09
  9
$DIMJUST
 70
     0
  9
$DIMSD1
 70
     0
  9
$DIMSD2
 70
     0
  9
$DIMTOLJ
 70
     1
  9
$DIMTZIN
 70
     0
  9
$DIMALTZ
 70
     0
  9
$DIMALTTZ
 70
     0
  9
$DIMFIT
 70
     5
  9
$DIMUPT
 70
     0
  9
$DIMUNIT
 70
     2
  9
$DIMDEC
 70
     4
  9
$DIMTDEC
 70
     4
  9
$DIMALTU
 70
     2
  9
$DIMALTTD
 70
     2
  9
$DIMTXSTY
  7
STANDARD
  9
$DIMAUNIT
 70
     0
  9
$LUNITS
 70
     2
  9
$LUPREC
 70
     4
  9
$SKETCHINC
 40
0.1
  9
$FILLETRAD
 40
0.5
  9
$AUNITS
 70
     0
  9
$AUPREC
 70
     0
  9
$MENU
  1
.
  9
$ELEVATION
 40
0.0
  9
$PELEVATION
 40
0.0
  9
$THICKNESS
 40
0.0
  9
$LIMCHECK
 70
     0
  9
$CHAMFERA
 40
0.5
  9
$CHAMFERB
 40
0.5
  9
$CHAMFERC
 40
0.0
  9
$CHAMFERD
 40
0.0
  9
$SKPOLY
 70
     0
  9
$TDCREATE
 40
2453592.828645
  9
$TDUPDATE
 40
2453594.775144687
  9
$TDINDWG
 40
0.0000791782
  9
$TDUSRTIMER
 40
0.0000791782
  9
$USRTIMER
 70
     1
  9
$ANGBASE
 50
0.0
  9
$ANGDIR
 70
     0
  9
$PDMODE
 70
     0
  9
$PDSIZE
 40
0.0
  9
$PLINEWID
 40
0.0
  9
$COORDS
 70
     1
  9
$SPLFRAME
 70
     0
  9
$SPLINETYPE
 70
     6
  9
$SPLINESEGS
 70
     8
  9
$ATTDIA
 70
     0
  9
$ATTREQ
 70
     1
  9
$HANDLING
 70
     1
  9
$HANDSEED
  5
134
  9
$SURFTAB1
 70
     6
  9
$SURFTAB2
 70
     6
  9
$SURFTYPE
 70
     6
  9
$SURFU
 70
     6
  9
$SURFV
 70
     6
  9
$UCSNAME
  2

  9
$UCSORG
 10
0.0
 20
0.0
 30
0.0
  9
$UCSXDIR
 10
1.0
 20
0.0
 30
0.0
  9
$UCSYDIR
 10
0.0
 20
1.0
 30
0.0
  9
$PUCSNAME
  2

  9
$PUCSORG
 10
0.0
 20
0.0
 30
0.0
  9
$PUCSXDIR
 10
1.0
 20
0.0
 30
0.0
  9
$PUCSYDIR
 10
0.0
 20
1.0
 30
0.0
  9
$USERI1
 70
     0
  9
$USERI2
 70
     0
  9
$USERI3
 70
     0
  9
$USERI4
 70
     0
  9
$USERI5
 70
     0
  9
$USERR1
 40
0.0
  9
$USERR2
 40
0.0
  9
$USERR3
 40
0.0
  9
$USERR4
 40
0.0
  9
$USERR5
 40
0.0
  9
$WORLDVIEW
 70
     0
  9
$SHADEDGE
 70
     3
  9
$SHADEDIF
 70
    70
  9
$TILEMODE
 70
     1
  9
$MAXACTVP
 70
    48
  9
$PINSBASE
 10
0.0
 20
0.0
 30
0.0
  9
$PLIMCHECK
 70
     0
  9
$PEXTMIN
 10
1.000000000000000E+20
 20
1.000000000000000E+20
 30
1.000000000000000E+20
  9
$PEXTMAX
 10
-1.000000000000000E+20
 20
-1.000000000000000E+20
 30
-1.000000000000000E+20
  9
$PLIMMIN
 10
0.0
 20
0.0
  9
$PLIMMAX
 10
12.0
 20
9.0
  9
$UNITMODE
 70
     0
  9
$VISRETAIN
 70
     1
  9
$PLINEGEN
 70
     0
  9
$PSLTSCALE
 70
     1
  9
$TREEDEPTH
 70
  3020
  9
$PICKSTYLE
 70
     1
  9
$CMLSTYLE
  2
STANDARD
  9
$CMLJUST
 70
     0
  9
$CMLSCALE
 40
1.0
  9
$PROXYGRAPHICS
 70
     1
  9
$MEASUREMENT
 70
     0
  0
ENDSEC
  0
SECTION
  2
CLASSES
  0
CLASS
  1
DICTIONARYVAR
  2
AcDbDictionaryVar
  3
ObjectDBX Classes
 90
        0
280
     0
281
     0
  0
CLASS
  1
LWPOLYLINE
  2
AcDbPolyline
  3
AutoCAD 2000
 90
        0
280
     0
281
     1
  0
CLASS
  1
XRECORD
  2
AcDbXrecord
  3
AutoCAD 2000
 90
        0
280
     0
281
     0
  0
CLASS
  1
HATCH
  2
AcDbHatch
  3
AutoCAD 2000
 90
        0
280
     0
281
     1
  0
CLASS
  1
ACDBPLACEHOLDER
  2
AcDbPlaceHolder
  3
ObjectDBX Classes
 90
        0
280
     0
281
     0
  0
CLASS
  1
LAYOUT
  2
AcDbLayout
  3
ObjectDBX Classes
 90
        0
280
     0
281
     0
  0
ENDSEC
  0
SECTION
  2
TABLES
  0
TABLE
  2
VPORT
  5
DF
330
0
100
AcDbSymbolTable
 70
     2
  0
VPORT
  5
10F
102
{ACAD_XDICTIONARY
360
132
102
}
330
DF
100
AcDbSymbolTableRecord
100
AcDbViewportTableRecord
  2
*ACTIVE
 70
     0
 10
0.0
 20
0.0
 11
1.0
 21
1.0
 12
0.0000070703945312
 22
0.1681739909026874
 13
0.0
 23
0.0
 14
0.5
 24
0.5
 15
0.5
 25
0.5
 16
0.0
 26
0.0
 36
1.0
 17
0.0
 27
0.0
 37
0.0
 40
1742.686622152697
 41
1.748582230623818
 42
50.0
 43
0.0
 44
0.0
 50
0.0
 51
0.0
 71
     0
 72
   100
 73
     1
 74
     3
 75
     0
 76
     0
 77
     0
 78
     0
  0
ENDTAB
  0
TABLE
  2
LTYPE
  5
DC
330
0
100
AcDbSymbolTable
 70
     9
  0
LTYPE
  5
E8
330
DC
100
AcDbSymbolTableRecord
100
AcDbLinetypeTableRecord
  2
BYBLOCK
 70
     0
  3

 72
    65
 73
     0
 40
0.0
  0
LTYPE
  5
E9
330
DC
100
AcDbSymbolTableRecord
100
AcDbLinetypeTableRecord
  2
BYLAYER
 70
     0
  3

 72
    65
 73
     0
 40
0.0
  0
LTYPE
  5
EA
330
DC
100
AcDbSymbolTableRecord
100
AcDbLinetypeTableRecord
  2
CONTINUOUS
 70
     0
  3
Solid Line
 72
    65
 73
     0
 40
0.0
  0
LTYPE
  5
FB
330
DC
100
AcDbSymbolTableRecord
100
AcDbLinetypeTableRecord
  2
MCDASH1
 70
     0
  3
MiniCad+ Generated
 72
    65
 73
     6
 40
12.361262
 49
3.531955
 74
     0
 49
-1.765784
 74
     0
 49
3.531955
 74
     0
 49
-1.765784
 74
     0
 49
0.000388
 74
     0
 49
-1.765396
 74
     0
  0
LTYPE
  5
FC
330
DC
100
AcDbSymbolTableRecord
100
AcDbLinetypeTableRecord
  2
MCDASH2
 70
     0
  3
MiniCad+ Generated
 72
    65
 73
     4
 40
14.127046
 49
8.829694
 74
     0
 49
-1.765784
 74
     0
 49
1.765784
 74
     0
 49
-1.765784
 74
     0
  0
LTYPE
  5
FD
330
DC
100
AcDbSymbolTableRecord
100
AcDbLinetypeTableRecord
  2
MCDASH3
 70
     0
  3
MiniCad+ Generated
 72
    65
 73
     4
 40
7.063523
 49
3.531955
 74
     0
 49
-1.765784
 74
     0
 49
0.000388
 74
     0
 49
-1.765396
 74
     0
  0
LTYPE
  5
FE
330
DC
100
AcDbSymbolTableRecord
100
AcDbLinetypeTableRecord
  2
MCDASH4
 70
     0
  3
MiniCad+ Generated
 72
    65
 73
     2
 40
5.297739
 49
3.531955
 74
     0
 49
-1.765784
 74
     0
  0
LTYPE
  5
FF
330
DC
100
AcDbSymbolTableRecord
100
AcDbLinetypeTableRecord
  2
MCDASH5
 70
     0
  3
MiniCad+ Generated
 72
    65
 73
     6
 40
8.829307
 49
3.531955
 74
     0
 49
-1.765784
 74
     0
 49
0.000388
 74
     0
 49
-1.765396
 74
     0
 49
0.000388
 74
     0
 49
-1.765396
 74
     0
  0
LTYPE
  5
100
330
DC
100
AcDbSymbolTableRecord
100
AcDbLinetypeTableRecord
  2
MCDASH6
 70
     0
  3
MiniCad+ Generated
 72
    65
 73
     4
 40
3.531568
 49
0.000388
 74
     0
 49
-1.765396
 74
     0
 49
0.000388
 74
     0
 49
-1.765396
 74
     0
  0
LTYPE
  5
101
330
DC
100
AcDbSymbolTableRecord
100
AcDbLinetypeTableRecord
  2
MCDASH7
 70
     0
  3
MiniCad+ Generated
 72
    65
 73
     2
 40
2.648676
 49
1.765784
 74
     0
 49
-0.882892
 74
     0
  0
LTYPE
  5
102
330
DC
100
AcDbSymbolTableRecord
100
AcDbLinetypeTableRecord
  2
MCDASH8
 70
     0
  3
MiniCad+ Generated
 72
    65
 73
     6
 40
17.658614
 49
8.829694
 74
     0
 49
-1.765784
 74
     0
 49
1.765784
 74
     0
 49
-1.765784
 74
     0
 49
1.765784
 74
     0
 49
-1.765784
 74
     0
  0
ENDTAB
  0
TABLE
  2
LAYER
  5
D9
330
0
100
AcDbSymbolTable
 70
     2
  0
LAYER
  5
E5
330
D9
100
AcDbSymbolTableRecord
100
AcDbLayerTableRecord
  2
0
 70
     0
 62
     7
  6
CONTINUOUS
  0
LAYER
  5
106
330
D9
100
AcDbSymbolTableRecord
100
AcDbLayerTableRecord
  2
DISEGNO
 70
     0
 62
     7
  6
CONTINUOUS
  0
ENDTAB
  0
TABLE
  2
STYLE
  5
DA
330
0
100
AcDbSymbolTable
 70
     1
  0
STYLE
  5
E6
330
DA
100
AcDbSymbolTableRecord
100
AcDbTextStyleTableRecord
  2
STANDARD
 70
     0
 40
0.0
 41
1.0
 50
0.0
 71
     0
 42
0.2
  3
txt
  4

  0
ENDTAB
  0
TABLE
  2
VIEW
  5
DD
330
0
100
AcDbSymbolTable
 70
     0
  0
ENDTAB
  0
TABLE
  2
UCS
  5
DE
330
0
100
AcDbSymbolTable
 70
     0
  0
ENDTAB
  0
TABLE
  2
APPID
  5
E0
330
0
100
AcDbSymbolTable
 70
     1
  0
APPID
  5
E7
330
E0
100
AcDbSymbolTableRecord
100
AcDbRegAppTableRecord
  2
ACAD
 70
     0
  0
ENDTAB
  0
TABLE
  2
DIMSTYLE
  5
E1
330
0
100
AcDbSymbolTable
 70
     1
  0
DIMSTYLE
105
104
330
E1
100
AcDbSymbolTableRecord
100
AcDbDimStyleTableRecord
  2
STANDARD
 70
     0
  3

  4

  5

  6

  7

 40
1.0
 41
0.18
 42
0.0625
 43
0.38
 44
0.18
 45
0.0
 46
0.0
 47
0.0
 48
0.0
140
0.18
141
0.09
142
0.0
143
25.4
144
1.0
145
0.0
146
1.0
147
0.09
 71
     0
 72
     0
 73
     1
 74
     1
 75
     0
 76
     0
 77
     0
 78
     0
170
     0
171
     2
172
     0
173
     0
174
     0
175
     0
176
     0
177
     0
178
     0
270
     2
271
     4
272
     4
273
     2
274
     2
340
E6
275
     0
280
     0
281
     0
282
     0
283
     1
284
     0
285
     0
286
     0
287
     5
288
     0
  0
ENDTAB
  0
TABLE
  2
BLOCK_RECORD
  5
D8
330
0
100
AcDbSymbolTable
 70
     8
  0
BLOCK_RECORD
  5
EE
330
D8
100
AcDbSymbolTableRecord
100
AcDbBlockTableRecord
  2
*MODEL_SPACE
  0
BLOCK_RECORD
  5
EB
330
D8
100
AcDbSymbolTableRecord
100
AcDbBlockTableRecord
  2
*PAPER_SPACE
  0
BLOCK_RECORD
  5
F3
330
D8
100
AcDbSymbolTableRecord
100
AcDbBlockTableRecord
  2
$ARROW1$
  0
BLOCK_RECORD
  5
F4
330
D8
100
AcDbSymbolTableRecord
100
AcDbBlockTableRecord
  2
$ARROW2$
  0
BLOCK_RECORD
  5
F5
330
D8
100
AcDbSymbolTableRecord
100
AcDbBlockTableRecord
  2
$ARROW3$
  0
BLOCK_RECORD
  5
F6
330
D8
100
AcDbSymbolTableRecord
100
AcDbBlockTableRecord
  2
$ARROW4$
  0
BLOCK_RECORD
  5
F7
330
D8
100
AcDbSymbolTableRecord
100
AcDbBlockTableRecord
  2
$ARROW5$
  0
BLOCK_RECORD
  5
F8
330
D8
100
AcDbSymbolTableRecord
100
AcDbBlockTableRecord
  2
69072A
  0
BLOCK_RECORD
  5
F9
330
D8
100
AcDbSymbolTableRecord
100
AcDbBlockTableRecord
  2
69072B
  0
BLOCK_RECORD
  5
FA
330
D8
100
AcDbSymbolTableRecord
100
AcDbBlockTableRecord
  2
69072C
  0
ENDTAB
  0
ENDSEC
  0
SECTION
  2
BLOCKS
  0
BLOCK
  5
109
330
EE
100
AcDbEntity
  8
0
100
AcDbBlockBegin
  2
*MODEL_SPACE
 70
     0
 71
     0
 10
0.0
 20
0.0
 30
0.0
  3
*MODEL_SPACE
  1

  0
ENDBLK
  5
10A
330
EE
100
AcDbEntity
  8
0
100
AcDbBlockEnd
  0
BLOCK
  5
107
330
EB
100
AcDbEntity
 67
     1
  8
0
100
AcDbBlockBegin
  2
*PAPER_SPACE
 70
     0
 71
     0
 10
0.0
 20
0.0
 30
0.0
  3
*PAPER_SPACE
  1

  0
ENDBLK
  5
108
330
EB
100
AcDbEntity
 67
     1
  8
0
100
AcDbBlockEnd
  0
BLOCK
  5
2C
330
F3
100
AcDbEntity
  8
0
100
AcDbBlockBegin
  2
$ARROW1$
 70
     0
 71
     0
 10
0.0
 20
0.0
 30
0.0
  3
$ARROW1$
  1

  0
LWPOLYLINE
  5
2E
330
F3
100
AcDbEntity
  8
0
100
AcDbPolyline
 90
        3
 70
     1
 43
0.0
 10
-25.4
 20
4.318
 10
-25.4
 20
-4.318
 10
0.0
 20
0.0
  0
ENDBLK
  5
33
330
F3
100
AcDbEntity
  8
0
100
AcDbBlockEnd
  0
BLOCK
  5
34
330
F4
100
AcDbEntity
  8
0
100
AcDbBlockBegin
  2
$ARROW2$
 70
     0
 71
     0
 10
0.0
 20
0.0
 30
0.0
  3
$ARROW2$
  1

  0
LWPOLYLINE
  5
36
330
F4
100
AcDbEntity
  8
0
100
AcDbPolyline
 90
        3
 70
     1
 43
0.0
 10
-25.4
 20
12.7
 10
-25.4
 20
-12.7
 10
0.0
 20
0.0
  0
ENDBLK
  5
3B
330
F4
100
AcDbEntity
  8
0
100
AcDbBlockEnd
  0
BLOCK
  5
3C
330
F5
100
AcDbEntity
  8
0
100
AcDbBlockBegin
  2
$ARROW3$
 70
     0
 71
     0
 10
0.0
 20
0.0
 30
0.0
  3
$ARROW3$
  1

  0
LWPOLYLINE
  5
3E
330
F5
100
AcDbEntity
  8
0
100
AcDbPolyline
 90
       38
 70
     1
 43
0.0
 10
-6.35
 20
0.0
 10
-6.2535
 20
-1.1028
 10
-5.967
 20
-2.172
 10
-5.4992
 20
-3.1751
 10
-4.8643
 20
-4.0818
 10
-4.0816
 20
-4.8644
 10
-3.175
 20
-5.4993
 10
-2.1718
 20
-5.9671
 10
-1.1026
 20
-6.2535
 10
0.0001
 20
-6.35
 10
0.0
 20
-6.35
 10
1.1027
 20
-6.2535
 10
2.1719
 20
-5.967
 10
3.175
 20
-5.4992
 10
4.0817
 20
-4.8644
 10
4.8644
 20
-4.0816
 10
5.4993
 20
-3.175
 10
5.9671
 20
-2.1718
 10
6.2535
 20
-1.1026
 10
6.35
 20
0.0
 10
6.2535
 20
1.1026
 10
5.967
 20
2.1719
 10
5.4992
 20
3.175
 10
4.8644
 20
4.0817
 10
4.0817
 20
4.8644
 10
3.175
 20
5.4992
 10
2.1718
 20
5.9671
 10
1.1026
 20
6.2535
 10
0.0
 20
6.35
 10
-1.1026
 20
6.2535
 10
-2.1719
 20
5.967
 10
-3.175
 20
5.4992
 10
-4.0817
 20
4.8644
 10
-4.8644
 20
4.0817
 10
-5.4993
 20
3.175
 10
-5.9671
 20
2.1718
 10
-6.2535
 20
1.1026
 10
-6.35
 20
0.0
  0
ENDBLK
  5
66
330
F5
100
AcDbEntity
  8
0
100
AcDbBlockEnd
  0
BLOCK
  5
67
330
F6
100
AcDbEntity
  8
0
100
AcDbBlockBegin
  2
$ARROW4$
 70
     0
 71
     0
 10
0.0
 20
0.0
 30
0.0
  3
$ARROW4$
  1

  0
LINE
  5
69
330
F6
100
AcDbEntity
  8
0
100
AcDbLine
 10
12.7
 20
12.7
 30
0.0
 11
-12.7
 21
-12.7
 31
0.0
  0
ENDBLK
  5
6A
330
F6
100
AcDbEntity
  8
0
100
AcDbBlockEnd
  0
BLOCK
  5
6B
330
F7
100
AcDbEntity
  8
0
100
AcDbBlockBegin
  2
$ARROW5$
 70
     0
 71
     0
 10
0.0
 20
0.0
 30
0.0
  3
$ARROW5$
  1

  0
LINE
  5
6D
330
F7
100
AcDbEntity
  8
0
100
AcDbLine
 10
12.7
 20
12.7
 30
0.0
 11
-12.7
 21
-12.7
 31
0.0
  0
LINE
  5
6E
330
F7
100
AcDbEntity
  8
0
100
AcDbLine
 10
-12.7
 20
12.7
 30
0.0
 11
12.7
 21
-12.7
 31
0.0
  0
ENDBLK
  5
6F
330
F7
100
AcDbEntity
  8
0
100
AcDbBlockEnd
  0
BLOCK
  5
70
330
F8
100
AcDbEntity
  8
0
100
AcDbBlockBegin
  2
69072A
 70
     0
 71
     0
 10
0.0
 20
0.0
 30
0.0
  3
69072A
  1

  0
LINE
  5
72
330
F8
100
AcDbEntity
  8
0
 62
     6
100
AcDbLine
 10
0.0
 20
6.0739
 30
0.0
 11
0.0
 21
-6.0738
 31
0.0
  0
LINE
  5
73
330
F8
100
AcDbEntity
  8
0
 62
     6
100
AcDbLine
 10
-2.2933
 20
-7.9098
 30
0.0
 11
-16.6612
 21
-5.6611
 31
0.0
  0
LINE
  5
74
330
F8
100
AcDbEntity
  8
0
 62
     6
100
AcDbLine
 10
-16.6612
 20
5.8016
 30
0.0
 11
-2.2933
 21
8.050000000000001
 31
0.0
  0
LINE
  5
75
330
F8
100
AcDbEntity
  8
0
 62
     6
100
AcDbLine
 10
-2.0718
 20
-6.4278
 30
0.0
 11
-11.5857
 21
-5.0059
 31
0.0
  0
LINE
  5
76
330
F8
100
AcDbEntity
  8
0
 62
     6
100
AcDbLine
 10
-11.5857
 20
5.1461
 30
0.0
 11
-2.0718
 21
6.568
 31
0.0
  0
LINE
  5
77
330
F8
100
AcDbEntity
  8
0
 62
     6
100
AcDbLine
 10
-1.4985
 20
6.0982
 30
0.0
 11
-1.4985
 21
-5.9338
 31
0.0
  0
ARC
  5
78
330
F8
100
AcDbEntity
  8
0
 62
     6
100
AcDbCircle
 10
-1.998
 20
6.0739
 30
0.0
 40
1.998
100
AcDbArc
 50
90.0
 51
98.5
  0
ARC
  5
79
330
F8
100
AcDbEntity
  8
0
 62
     6
100
AcDbCircle
 10
-1.998
 20
-5.9338
 30
0.0
 40
1.998
100
AcDbArc
 50
270.0
 51
314.004379
  0
ARC
  5
7A
330
F8
100
AcDbEntity
  8
0
 62
     6
100
AcDbCircle
 10
-1.998
 20
-5.9338
 30
0.0
 40
1.998
100
AcDbArc
 50
314.004379
 51
0.0
  0
ARC
  5
7B
330
F8
100
AcDbEntity
  8
0
 62
     6
100
AcDbCircle
 10
-1.998
 20
-5.9338
 30
0.0
 40
1.998
100
AcDbArc
 50
261.5
 51
270.0
  0
ARC
  5
7C
330
F8
100
AcDbEntity
  8
0
 62
     6
100
AcDbCircle
 10
-1.998
 20
6.0739
 30
0.0
 40
1.998
100
AcDbArc
 50
0.0
 51
90.0
  0
ARC
  5
7D
330
F8
100
AcDbEntity
  8
0
 62
     6
100
AcDbCircle
 10
-1.998
 20
6.0739
 30
0.0
 40
0.4995
100
AcDbArc
 50
2.784424
 51
93.620285
  0
ARC
  5
7E
330
F8
100
AcDbEntity
  8
0
 62
     6
100
AcDbCircle
 10
-1.998
 20
6.0739
 30
0.0
 40
0.4995
100
AcDbArc
 50
93.6203
 51
98.5
  0
ARC
  5
7F
330
F8
100
AcDbEntity
  8
0
 62
     6
100
AcDbCircle
 10
-1.998
 20
-5.9338
 30
0.0
 40
0.4995
100
AcDbArc
 50
261.5
 51
0.0
  0
LINE
  5
80
330
F8
100
AcDbEntity
  8
0
 62
     6
100
AcDbLine
 10
1.1175
 20
0.0682
 30
0.0
 11
-18.3825
 21
0.0682
 31
0.0
  0
LINE
  5
81
330
F8
100
AcDbEntity
  8
0
 62
     6
100
AcDbLine
 10
-11.5857
 20
5.1461
 30
0.0
 11
-11.7837
 21
6.5647
 31
0.0
  0
LINE
  5
82
330
F8
100
AcDbEntity
  8
0
 62
     6
100
AcDbLine
 10
-11.7837
 20
-6.4245
 30
0.0
 11
-11.5857
 21
-5.0059
 31
0.0
  0
ARC
  5
83
330
F8
100
AcDbEntity
  8
0
 62
     6
100
AcDbCircle
 10
2.5
 20
0.0701
 30
0.0
 40
20.0
100
AcDbArc
 50
163.34758
 51
196.65242
  0
ENDBLK
  5
84
330
F8
100
AcDbEntity
  8
0
100
AcDbBlockEnd
  0
BLOCK
  5
85
330
F9
100
AcDbEntity
  8
0
100
AcDbBlockBegin
  2
69072B
 70
     0
 71
     0
 10
0.0
 20
0.0
 30
0.0
  3
69072B
  1

  0
LINE
  5
87
330
F9
100
AcDbEntity
  8
0
 62
     6
100
AcDbLine
 10
0.0
 20
0.0
 30
0.0
 11
3000.0
 21
0.0
 31
0.0
  0
LINE
  5
88
330
F9
100
AcDbEntity
  8
0
 62
     6
100
AcDbLine
 10
0.0
 20
16.0037
 30
0.0
 11
0.0
 21
0.0
 31
0.0
  0
LINE
  5
89
330
F9
100
AcDbEntity
  8
0
 62
     6
100
AcDbLine
 10
0.0
 20
16.0037
 30
0.0
 11
3000.0
 21
16.0037
 31
0.0
  0
LINE
  5
8A
330
F9
100
AcDbEntity
  8
0
 62
     6
100
AcDbLine
 10
3000.0
 20
16.0037
 30
0.0
 11
3000.0
 21
0.0
 31
0.0
  0
LINE
  5
8B
330
F9
100
AcDbEntity
  8
0
 62
     6
100
AcDbLine
 10
0.0
 20
2.4018
 30
0.0
 11
3000.0
 21
2.4018
 31
0.0
  0
LINE
  5
8C
330
F9
100
AcDbEntity
  8
0
 62
     6
100
AcDbLine
 10
0.0
 20
13.6018
 30
0.0
 11
3000.0
 21
13.6018
 31
0.0
  0
ENDBLK
  5
8D
330
F9
100
AcDbEntity
  8
0
100
AcDbBlockEnd
  0
BLOCK
  5
8E
330
FA
100
AcDbEntity
  8
0
100
AcDbBlockBegin
  2
69072C
 70
     0
 71
     0
 10
0.0
 20
0.0
 30
0.0
  3
69072C
  1

  0
LINE
  5
90
330
FA
100
AcDbEntity
  8
0
 62
     6
100
AcDbLine
 10
0.0
 20
17.4752
 30
0.0
 11
3000.0
 21
17.4752
 31
0.0
  0
LINE
  5
91
330
FA
100
AcDbEntity
  8
0
 62
     6
100
AcDbLine
 10
0.0
 20
0.0
 30
0.0
 11
3000.0
 21
0.0
 31
0.0
  0
LINE
  5
92
330
FA
100
AcDbEntity
  8
0
 62
     6
100
AcDbLine
 10
0.0
 20
0.0
 30
0.0
 11
0.0
 21
17.4752
 31
0.0
  0
LINE
  5
93
330
FA
100
AcDbEntity
  8
0
 62
     6
100
AcDbLine
 10
0.0
 20
5.6824
 30
0.0
 11
3000.0
 21
5.6824
 31
0.0
  0
LINE
  5
94
330
FA
100
AcDbEntity
  8
0
 62
     6
100
AcDbLine
 10
3000.0
 20
0.0
 30
0.0
 11
3000.0
 21
17.4752
 31
0.0
  0
ENDBLK
  5
95
330
FA
100
AcDbEntity
  8
0
100
AcDbBlockEnd
  0
ENDSEC
  0
SECTION
  2
ENTITIES
  0
INSERT
  5
96
330
EE
100
AcDbEntity
  8
DISEGNO
100
AcDbBlockReference
  2
69072A
 10
-1495.4087
 20
11.4741
 30
0.0
  0
INSERT
  5
97
330
EE
100
AcDbEntity
  8
DISEGNO
100
AcDbBlockReference
  2
69072B
 10
-1486.2087
 20
3.6323
 30
0.0
  0
INSERT
  5
98
330
EE
100
AcDbEntity
  8
DISEGNO
100
AcDbBlockReference
  2
69072C
 10
-1486.2087
 20
-19.6359
 30
0.0
  0
ENDSEC
  0
SECTION
  2
OBJECTS
  0
DICTIONARY
  5
E3
330
0
100
AcDbDictionary
  3
ACAD_GROUP
350
E4
  3
ACAD_LAYOUT
350
110
  3
ACAD_MLINESTYLE
350
F1
  3
ACDBHEADERROUNDTRIPXREC
350
113
  3
ACDBVARIABLEDICTIONARY
350
10B
  0
DICTIONARY
  5
132
330
10F
100
AcDbDictionary
280
     1
  3
ACAD_XREC_ROUNDTRIP
360
133
  0
DICTIONARY
  5
E4
102
{ACAD_REACTORS
330
E3
102
}
330
E3
100
AcDbDictionary
  0
DICTIONARY
  5
110
102
{ACAD_REACTORS
330
E3
102
}
330
E3
100
AcDbDictionary
  0
DICTIONARY
  5
F1
102
{ACAD_REACTORS
330
E3
102
}
330
E3
100
AcDbDictionary
  3
STANDARD
350
F2
  0
DICTIONARY
  5
113
102
{ACAD_REACTORS
330
E3
102
}
330
E3
100
AcDbDictionary
  3
CEPSNTYPE
350
11B
  3
DIMSTYLEDATA
350
131
  3
FINGERPRINTGUID
350
11C
  3
HYPERLINKBASE
350
116
  3
INSUNITS
350
11A
  3
LAYOUTDICT
350
118
  3
LWETCUNION
350
119
  3
PSVPSCALE
350
11E
  3
PUCSBASE
350
121
  3
PUCSORGBACK
350
127
  3
PUCSORGBOTTOM
350
123
  3
PUCSORGFRONT
350
126
  3
PUCSORGLEFT
350
124
  3
PUCSORGRIGHT
350
125
  3
PUCSORGTOP
350
122
  3
PUCSORTHOREF
350
11F
  3
PUCSORTHOVIEW
350
120
  3
STYLESHEET
350
117
  3
TSTACKALIGN
350
114
  3
TSTACKSIZE
350
115
  3
UCSBASE
350
12A
  3
UCSORGBACK
350
130
  3
UCSORGBOTTOM
350
12C
  3
UCSORGFRONT
350
12F
  3
UCSORGLEFT
350
12D
  3
UCSORGRIGHT
350
12E
  3
UCSORGTOP
350
12B
  3
UCSORTHOREF
350
128
  3
UCSORTHOVIEW
350
129
  3
VERSIONGUID
350
11D
  0
DICTIONARY
  5
10B
102
{ACAD_REACTORS
330
E3
102
}
330
E3
100
AcDbDictionary
  3
DIMADEC
350
10C
  0
XRECORD
  5
133
102
{ACAD_REACTORS
330
132
102
}
330
132
100
AcDbXrecord
102
UCS
 74
     0
 71
     1
 10
0.0
 20
0.0
 30
0.0
 10
1.0
 20
0.0
 30
0.0
 10
0.0
 20
1.0
 30
0.0
146
0.0
 79
     0
102
VIEW
281
     0
  0
MLINESTYLE
  5
F2
102
{ACAD_REACTORS
330
F1
102
}
330
F1
100
AcDbMlineStyle
  2
STANDARD
 70
     0
  3

 62
   256
 51
90.0
 52
90.0
 71
     2
 49
0.5
 62
   256
  6
BYLAYER
 49
-0.5
 62
   256
  6
BYLAYER
  0
XRECORD
  5
11B
102
{ACAD_REACTORS
330
113
102
}
330
113
100
AcDbXrecord
 90
        0
  0
XRECORD
  5
131
102
{ACAD_REACTORS
330
113
102
}
330
113
100
AcDbXrecord
1000
DSTYLE
1002
{
1070
   279
 70
     2
1070
   340
340
E6
1002
}
  0
XRECORD
  5
11C
102
{ACAD_REACTORS
330
113
102
}
330
113
100
AcDbXrecord
  1
{FAEB1C30-E019-11D5-929B-00C0DF256EC4}
  0
XRECORD
  5
116
102
{ACAD_REACTORS
330
113
102
}
330
113
100
AcDbXrecord
  1

  0
XRECORD
  5
11A
102
{ACAD_REACTORS
330
113
102
}
330
113
100
AcDbXrecord
 90
        0
  0
XRECORD
  5
118
102
{ACAD_REACTORS
330
113
102
}
330
113
100
AcDbXrecord
340
110
  0
XRECORD
  5
119
102
{ACAD_REACTORS
330
113
102
}
330
113
100
AcDbXrecord
 90
    10781
  0
XRECORD
  5
11E
102
{ACAD_REACTORS
330
113
102
}
330
113
100
AcDbXrecord
 40
0.0
  0
XRECORD
  5
121
102
{ACAD_REACTORS
330
113
102
}
330
113
100
AcDbXrecord
340
0
  0
XRECORD
  5
127
102
{ACAD_REACTORS
330
113
102
}
330
113
100
AcDbXrecord
 10
0.0
 20
0.0
 30
0.0
  0
XRECORD
  5
123
102
{ACAD_REACTORS
330
113
102
}
330
113
100
AcDbXrecord
 10
0.0
 20
0.0
 30
0.0
  0
XRECORD
  5
126
102
{ACAD_REACTORS
330
113
102
}
330
113
100
AcDbXrecord
 10
0.0
 20
0.0
 30
0.0
  0
XRECORD
  5
124
102
{ACAD_REACTORS
330
113
102
}
330
113
100
AcDbXrecord
 10
0.0
 20
0.0
 30
0.0
  0
XRECORD
  5
125
102
{ACAD_REACTORS
330
113
102
}
330
113
100
AcDbXrecord
 10
0.0
 20
0.0
 30
0.0
  0
XRECORD
  5
122
102
{ACAD_REACTORS
330
113
102
}
330
113
100
AcDbXrecord
 10
0.0
 20
0.0
 30
0.0
  0
XRECORD
  5
11F
102
{ACAD_REACTORS
330
113
102
}
330
113
100
AcDbXrecord
340
0
  0
XRECORD
  5
120
102
{ACAD_REACTORS
330
113
102
}
330
113
100
AcDbXrecord
 70
     0
  0
XRECORD
  5
117
102
{ACAD_REACTORS
330
113
102
}
330
113
100
AcDbXrecord
  1

  0
XRECORD
  5
114
102
{ACAD_REACTORS
330
113
102
}
330
113
100
AcDbXrecord
 90
        1
  0
XRECORD
  5
115
102
{ACAD_REACTORS
330
113
102
}
330
113
100
AcDbXrecord
 90
       70
  0
XRECORD
  5
12A
102
{ACAD_REACTORS
330
113
102
}
330
113
100
AcDbXrecord
340
0
  0
XRECORD
  5
130
102
{ACAD_REACTORS
330
113
102
}
330
113
100
AcDbXrecord
 10
0.0
 20
0.0
 30
0.0
  0
XRECORD
  5
12C
102
{ACAD_REACTORS
330
113
102
}
330
113
100
AcDbXrecord
 10
0.0
 20
0.0
 30
0.0
  0
XRECORD
  5
12F
102
{ACAD_REACTORS
330
113
102
}
330
113
100
AcDbXrecord
 10
0.0
 20
0.0
 30
0.0
  0
XRECORD
  5
12D
102
{ACAD_REACTORS
330
113
102
}
330
113
100
AcDbXrecord
 10
0.0
 20
0.0
 30
0.0
  0
XRECORD
  5
12E
102
{ACAD_REACTORS
330
113
102
}
330
113
100
AcDbXrecord
 10
0.0
 20
0.0
 30
0.0
  0
XRECORD
  5
12B
102
{ACAD_REACTORS
330
113
102
}
330
113
100
AcDbXrecord
 10
0.0
 20
0.0
 30
0.0
  0
XRECORD
  5
128
102
{ACAD_REACTORS
330
113
102
}
330
113
100
AcDbXrecord
340
0
  0
XRECORD
  5
129
102
{ACAD_REACTORS
330
113
102
}
330
113
100
AcDbXrecord
 70
     0
  0
XRECORD
  5
11D
102
{ACAD_REACTORS
330
113
102
}
330
113
100
AcDbXrecord
  1
{FAEB1C32-E019-11D5-929B-00C0DF256EC4}
  0
DICTIONARYVAR
  5
10C
102
{ACAD_REACTORS
330
10B
102
}
330
10B
100
DictionaryVariables
280
     0
  1
0
  0
ENDSEC
  0
EOF
