  0
SECTION
  2
HEADER
  9
$ACADVER
  1
AC1014
  9
$ACADMAINTVER
 70
     9
  9
$DWGCODEPAGE
  3
ANSI_1252
  9
$INSBASE
 10
0.0
 20
0.0
 30
0.0
  9
$EXTMIN
 10
-126.2577051005882
 20
-131.0176511395644
 30
-0.0015258207003583
  9
$EXTMAX
 10
126.2577062763829
 20
131.5210290982403
 30
0.0000000349246037
  9
$LIMMIN
 10
0.0
 20
0.0
  9
$LIMMAX
 10
12.0
 20
9.0
  9
$ORTHOMODE
 70
     0
  9
$REGENMODE
 70
     1
  9
$FILLMODE
 70
     1
  9
$QTEXTMODE
 70
     0
  9
$MIRRTEXT
 70
     1
  9
$DRAGMODE
 70
     2
  9
$LTSCALE
 40
1.330387
  9
$OSMODE
 70
    37
  9
$ATTMODE
 70
     1
  9
$TEXTSIZE
 40
0.2
  9
$TRACEWID
 40
0.05
  9
$TEXTSTYLE
  7
STANDARD
  9
$CLAYER
  8
0
  9
$CELTYPE
  6
CONTINUOUS
  9
$CECOLOR
 62
   256
  9
$CELTSCALE
 40
1.0
  9
$DELOBJ
 70
     1
  9
$DISPSILH
 70
     0
  9
$DIMSCALE
 40
1.0
  9
$DIMASZ
 40
0.18
  9
$DIMEXO
 40
0.0625
  9
$DIMDLI
 40
0.38
  9
$DIMRND
 40
0.0
  9
$DIMDLE
 40
0.0
  9
$DIMEXE
 40
0.18
  9
$DIMTP
 40
0.0
  9
$DIMTM
 40
0.0
  9
$DIMTXT
 40
0.18
  9
$DIMCEN
 40
0.09
  9
$DIMTSZ
 40
0.0
  9
$DIMTOL
 70
     0
  9
$DIMLIM
 70
     0
  9
$DIMTIH
 70
     1
  9
$DIMTOH
 70
     1
  9
$DIMSE1
 70
     0
  9
$DIMSE2
 70
     0
  9
$DIMTAD
 70
     0
  9
$DIMZIN
 70
     0
  9
$DIMBLK
  1

  9
$DIMASO
 70
     1
  9
$DIMSHO
 70
     1
  9
$DIMPOST
  1

  9
$DIMAPOST
  1

  9
$DIMALT
 70
     0
  9
$DIMALTD
 70
     2
  9
$DIMALTF
 40
25.4
  9
$DIMLFAC
 40
1.0
  9
$DIMTOFL
 70
     0
  9
$DIMTVP
 40
0.0
  9
$DIMTIX
 70
     0
  9
$DIMSOXD
 70
     0
  9
$DIMSAH
 70
     0
  9
$DIMBLK1
  1

  9
$DIMBLK2
  1

  9
$DIMSTYLE
  2
STANDARD
  9
$DIMCLRD
 70
     0
  9
$DIMCLRE
 70
     0
  9
$DIMCLRT
 70
     0
  9
$DIMTFAC
 40
1.0
  9
$DIMGAP
 40
0.09
  9
$DIMJUST
 70
     0
  9
$DIMSD1
 70
     0
  9
$DIMSD2
 70
     0
  9
$DIMTOLJ
 70
     1
  9
$DIMTZIN
 70
     0
  9
$DIMALTZ
 70
     0
  9
$DIMALTTZ
 70
     0
  9
$DIMFIT
 70
     5
  9
$DIMUPT
 70
     0
  9
$DIMUNIT
 70
     2
  9
$DIMDEC
 70
     4
  9
$DIMTDEC
 70
     4
  9
$DIMALTU
 70
     2
  9
$DIMALTTD
 70
     2
  9
$DIMTXSTY
  7
STANDARD
  9
$DIMAUNIT
 70
     0
  9
$LUNITS
 70
     2
  9
$LUPREC
 70
     4
  9
$SKETCHINC
 40
0.1
  9
$FILLETRAD
 40
0.5
  9
$AUNITS
 70
     0
  9
$AUPREC
 70
     0
  9
$MENU
  1
.
  9
$ELEVATION
 40
0.0
  9
$PELEVATION
 40
0.0
  9
$THICKNESS
 40
0.0
  9
$LIMCHECK
 70
     0
  9
$CHAMFERA
 40
0.5
  9
$CHAMFERB
 40
0.5
  9
$CHAMFERC
 40
0.0
  9
$CHAMFERD
 40
0.0
  9
$SKPOLY
 70
     0
  9
$TDCREATE
 40
2453592.828636076
  9
$TDUPDATE
 40
2453594.702927419
  9
$TDINDWG
 40
0.0002917593
  9
$TDUSRTIMER
 40
0.0002917593
  9
$USRTIMER
 70
     1
  9
$ANGBASE
 50
0.0
  9
$ANGDIR
 70
     0
  9
$PDMODE
 70
     0
  9
$PDSIZE
 40
0.0
  9
$PLINEWID
 40
0.0
  9
$COORDS
 70
     1
  9
$SPLFRAME
 70
     0
  9
$SPLINETYPE
 70
     6
  9
$SPLINESEGS
 70
     8
  9
$ATTDIA
 70
     0
  9
$ATTREQ
 70
     1
  9
$HANDLING
 70
     1
  9
$HANDSEED
  5
120
  9
$SURFTAB1
 70
     6
  9
$SURFTAB2
 70
     6
  9
$SURFTYPE
 70
     6
  9
$SURFU
 70
     6
  9
$SURFV
 70
     6
  9
$UCSNAME
  2

  9
$UCSORG
 10
0.0
 20
0.0
 30
0.0
  9
$UCSXDIR
 10
1.0
 20
0.0
 30
0.0
  9
$UCSYDIR
 10
0.0
 20
1.0
 30
0.0
  9
$PUCSNAME
  2

  9
$PUCSORG
 10
0.0
 20
0.0
 30
0.0
  9
$PUCSXDIR
 10
1.0
 20
0.0
 30
0.0
  9
$PUCSYDIR
 10
0.0
 20
1.0
 30
0.0
  9
$USERI1
 70
     0
  9
$USERI2
 70
     0
  9
$USERI3
 70
     0
  9
$USERI4
 70
     0
  9
$USERI5
 70
     0
  9
$USERR1
 40
0.0
  9
$USERR2
 40
0.0
  9
$USERR3
 40
0.0
  9
$USERR4
 40
0.0
  9
$USERR5
 40
0.0
  9
$WORLDVIEW
 70
     0
  9
$SHADEDGE
 70
     3
  9
$SHADEDIF
 70
    70
  9
$TILEMODE
 70
     1
  9
$MAXACTVP
 70
    48
  9
$PINSBASE
 10
0.0
 20
0.0
 30
0.0
  9
$PLIMCHECK
 70
     0
  9
$PEXTMIN
 10
1.000000000000000E+20
 20
1.000000000000000E+20
 30
1.000000000000000E+20
  9
$PEXTMAX
 10
-1.000000000000000E+20
 20
-1.000000000000000E+20
 30
-1.000000000000000E+20
  9
$PLIMMIN
 10
0.0
 20
0.0
  9
$PLIMMAX
 10
12.0
 20
9.0
  9
$UNITMODE
 70
     0
  9
$VISRETAIN
 70
     1
  9
$PLINEGEN
 70
     0
  9
$PSLTSCALE
 70
     1
  9
$TREEDEPTH
 70
  3020
  9
$PICKSTYLE
 70
     1
  9
$CMLSTYLE
  2
STANDARD
  9
$CMLJUST
 70
     0
  9
$CMLSCALE
 40
1.0
  9
$PROXYGRAPHICS
 70
     1
  9
$MEASUREMENT
 70
     0
  0
ENDSEC
  0
SECTION
  2
CLASSES
  0
CLASS
  1
DICTIONARYVAR
  2
AcDbDictionaryVar
  3
ObjectDBX Classes
 90
        0
280
     0
281
     0
  0
CLASS
  1
LWPOLYLINE
  2
AcDbPolyline
  3
AutoCAD 2000
 90
        0
280
     0
281
     1
  0
CLASS
  1
XRECORD
  2
AcDbXrecord
  3
AutoCAD 2000
 90
        0
280
     0
281
     0
  0
CLASS
  1
HATCH
  2
AcDbHatch
  3
AutoCAD 2000
 90
        0
280
     0
281
     1
  0
CLASS
  1
ACDBPLACEHOLDER
  2
AcDbPlaceHolder
  3
ObjectDBX Classes
 90
        0
280
     0
281
     0
  0
CLASS
  1
LAYOUT
  2
AcDbLayout
  3
ObjectDBX Classes
 90
        0
280
     0
281
     0
  0
ENDSEC
  0
SECTION
  2
TABLES
  0
TABLE
  2
VPORT
  5
C8
330
0
100
AcDbSymbolTable
 70
     2
  0
VPORT
  5
FB
102
{ACAD_XDICTIONARY
360
11E
102
}
330
C8
100
AcDbSymbolTableRecord
100
AcDbViewportTableRecord
  2
*ACTIVE
 70
     0
 10
0.0
 20
0.0
 11
1.0
 21
1.0
 12
0.0000005878973894
 22
0.2516889793379846
 13
0.0
 23
0.0
 14
0.5
 24
0.5
 15
0.5
 25
0.5
 16
0.0
 26
0.0
 36
1.0
 17
0.0
 27
0.0
 37
0.0
 40
265.5108162404968
 41
1.748582230623819
 42
50.0
 43
0.0
 44
0.0
 50
0.0
 51
0.0
 71
     0
 72
   100
 73
     1
 74
     3
 75
     0
 76
     0
 77
     0
 78
     0
  0
ENDTAB
  0
TABLE
  2
LTYPE
  5
C5
330
0
100
AcDbSymbolTable
 70
     9
  0
LTYPE
  5
D1
330
C5
100
AcDbSymbolTableRecord
100
AcDbLinetypeTableRecord
  2
BYBLOCK
 70
     0
  3

 72
    65
 73
     0
 40
0.0
  0
LTYPE
  5
D2
330
C5
100
AcDbSymbolTableRecord
100
AcDbLinetypeTableRecord
  2
BYLAYER
 70
     0
  3

 72
    65
 73
     0
 40
0.0
  0
LTYPE
  5
D3
330
C5
100
AcDbSymbolTableRecord
100
AcDbLinetypeTableRecord
  2
CONTINUOUS
 70
     0
  3
Solid Line
 72
    65
 73
     0
 40
0.0
  0
LTYPE
  5
E5
330
C5
100
AcDbSymbolTableRecord
100
AcDbLinetypeTableRecord
  2
MCDASH1
 70
     0
  3
MiniCad+ Generated
 72
    65
 73
     2
 40
2.116538
 49
1.058075
 74
     0
 49
-1.058463
 74
     0
  0
LTYPE
  5
E6
330
C5
100
AcDbSymbolTableRecord
100
AcDbLinetypeTableRecord
  2
MCDASH2
 70
     0
  3
MiniCad+ Generated
 72
    65
 73
     2
 40
3.527692
 49
2.469229
 74
     0
 49
-1.058463
 74
     0
  0
LTYPE
  5
E7
330
C5
100
AcDbSymbolTableRecord
100
AcDbLinetypeTableRecord
  2
MCDASH3
 70
     0
  3
MiniCad+ Generated
 72
    65
 73
     2
 40
6.35
 49
5.291537
 74
     0
 49
-1.058463
 74
     0
  0
LTYPE
  5
E8
330
C5
100
AcDbSymbolTableRecord
100
AcDbLinetypeTableRecord
  2
MCDASH4
 70
     0
  3
MiniCad+ Generated
 72
    65
 73
     2
 40
7.760767
 49
6.702692
 74
     0
 49
-1.058075
 74
     0
  0
LTYPE
  5
E9
330
C5
100
AcDbSymbolTableRecord
100
AcDbLinetypeTableRecord
  2
MCDASH5
 70
     0
  3
MiniCad+ Generated
 72
    65
 73
     2
 40
1.058075
 49
0.352692
 74
     0
 49
-0.705383
 74
     0
  0
LTYPE
  5
EA
330
C5
100
AcDbSymbolTableRecord
100
AcDbLinetypeTableRecord
  2
MCDASH6
 70
     0
  3
MiniCad+ Generated
 72
    65
 73
     4
 40
5.291538
 49
3.175
 74
     0
 49
-1.058075
 74
     0
 49
0.352692
 74
     0
 49
-0.705771
 74
     0
  0
LTYPE
  5
EB
330
C5
100
AcDbSymbolTableRecord
100
AcDbLinetypeTableRecord
  2
MCDASH7
 70
     0
  3
MiniCad+ Generated
 72
    65
 73
     6
 40
9.525001
 49
3.175
 74
     0
 49
-1.058075
 74
     0
 49
3.175
 74
     0
 49
-1.058463
 74
     0
 49
0.352692
 74
     0
 49
-0.705771
 74
     0
  0
LTYPE
  5
EC
330
C5
100
AcDbSymbolTableRecord
100
AcDbLinetypeTableRecord
  2
MCDASH8
 70
     0
  3
MiniCad+ Generated
 72
    65
 73
     6
 40
6.350001000000001
 49
3.175
 74
     0
 49
-1.058075
 74
     0
 49
0.352692
 74
     0
 49
-0.705771
 74
     0
 49
0.352692
 74
     0
 49
-0.705771
 74
     0
  0
ENDTAB
  0
TABLE
  2
LAYER
  5
C2
330
0
100
AcDbSymbolTable
 70
     4
  0
LAYER
  5
CE
330
C2
100
AcDbSymbolTableRecord
100
AcDbLayerTableRecord
  2
0
 70
     0
 62
     7
  6
CONTINUOUS
  0
LAYER
  5
F0
330
C2
100
AcDbSymbolTableRecord
100
AcDbLayerTableRecord
  2
PROFILI
 70
     0
 62
     7
  6
CONTINUOUS
  0
LAYER
  5
F1
330
C2
100
AcDbSymbolTableRecord
100
AcDbLayerTableRecord
  2
FISSAGGI
 70
     0
 62
     2
  6
CONTINUOUS
  0
LAYER
  5
F2
330
C2
100
AcDbSymbolTableRecord
100
AcDbLayerTableRecord
  2
PANNELLI
 70
     0
 62
     6
  6
CONTINUOUS
  0
ENDTAB
  0
TABLE
  2
STYLE
  5
C3
330
0
100
AcDbSymbolTable
 70
     1
  0
STYLE
  5
CF
330
C3
100
AcDbSymbolTableRecord
100
AcDbTextStyleTableRecord
  2
STANDARD
 70
     0
 40
0.0
 41
1.0
 50
0.0
 71
     0
 42
0.2
  3
txt
  4

  0
ENDTAB
  0
TABLE
  2
VIEW
  5
C6
330
0
100
AcDbSymbolTable
 70
     0
  0
ENDTAB
  0
TABLE
  2
UCS
  5
C7
330
0
100
AcDbSymbolTable
 70
     0
  0
ENDTAB
  0
TABLE
  2
APPID
  5
C9
330
0
100
AcDbSymbolTable
 70
     1
  0
APPID
  5
D0
330
C9
100
AcDbSymbolTableRecord
100
AcDbRegAppTableRecord
  2
ACAD
 70
     0
  0
ENDTAB
  0
TABLE
  2
DIMSTYLE
  5
CA
330
0
100
AcDbSymbolTable
 70
     1
  0
DIMSTYLE
105
EE
330
CA
100
AcDbSymbolTableRecord
100
AcDbDimStyleTableRecord
  2
STANDARD
 70
     0
  3

  4

  5

  6

  7

 40
1.0
 41
0.18
 42
0.0625
 43
0.38
 44
0.18
 45
0.0
 46
0.0
 47
0.0
 48
0.0
140
0.18
141
0.09
142
0.0
143
25.4
144
1.0
145
0.0
146
1.0
147
0.09
 71
     0
 72
     0
 73
     1
 74
     1
 75
     0
 76
     0
 77
     0
 78
     0
170
     0
171
     2
172
     0
173
     0
174
     0
175
     0
176
     0
177
     0
178
     0
270
     2
271
     4
272
     4
273
     2
274
     2
340
CF
275
     0
280
     0
281
     0
282
     0
283
     1
284
     0
285
     0
286
     0
287
     5
288
     0
  0
ENDTAB
  0
TABLE
  2
BLOCK_RECORD
  5
C1
330
0
100
AcDbSymbolTable
 70
     9
  0
BLOCK_RECORD
  5
D7
330
C1
100
AcDbSymbolTableRecord
100
AcDbBlockTableRecord
  2
*MODEL_SPACE
  0
BLOCK_RECORD
  5
D4
330
C1
100
AcDbSymbolTableRecord
100
AcDbBlockTableRecord
  2
*PAPER_SPACE
  0
BLOCK_RECORD
  5
DC
330
C1
100
AcDbSymbolTableRecord
100
AcDbBlockTableRecord
  2
$ARROW1$
  0
BLOCK_RECORD
  5
DD
330
C1
100
AcDbSymbolTableRecord
100
AcDbBlockTableRecord
  2
$ARROW2$
  0
BLOCK_RECORD
  5
DE
330
C1
100
AcDbSymbolTableRecord
100
AcDbBlockTableRecord
  2
$ARROW3$
  0
BLOCK_RECORD
  5
DF
330
C1
100
AcDbSymbolTableRecord
100
AcDbBlockTableRecord
  2
$ARROW4$
  0
BLOCK_RECORD
  5
E0
330
C1
100
AcDbSymbolTableRecord
100
AcDbBlockTableRecord
  2
$ARROW5$
  0
BLOCK_RECORD
  5
E1
330
C1
100
AcDbSymbolTableRecord
100
AcDbBlockTableRecord
  2
BORDER
  0
BLOCK_RECORD
  5
E2
330
C1
100
AcDbSymbolTableRecord
100
AcDbBlockTableRecord
  2
298B
  0
BLOCK_RECORD
  5
E3
330
C1
100
AcDbSymbolTableRecord
100
AcDbBlockTableRecord
  2
298A
  0
BLOCK_RECORD
  5
E4
330
C1
100
AcDbSymbolTableRecord
100
AcDbBlockTableRecord
  2
298C
  0
ENDTAB
  0
ENDSEC
  0
SECTION
  2
BLOCKS
  0
BLOCK
  5
F5
330
D7
100
AcDbEntity
  8
0
100
AcDbBlockBegin
  2
*MODEL_SPACE
 70
     0
 71
     0
 10
0.0
 20
0.0
 30
0.0
  3
*MODEL_SPACE
  1

  0
ENDBLK
  5
F6
330
D7
100
AcDbEntity
  8
0
100
AcDbBlockEnd
  0
BLOCK
  5
F3
330
D4
100
AcDbEntity
 67
     1
  8
0
100
AcDbBlockBegin
  2
*PAPER_SPACE
 70
     0
 71
     0
 10
0.0
 20
0.0
 30
0.0
  3
*PAPER_SPACE
  1

  0
ENDBLK
  5
F4
330
D4
100
AcDbEntity
 67
     1
  8
0
100
AcDbBlockEnd
  0
BLOCK
  5
2E
330
DC
100
AcDbEntity
  8
0
100
AcDbBlockBegin
  2
$ARROW1$
 70
     0
 71
     0
 10
0.0
 20
0.0
 30
0.0
  3
$ARROW1$
  1

  0
SOLID
  5
30
330
DC
100
AcDbEntity
  8
0
 62
     0
100
AcDbTrace
 10
-25.4
 20
4.318
 30
0.0
 11
-25.4
 21
-4.318
 31
0.0
 12
0.0
 22
0.0
 32
0.0
 13
0.0
 23
0.0
 33
0.0
  0
ENDBLK
  5
31
330
DC
100
AcDbEntity
  8
0
100
AcDbBlockEnd
  0
BLOCK
  5
32
330
DD
100
AcDbEntity
  8
0
100
AcDbBlockBegin
  2
$ARROW2$
 70
     0
 71
     0
 10
0.0
 20
0.0
 30
0.0
  3
$ARROW2$
  1

  0
SOLID
  5
34
330
DD
100
AcDbEntity
  8
0
 62
     0
100
AcDbTrace
 10
-25.4
 20
12.7
 30
0.0
 11
-25.4
 21
-12.7
 31
0.0
 12
0.0
 22
0.0
 32
0.0
 13
0.0
 23
0.0
 33
0.0
  0
ENDBLK
  5
35
330
DD
100
AcDbEntity
  8
0
100
AcDbBlockEnd
  0
BLOCK
  5
36
330
DE
100
AcDbEntity
  8
0
100
AcDbBlockBegin
  2
$ARROW3$
 70
     0
 71
     0
 10
0.0
 20
0.0
 30
0.0
  3
$ARROW3$
  1

  0
LWPOLYLINE
  5
38
330
DE
100
AcDbEntity
  8
0
  6
BYBLOCK
 62
     0
100
AcDbPolyline
 90
        2
 70
     1
 43
0.5
 10
-6.35
 20
0.0
 42
1.0
 10
6.35
 20
0.0
 42
1.0
  0
ENDBLK
  5
3C
330
DE
100
AcDbEntity
  8
0
100
AcDbBlockEnd
  0
BLOCK
  5
3D
330
DF
100
AcDbEntity
  8
0
100
AcDbBlockBegin
  2
$ARROW4$
 70
     0
 71
     0
 10
0.0
 20
0.0
 30
0.0
  3
$ARROW4$
  1

  0
LINE
  5
3F
330
DF
100
AcDbEntity
  8
0
  6
BYBLOCK
 62
     0
100
AcDbLine
 10
12.7
 20
12.7
 30
0.0
 11
-12.7
 21
-12.7
 31
0.0
  0
ENDBLK
  5
40
330
DF
100
AcDbEntity
  8
0
100
AcDbBlockEnd
  0
BLOCK
  5
41
330
E0
100
AcDbEntity
  8
0
100
AcDbBlockBegin
  2
$ARROW5$
 70
     0
 71
     0
 10
0.0
 20
0.0
 30
0.0
  3
$ARROW5$
  1

  0
LINE
  5
43
330
E0
100
AcDbEntity
  8
0
  6
BYBLOCK
 62
     0
100
AcDbLine
 10
12.7
 20
12.7
 30
0.0
 11
-12.7
 21
-12.7
 31
0.0
  0
LINE
  5
44
330
E0
100
AcDbEntity
  8
0
  6
BYBLOCK
 62
     0
100
AcDbLine
 10
-12.7
 20
12.7
 30
0.0
 11
12.7
 21
-12.7
 31
0.0
  0
ENDBLK
  5
45
330
E0
100
AcDbEntity
  8
0
100
AcDbBlockEnd
  0
BLOCK
  5
46
330
E1
100
AcDbEntity
  8
0
100
AcDbBlockBegin
  2
BORDER
 70
     0
 71
     0
 10
0.0
 20
0.0
 30
0.0
  3
BORDER
  1

  0
LINE
  5
48
330
E1
100
AcDbEntity
  8
0
 62
     6
100
AcDbLine
 10
0.0
 20
0.0
 30
0.0
 11
1.0
 21
0.0
 31
0.0
  0
LINE
  5
49
330
E1
100
AcDbEntity
  8
0
 62
     6
100
AcDbLine
 10
1.0
 20
0.0
 30
0.0
 11
1.0
 21
1.0
 31
0.0
  0
LINE
  5
4A
330
E1
100
AcDbEntity
  8
0
 62
     6
100
AcDbLine
 10
1.0
 20
1.0
 30
0.0
 11
0.0
 21
1.0
 31
0.0
  0
LINE
  5
4B
330
E1
100
AcDbEntity
  8
0
 62
     6
100
AcDbLine
 10
0.0
 20
1.0
 30
0.0
 11
0.0
 21
0.0
 31
0.0
  0
ENDBLK
  5
4C
330
E1
100
AcDbEntity
  8
0
100
AcDbBlockEnd
  0
BLOCK
  5
4D
330
E2
100
AcDbEntity
  8
0
100
AcDbBlockBegin
  2
298B
 70
     0
 71
     0
 10
0.0
 20
0.0
 30
0.0
  3
298B
  1

  0
CIRCLE
  5
4F
330
E2
100
AcDbEntity
  8
0
 62
     6
100
AcDbCircle
 10
0.0
 20
0.0
 30
0.0
 40
17.5
  0
CIRCLE
  5
50
330
E2
100
AcDbEntity
  8
0
 62
     6
100
AcDbCircle
 10
0.0
 20
0.0
 30
0.0
 40
15.0
  0
CIRCLE
  5
51
330
E2
100
AcDbEntity
  8
0
 62
     6
100
AcDbCircle
 10
0.0
 20
0.0
 30
0.0
 40
6.0
  0
LINE
  5
52
330
E2
100
AcDbEntity
  8
0
 62
     6
100
AcDbLine
 10
32.5
 20
-20.0
 30
0.0
 11
18.0
 21
-20.0
 31
0.0
  0
LINE
  5
53
330
E2
100
AcDbEntity
  8
0
 62
     6
100
AcDbLine
 10
15.0
 20
-23.0
 30
0.0
 11
15.0
 21
-49.0
 31
0.0
  0
ARC
  5
54
330
E2
100
AcDbEntity
  8
0
 62
     6
100
AcDbCircle
 10
18.0
 20
-23.0
 30
0.0
 40
3.0
100
AcDbArc
 50
90.0
 51
180.0
  0
ARC
  5
55
330
E2
100
AcDbEntity
  8
0
 62
     6
100
AcDbCircle
 10
-18.0
 20
-23.0
 30
0.0
 40
3.0
100
AcDbArc
 50
0.0
 51
90.0
  0
LINE
  5
56
330
E2
100
AcDbEntity
  8
0
 62
     6
100
AcDbLine
 10
-15.0
 20
-23.0
 30
0.0
 11
-15.0
 21
-49.0
 31
0.0
  0
LINE
  5
57
330
E2
100
AcDbEntity
  8
0
 62
     6
100
AcDbLine
 10
-32.5
 20
-20.0
 30
0.0
 11
-18.0
 21
-20.0
 31
0.0
  0
ARC
  5
58
330
E2
100
AcDbEntity
  8
0
 62
     6
100
AcDbCircle
 10
-22.42749
 20
-46.0
 30
0.0
 40
3.0
100
AcDbArc
 50
195.0
 51
270.0
  0
ARC
  5
59
330
E2
100
AcDbEntity
  8
0
 62
     6
100
AcDbCircle
 10
22.42749
 20
-46.0
 30
0.0
 40
3.0
100
AcDbArc
 50
270.0
 51
345.0
  0
ARC
  5
5A
330
E2
100
AcDbEntity
  8
0
 62
     6
100
AcDbCircle
 10
22.42749
 20
46.0
 30
0.0
 40
3.0
100
AcDbArc
 50
15.0
 51
90.0
  0
ARC
  5
5B
330
E2
100
AcDbEntity
  8
0
 62
     6
100
AcDbCircle
 10
-22.42749
 20
46.0
 30
0.0
 40
3.0
100
AcDbArc
 50
90.0
 51
165.0
  0
LINE
  5
5C
330
E2
100
AcDbEntity
  8
0
 62
     6
100
AcDbLine
 10
32.5
 20
-20.0
 30
0.0
 11
25.32527
 21
-46.77646
 31
0.0
  0
LINE
  5
5D
330
E2
100
AcDbEntity
  8
0
 62
     6
100
AcDbLine
 10
-32.5
 20
-20.0
 30
0.0
 11
-25.32527
 21
-46.77646
 31
0.0
  0
LINE
  5
5E
330
E2
100
AcDbEntity
  8
0
 62
     6
100
AcDbLine
 10
32.5
 20
20.0
 30
0.0
 11
25.32527
 21
46.77646
 31
0.0
  0
LINE
  5
5F
330
E2
100
AcDbEntity
  8
0
 62
     6
100
AcDbLine
 10
-32.5
 20
20.0
 30
0.0
 11
-25.32527
 21
46.77646
 31
0.0
  0
LINE
  5
60
330
E2
100
AcDbEntity
  8
0
 62
     6
100
AcDbLine
 10
32.5
 20
20.0
 30
0.0
 11
32.5
 21
-20.0
 31
0.0
  0
LINE
  5
61
330
E2
100
AcDbEntity
  8
0
 62
     6
100
AcDbLine
 10
-32.5
 20
20.0
 30
0.0
 11
-32.5
 21
-20.0
 31
0.0
  0
LINE
  5
62
330
E2
100
AcDbEntity
  8
0
 62
     6
100
AcDbLine
 10
-22.42749
 20
-49.0
 30
0.0
 11
22.42749
 21
-49.0
 31
0.0
  0
LINE
  5
63
330
E2
100
AcDbEntity
  8
0
 62
     6
100
AcDbLine
 10
-22.42749
 20
49.0
 30
0.0
 11
22.42749
 21
49.0
 31
0.0
  0
ENDBLK
  5
64
330
E2
100
AcDbEntity
  8
0
100
AcDbBlockEnd
  0
BLOCK
  5
65
330
E3
100
AcDbEntity
  8
0
100
AcDbBlockBegin
  2
298A
 70
     0
 71
     0
 10
0.0
 20
0.0
 30
0.0
  3
298A
  1

  0
CIRCLE
  5
67
330
E3
100
AcDbEntity
  8
0
 62
     6
100
AcDbCircle
 10
86.0
 20
0.0
 30
0.0
 40
2.0
  0
LINE
  5
68
330
E3
100
AcDbEntity
  8
0
 62
     6
100
AcDbLine
 10
100.0
 20
-5.0
 30
0.0
 11
99.0
 21
-6.0
 31
0.0
  0
LINE
  5
69
330
E3
100
AcDbEntity
  8
0
 62
     6
100
AcDbLine
 10
100.0
 20
5.0
 30
0.0
 11
99.0
 21
6.0
 31
0.0
  0
LINE
  5
6A
330
E3
100
AcDbEntity
  8
0
 62
     6
100
AcDbLine
 10
100.0
 20
-5.0
 30
0.0
 11
0.0
 21
-5.0
 31
0.0
  0
LINE
  5
6B
330
E3
100
AcDbEntity
  8
0
 62
     6
100
AcDbLine
 10
100.0
 20
5.0
 30
0.0
 11
0.0
 21
5.0
 31
0.0
  0
LINE
  5
6C
330
E3
100
AcDbEntity
  8
0
 62
     6
100
AcDbLine
 10
99.0
 20
6.0
 30
0.0
 11
99.0
 21
-6.0
 31
0.0
  0
LINE
  5
6D
330
E3
100
AcDbEntity
  8
0
 62
     6
100
AcDbLine
 10
100.0
 20
5.0
 30
0.0
 11
100.0
 21
-5.0
 31
0.0
  0
LINE
  5
6E
330
E3
100
AcDbEntity
  8
0
 62
     6
100
AcDbLine
 10
-16.5
 20
-20.0
 30
0.0
 11
-16.5
 21
-46.35228
 31
0.0
  0
LINE
  5
6F
330
E3
100
AcDbEntity
  8
0
 62
     6
100
AcDbLine
 10
-3.0
 20
-20.0
 30
0.0
 11
-16.5
 21
-20.0
 31
0.0
  0
LINE
  5
70
330
E3
100
AcDbEntity
  8
0
 62
     6
100
AcDbLine
 10
99.0
 20
-6.0
 30
0.0
 11
0.0
 21
-6.0
 31
0.0
  0
LINE
  5
71
330
E3
100
AcDbEntity
  8
0
 62
     6
100
AcDbLine
 10
99.0
 20
6.0
 30
0.0
 11
0.0
 21
6.0
 31
0.0
  0
LINE
  5
72
330
E3
100
AcDbEntity
  8
0
 62
     6
100
AcDbLine
 10
0.0
 20
-15.0
 30
0.0
 11
0.0
 21
15.0
 31
0.0
  0
LINE
  5
73
330
E3
100
AcDbEntity
  8
0
 62
     6
100
AcDbLine
 10
-22.5
 20
-6.5
 30
0.0
 11
-22.5
 21
43.5
 31
0.0
  0
ARC
  5
74
330
E3
100
AcDbEntity
  8
0
 62
     6
100
AcDbCircle
 10
-8.5
 20
-8.0
 30
0.0
 40
1.5
100
AcDbArc
 50
270.0
 51
90.0
  0
LINE
  5
75
330
E3
100
AcDbEntity
  8
0
 62
     6
100
AcDbLine
 10
-8.5
 20
-9.5
 30
0.0
 11
-22.5
 21
-9.5
 31
0.0
  0
LINE
  5
76
330
E3
100
AcDbEntity
  8
0
 62
     6
100
AcDbLine
 10
-22.5
 20
-6.5
 30
0.0
 11
-8.5
 21
-6.5
 31
0.0
  0
LINE
  5
77
330
E3
100
AcDbEntity
  8
0
 62
     6
100
AcDbLine
 10
-34.0
 20
-43.90891
 30
0.0
 11
-34.0
 21
-37.31495
 31
0.0
  0
LINE
  5
78
330
E3
100
AcDbEntity
  8
0
 62
     6
100
AcDbLine
 10
-28.66248
 20
-41.12747
 30
0.0
 11
-28.66248
 21
-43.5
 31
0.0
  0
LINE
  5
79
330
E3
100
AcDbEntity
  8
0
 62
     6
100
AcDbLine
 10
-34.0
 20
-37.31495
 30
0.0
 11
-28.66248
 21
-41.12747
 31
0.0
  0
LINE
  5
7A
330
E3
100
AcDbEntity
  8
0
 62
     6
100
AcDbLine
 10
-22.5
 20
-43.5
 30
0.0
 11
-28.66248
 21
-43.5
 31
0.0
  0
LINE
  5
7B
330
E3
100
AcDbEntity
  8
0
 62
     6
100
AcDbLine
 10
-1.5
 20
-15.0
 30
0.0
 11
0.0
 21
-15.0
 31
0.0
  0
LINE
  5
7C
330
E3
100
AcDbEntity
  8
0
 62
     6
100
AcDbLine
 10
-1.5
 20
-17.5
 30
0.0
 11
-3.0
 21
-17.5
 31
0.0
  0
LINE
  5
7D
330
E3
100
AcDbEntity
  8
0
 62
     6
100
AcDbLine
 10
-3.0
 20
-17.5
 30
0.0
 11
-3.0
 21
-20.0
 31
0.0
  0
LINE
  5
7E
330
E3
100
AcDbEntity
  8
0
 62
     6
100
AcDbLine
 10
-3.0
 20
-20.0
 30
0.0
 11
-14.44532
 21
-43.70817
 31
0.0
  0
LINE
  5
7F
330
E3
100
AcDbEntity
  8
0
 62
     6
100
AcDbLine
 10
-22.81369
 20
-48.14505
 30
0.0
 11
-31.43648
 21
-46.87699
 31
0.0
  0
LINE
  5
80
330
E3
100
AcDbEntity
  8
0
 62
     6
100
AcDbLine
 10
-1.5
 20
-17.5
 30
0.0
 11
-1.5
 21
-15.0
 31
0.0
  0
ARC
  5
81
330
E3
100
AcDbEntity
  8
0
 62
     6
100
AcDbCircle
 10
-21.64973
 20
-40.23017
 30
0.0
 40
8.0
100
AcDbArc
 50
261.634109
 51
334.230667
  0
ARC
  5
82
330
E3
100
AcDbEntity
  8
0
 62
     6
100
AcDbCircle
 10
-31.0
 20
-43.90891
 30
0.0
 40
3.0
100
AcDbArc
 50
180.0
 51
261.634109
  0
ARC
  5
83
330
E3
100
AcDbEntity
  8
0
 62
     6
100
AcDbCircle
 10
-31.0
 20
43.90891
 30
0.0
 40
3.0
100
AcDbArc
 50
98.36589100000002
 51
180.0
  0
ARC
  5
84
330
E3
100
AcDbEntity
  8
0
 62
     6
100
AcDbCircle
 10
-21.64973
 20
40.23017
 30
0.0
 40
8.0
100
AcDbArc
 50
25.769333
 51
98.36589100000002
  0
LINE
  5
85
330
E3
100
AcDbEntity
  8
0
 62
     6
100
AcDbLine
 10
-1.5
 20
17.5
 30
0.0
 11
-1.5
 21
15.0
 31
0.0
  0
LINE
  5
86
330
E3
100
AcDbEntity
  8
0
 62
     6
100
AcDbLine
 10
-22.81369
 20
48.14505
 30
0.0
 11
-31.43648
 21
46.87699
 31
0.0
  0
LINE
  5
87
330
E3
100
AcDbEntity
  8
0
 62
     6
100
AcDbLine
 10
-3.0
 20
20.0
 30
0.0
 11
-14.44532
 21
43.70817
 31
0.0
  0
LINE
  5
88
330
E3
100
AcDbEntity
  8
0
 62
     6
100
AcDbLine
 10
-3.0
 20
17.5
 30
0.0
 11
-3.0
 21
20.0
 31
0.0
  0
LINE
  5
89
330
E3
100
AcDbEntity
  8
0
 62
     6
100
AcDbLine
 10
-1.5
 20
17.5
 30
0.0
 11
-3.0
 21
17.5
 31
0.0
  0
LINE
  5
8A
330
E3
100
AcDbEntity
  8
0
 62
     6
100
AcDbLine
 10
-1.5
 20
15.0
 30
0.0
 11
0.0
 21
15.0
 31
0.0
  0
LINE
  5
8B
330
E3
100
AcDbEntity
  8
0
 62
     6
100
AcDbLine
 10
-22.5
 20
43.5
 30
0.0
 11
-28.66248
 21
43.5
 31
0.0
  0
LINE
  5
8C
330
E3
100
AcDbEntity
  8
0
 62
     6
100
AcDbLine
 10
-34.0
 20
37.31495
 30
0.0
 11
-28.66248
 21
41.12747
 31
0.0
  0
LINE
  5
8D
330
E3
100
AcDbEntity
  8
0
 62
     6
100
AcDbLine
 10
-28.66248
 20
41.12747
 30
0.0
 11
-28.66248
 21
43.5
 31
0.0
  0
LINE
  5
8E
330
E3
100
AcDbEntity
  8
0
 62
     6
100
AcDbLine
 10
-34.0
 20
43.90891
 30
0.0
 11
-34.0
 21
37.31495
 31
0.0
  0
LINE
  5
8F
330
E3
100
AcDbEntity
  8
0
 62
     6
100
AcDbLine
 10
-22.5
 20
-43.5
 30
0.0
 11
-22.5
 21
-9.5
 31
0.0
  0
ENDBLK
  5
90
330
E3
100
AcDbEntity
  8
0
100
AcDbBlockEnd
  0
BLOCK
  5
91
330
E4
100
AcDbEntity
  8
0
100
AcDbBlockBegin
  2
298C
 70
     0
 71
     0
 10
0.0
 20
0.0
 30
0.0
  3
298C
  1

  0
LINE
  5
93
330
E4
100
AcDbEntity
  8
0
 62
     6
100
AcDbLine
 10
-15.0
 20
-1.5
 30
0.0
 11
15.0
 21
-1.5
 31
0.0
  0
LINE
  5
94
330
E4
100
AcDbEntity
  8
0
 62
     6
100
AcDbLine
 10
-32.5
 20
0.0
 30
0.0
 11
32.5
 21
0.0
 31
0.0
  0
LINE
  5
95
330
E4
100
AcDbEntity
  8
0
 62
     6
100
AcDbLine
 10
22.42749
 20
31.0
 30
0.0
 11
22.42749
 21
0.0
 31
0.0
  0
LINE
  5
96
330
E4
100
AcDbEntity
  8
0
 62
     6
100
AcDbLine
 10
-22.42749
 20
31.0
 30
0.0
 11
-22.42749
 21
0.0
 31
0.0
  0
LINE
  5
97
330
E4
100
AcDbEntity
  8
0
 62
     6
100
AcDbLine
 10
15.0
 20
-1.5
 30
0.0
 11
15.0
 21
-3.0
 31
0.0
  0
LINE
  5
98
330
E4
100
AcDbEntity
  8
0
 62
     6
100
AcDbLine
 10
17.5
 20
-1.5
 30
0.0
 11
17.5
 21
0.0
 31
0.0
  0
LINE
  5
99
330
E4
100
AcDbEntity
  8
0
 62
     6
100
AcDbLine
 10
17.5
 20
-1.5
 30
0.0
 11
15.0
 21
-1.5
 31
0.0
  0
LINE
  5
9A
330
E4
100
AcDbEntity
  8
0
 62
     6
100
AcDbLine
 10
-17.5
 20
-1.5
 30
0.0
 11
-15.0
 21
-1.5
 31
0.0
  0
LINE
  5
9B
330
E4
100
AcDbEntity
  8
0
 62
     6
100
AcDbLine
 10
-17.5
 20
-1.5
 30
0.0
 11
-17.5
 21
0.0
 31
0.0
  0
LINE
  5
9C
330
E4
100
AcDbEntity
  8
0
 62
     6
100
AcDbLine
 10
-15.0
 20
-1.5
 30
0.0
 11
-15.0
 21
-3.0
 31
0.0
  0
LINE
  5
9D
330
E4
100
AcDbEntity
  8
0
 62
     6
100
AcDbLine
 10
-15.0
 20
-3.0
 30
0.0
 11
15.0
 21
-3.0
 31
0.0
  0
LINE
  5
9E
330
E4
100
AcDbEntity
  8
0
 62
     6
100
AcDbLine
 10
6.0
 20
-102.0
 30
0.0
 11
6.0
 21
-3.0
 31
0.0
  0
LINE
  5
9F
330
E4
100
AcDbEntity
  8
0
 62
     6
100
AcDbLine
 10
-6.0
 20
-102.0
 30
0.0
 11
-6.0
 21
-3.0
 31
0.0
  0
LINE
  5
A0
330
E4
100
AcDbEntity
  8
0
 62
     6
100
AcDbLine
 10
5.0
 20
-103.0
 30
0.0
 11
-5.0
 21
-103.0
 31
0.0
  0
LINE
  5
A1
330
E4
100
AcDbEntity
  8
0
 62
     6
100
AcDbLine
 10
6.0
 20
-102.0
 30
0.0
 11
-6.0
 21
-102.0
 31
0.0
  0
LINE
  5
A2
330
E4
100
AcDbEntity
  8
0
 62
     6
100
AcDbLine
 10
5.0
 20
-103.0
 30
0.0
 11
5.0
 21
-3.0
 31
0.0
  0
LINE
  5
A3
330
E4
100
AcDbEntity
  8
0
 62
     6
100
AcDbLine
 10
-5.0
 20
-103.0
 30
0.0
 11
-5.0
 21
-3.0
 31
0.0
  0
LINE
  5
A4
330
E4
100
AcDbEntity
  8
0
 62
     6
100
AcDbLine
 10
5.0
 20
-103.0
 30
0.0
 11
6.0
 21
-102.0
 31
0.0
  0
LINE
  5
A5
330
E4
100
AcDbEntity
  8
0
 62
     6
100
AcDbLine
 10
-5.0
 20
-103.0
 30
0.0
 11
-6.0
 21
-102.0
 31
0.0
  0
CIRCLE
  5
A6
330
E4
100
AcDbEntity
  8
0
 62
     6
100
AcDbCircle
 10
0.0
 20
-89.0
 30
0.0
 40
2.0
  0
LINE
  5
A7
330
E4
100
AcDbEntity
  8
0
 62
     6
100
AcDbLine
 10
-32.5
 20
31.0
 30
0.0
 11
32.5
 21
31.0
 31
0.0
  0
LINE
  5
A8
330
E4
100
AcDbEntity
  8
0
 62
     6
100
AcDbLine
 10
32.5
 20
31.0
 30
0.0
 11
32.5
 21
0.0
 31
0.0
  0
LINE
  5
A9
330
E4
100
AcDbEntity
  8
0
 62
     6
100
AcDbLine
 10
-32.5
 20
31.0
 30
0.0
 11
-32.5
 21
0.0
 31
0.0
  0
ENDBLK
  5
AA
330
E4
100
AcDbEntity
  8
0
100
AcDbBlockEnd
  0
ENDSEC
  0
SECTION
  2
ENTITIES
  0
INSERT
  5
AB
330
D7
100
AcDbEntity
  8
0
100
AcDbBlockReference
  2
298B
 10
-93.75
 20
82.0
 30
0.0
  0
INSERT
  5
AC
330
D7
100
AcDbEntity
  8
0
100
AcDbBlockReference
  2
298A
 10
26.25
 20
82.0
 30
0.0
  0
INSERT
  5
AD
330
D7
100
AcDbEntity
  8
0
100
AcDbBlockReference
  2
298C
 10
-93.75
 20
-28.0
 30
0.0
  0
ENDSEC
  0
SECTION
  2
OBJECTS
  0
DICTIONARY
  5
CC
330
0
100
AcDbDictionary
  3
ACAD_GROUP
350
CD
  3
ACAD_LAYOUT
350
FC
  3
ACAD_MLINESTYLE
350
DA
  3
ACDBHEADERROUNDTRIPXREC
350
FF
  3
ACDBVARIABLEDICTIONARY
350
F7
  0
DICTIONARY
  5
11E
330
FB
100
AcDbDictionary
280
     1
  3
ACAD_XREC_ROUNDTRIP
360
11F
  0
DICTIONARY
  5
CD
102
{ACAD_REACTORS
330
CC
102
}
330
CC
100
AcDbDictionary
  0
DICTIONARY
  5
FC
102
{ACAD_REACTORS
330
CC
102
}
330
CC
100
AcDbDictionary
  0
DICTIONARY
  5
DA
102
{ACAD_REACTORS
330
CC
102
}
330
CC
100
AcDbDictionary
  3
STANDARD
350
DB
  0
DICTIONARY
  5
FF
102
{ACAD_REACTORS
330
CC
102
}
330
CC
100
AcDbDictionary
  3
CEPSNTYPE
350
107
  3
DIMSTYLEDATA
350
11D
  3
FINGERPRINTGUID
350
108
  3
HYPERLINKBASE
350
102
  3
INSUNITS
350
106
  3
LAYOUTDICT
350
104
  3
LWETCUNION
350
105
  3
PSVPSCALE
350
10A
  3
PUCSBASE
350
10D
  3
PUCSORGBACK
350
113
  3
PUCSORGBOTTOM
350
10F
  3
PUCSORGFRONT
350
112
  3
PUCSORGLEFT
350
110
  3
PUCSORGRIGHT
350
111
  3
PUCSORGTOP
350
10E
  3
PUCSORTHOREF
350
10B
  3
PUCSORTHOVIEW
350
10C
  3
STYLESHEET
350
103
  3
TSTACKALIGN
350
100
  3
TSTACKSIZE
350
101
  3
UCSBASE
350
116
  3
UCSORGBACK
350
11C
  3
UCSORGBOTTOM
350
118
  3
UCSORGFRONT
350
11B
  3
UCSORGLEFT
350
119
  3
UCSORGRIGHT
350
11A
  3
UCSORGTOP
350
117
  3
UCSORTHOREF
350
114
  3
UCSORTHOVIEW
350
115
  3
VERSIONGUID
350
109
  0
DICTIONARY
  5
F7
102
{ACAD_REACTORS
330
CC
102
}
330
CC
100
AcDbDictionary
  3
DIMADEC
350
F8
  0
XRECORD
  5
11F
102
{ACAD_REACTORS
330
11E
102
}
330
11E
100
AcDbXrecord
102
UCS
 74
     0
 71
     1
 10
0.0
 20
0.0
 30
0.0
 10
1.0
 20
0.0
 30
0.0
 10
0.0
 20
1.0
 30
0.0
146
0.0
 79
     0
102
VIEW
281
     0
  0
MLINESTYLE
  5
DB
102
{ACAD_REACTORS
330
DA
102
}
330
DA
100
AcDbMlineStyle
  2
STANDARD
 70
     0
  3

 62
   256
 51
90.0
 52
90.0
 71
     2
 49
0.5
 62
   256
  6
BYLAYER
 49
-0.5
 62
   256
  6
BYLAYER
  0
XRECORD
  5
107
102
{ACAD_REACTORS
330
FF
102
}
330
FF
100
AcDbXrecord
 90
        0
  0
XRECORD
  5
11D
102
{ACAD_REACTORS
330
FF
102
}
330
FF
100
AcDbXrecord
1000
DSTYLE
1002
{
1070
   279
 70
     2
1070
   340
340
CF
1002
}
  0
XRECORD
  5
108
102
{ACAD_REACTORS
330
FF
102
}
330
FF
100
AcDbXrecord
  1
{FAEB1C30-E019-11D5-929B-00C0DF256EC4}
  0
XRECORD
  5
102
102
{ACAD_REACTORS
330
FF
102
}
330
FF
100
AcDbXrecord
  1

  0
XRECORD
  5
106
102
{ACAD_REACTORS
330
FF
102
}
330
FF
100
AcDbXrecord
 90
        0
  0
XRECORD
  5
104
102
{ACAD_REACTORS
330
FF
102
}
330
FF
100
AcDbXrecord
340
FC
  0
XRECORD
  5
105
102
{ACAD_REACTORS
330
FF
102
}
330
FF
100
AcDbXrecord
 90
    10781
  0
XRECORD
  5
10A
102
{ACAD_REACTORS
330
FF
102
}
330
FF
100
AcDbXrecord
 40
0.0
  0
XRECORD
  5
10D
102
{ACAD_REACTORS
330
FF
102
}
330
FF
100
AcDbXrecord
340
0
  0
XRECORD
  5
113
102
{ACAD_REACTORS
330
FF
102
}
330
FF
100
AcDbXrecord
 10
0.0
 20
0.0
 30
0.0
  0
XRECORD
  5
10F
102
{ACAD_REACTORS
330
FF
102
}
330
FF
100
AcDbXrecord
 10
0.0
 20
0.0
 30
0.0
  0
XRECORD
  5
112
102
{ACAD_REACTORS
330
FF
102
}
330
FF
100
AcDbXrecord
 10
0.0
 20
0.0
 30
0.0
  0
XRECORD
  5
110
102
{ACAD_REACTORS
330
FF
102
}
330
FF
100
AcDbXrecord
 10
0.0
 20
0.0
 30
0.0
  0
XRECORD
  5
111
102
{ACAD_REACTORS
330
FF
102
}
330
FF
100
AcDbXrecord
 10
0.0
 20
0.0
 30
0.0
  0
XRECORD
  5
10E
102
{ACAD_REACTORS
330
FF
102
}
330
FF
100
AcDbXrecord
 10
0.0
 20
0.0
 30
0.0
  0
XRECORD
  5
10B
102
{ACAD_REACTORS
330
FF
102
}
330
FF
100
AcDbXrecord
340
0
  0
XRECORD
  5
10C
102
{ACAD_REACTORS
330
FF
102
}
330
FF
100
AcDbXrecord
 70
     0
  0
XRECORD
  5
103
102
{ACAD_REACTORS
330
FF
102
}
330
FF
100
AcDbXrecord
  1

  0
XRECORD
  5
100
102
{ACAD_REACTORS
330
FF
102
}
330
FF
100
AcDbXrecord
 90
        1
  0
XRECORD
  5
101
102
{ACAD_REACTORS
330
FF
102
}
330
FF
100
AcDbXrecord
 90
       70
  0
XRECORD
  5
116
102
{ACAD_REACTORS
330
FF
102
}
330
FF
100
AcDbXrecord
340
0
  0
XRECORD
  5
11C
102
{ACAD_REACTORS
330
FF
102
}
330
FF
100
AcDbXrecord
 10
0.0
 20
0.0
 30
0.0
  0
XRECORD
  5
118
102
{ACAD_REACTORS
330
FF
102
}
330
FF
100
AcDbXrecord
 10
0.0
 20
0.0
 30
0.0
  0
XRECORD
  5
11B
102
{ACAD_REACTORS
330
FF
102
}
330
FF
100
AcDbXrecord
 10
0.0
 20
0.0
 30
0.0
  0
XRECORD
  5
119
102
{ACAD_REACTORS
330
FF
102
}
330
FF
100
AcDbXrecord
 10
0.0
 20
0.0
 30
0.0
  0
XRECORD
  5
11A
102
{ACAD_REACTORS
330
FF
102
}
330
FF
100
AcDbXrecord
 10
0.0
 20
0.0
 30
0.0
  0
XRECORD
  5
117
102
{ACAD_REACTORS
330
FF
102
}
330
FF
100
AcDbXrecord
 10
0.0
 20
0.0
 30
0.0
  0
XRECORD
  5
114
102
{ACAD_REACTORS
330
FF
102
}
330
FF
100
AcDbXrecord
340
0
  0
XRECORD
  5
115
102
{ACAD_REACTORS
330
FF
102
}
330
FF
100
AcDbXrecord
 70
     0
  0
XRECORD
  5
109
102
{ACAD_REACTORS
330
FF
102
}
330
FF
100
AcDbXrecord
  1
{FAEB1C32-E019-11D5-929B-00C0DF256EC4}
  0
DICTIONARYVAR
  5
F8
102
{ACAD_REACTORS
330
F7
102
}
330
F7
100
DictionaryVariables
280
     0
  1
0
  0
ENDSEC
  0
EOF
