  0
SECTION
  2
HEADER
  9
$ACADVER
  1
AC1012
  9
$DWGCODEPAGE
  3
ansi_1252
  9
$INSBASE
 10
0.0
 20
0.0
 30
0.0
  9
$EXTMIN
 10
-26.500045
 20
-128.446422
 30
0.0
  9
$EXTMAX
 10
111.75
 20
177.053578
 30
0.0
  9
$LIMMIN
 10
0.0
 20
0.0
  9
$LIMMAX
 10
297.0
 20
210.0
  9
$ORTHOMODE
 70
     1
  9
$REGENMODE
 70
     1
  9
$FILLMODE
 70
     1
  9
$QTEXTMODE
 70
     0
  9
$MIRRTEXT
 70
     1
  9
$DRAGMODE
 70
     2
  9
$LTSCALE
 40
10.0
  9
$OSMODE
 70
    37
  9
$ATTMODE
 70
     1
  9
$TEXTSIZE
 40
0.2
  9
$TRACEWID
 40
0.05
  9
$TEXTSTYLE
  7
STANDARD
  9
$CLAYER
  8
0
  9
$CELTYPE
  6
BYLAYER
  9
$CECOLOR
 62
   256
  9
$CELTSCALE
 40
1.0
  9
$DELOBJ
 70
     1
  9
$DISPSILH
 70
     0
  9
$DIMSCALE
 40
1.0
  9
$DIMASZ
 40
0.18
  9
$DIMEXO
 40
0.0625
  9
$DIMDLI
 40
0.38
  9
$DIMRND
 40
0.0
  9
$DIMDLE
 40
0.0
  9
$DIMEXE
 40
0.18
  9
$DIMTP
 40
0.0
  9
$DIMTM
 40
0.0
  9
$DIMTXT
 40
0.18
  9
$DIMCEN
 40
0.09
  9
$DIMTSZ
 40
0.0
  9
$DIMTOL
 70
     0
  9
$DIMLIM
 70
     0
  9
$DIMTIH
 70
     1
  9
$DIMTOH
 70
     1
  9
$DIMSE1
 70
     0
  9
$DIMSE2
 70
     0
  9
$DIMTAD
 70
     0
  9
$DIMZIN
 70
     0
  9
$DIMBLK
  1

  9
$DIMASO
 70
     1
  9
$DIMSHO
 70
     0
  9
$DIMPOST
  1

  9
$DIMAPOST
  1

  9
$DIMALT
 70
     0
  9
$DIMALTD
 70
     2
  9
$DIMALTF
 40
25.4
  9
$DIMLFAC
 40
1.0
  9
$DIMTOFL
 70
     0
  9
$DIMTVP
 40
0.0
  9
$DIMTIX
 70
     0
  9
$DIMSOXD
 70
     0
  9
$DIMSAH
 70
     0
  9
$DIMBLK1
  1

  9
$DIMBLK2
  1

  9
$DIMSTYLE
  2
STANDARD
  9
$DIMCLRD
 70
     0
  9
$DIMCLRE
 70
     0
  9
$DIMCLRT
 70
     0
  9
$DIMTFAC
 40
1.0
  9
$DIMGAP
 40
0.09
  9
$DIMJUST
 70
     0
  9
$DIMSD1
 70
     0
  9
$DIMSD2
 70
     0
  9
$DIMTOLJ
 70
     1
  9
$DIMTZIN
 70
     0
  9
$DIMALTZ
 70
     0
  9
$DIMALTTZ
 70
     0
  9
$DIMFIT
 70
     3
  9
$DIMUPT
 70
     0
  9
$DIMUNIT
 70
     2
  9
$DIMDEC
 70
     4
  9
$DIMTDEC
 70
     4
  9
$DIMALTU
 70
     2
  9
$DIMALTTD
 70
     2
  9
$DIMTXSTY
  7
STANDARD
  9
$DIMAUNIT
 70
     0
  9
$LUNITS
 70
     2
  9
$LUPREC
 70
     4
  9
$SKETCHINC
 40
0.1
  9
$FILLETRAD
 40
0.0
  9
$AUNITS
 70
     0
  9
$AUPREC
 70
     0
  9
$MENU
  1
c:\sitoplas\menu\CCing
  9
$ELEVATION
 40
0.0
  9
$PELEVATION
 40
0.0
  9
$THICKNESS
 40
0.0
  9
$LIMCHECK
 70
     0
  9
$CHAMFERA
 40
0.0
  9
$CHAMFERB
 40
0.0
  9
$CHAMFERC
 40
0.0
  9
$CHAMFERD
 40
0.0
  9
$SKPOLY
 70
     0
  9
$TDCREATE
 40
2447893.083333334
  9
$TDUPDATE
 40
2447893.083333334
  9
$TDINDWG
 40
0.0053152778
  9
$TDUSRTIMER
 40
0.0053152778
  9
$USRTIMER
 70
     1
  9
$ANGBASE
 50
0.0
  9
$ANGDIR
 70
     0
  9
$PDMODE
 70
     0
  9
$PDSIZE
 40
0.0
  9
$PLINEWID
 40
0.0
  9
$COORDS
 70
     1
  9
$SPLFRAME
 70
     0
  9
$SPLINETYPE
 70
     6
  9
$SPLINESEGS
 70
     8
  9
$ATTDIA
 70
     0
  9
$ATTREQ
 70
     1
  9
$HANDLING
 70
     1
  9
$HANDSEED
  5
11C
  9
$SURFTAB1
 70
     6
  9
$SURFTAB2
 70
     6
  9
$SURFTYPE
 70
     6
  9
$SURFU
 70
     6
  9
$SURFV
 70
     6
  9
$UCSNAME
  2

  9
$UCSORG
 10
0.0
 20
0.0
 30
0.0
  9
$UCSXDIR
 10
1.0
 20
0.0
 30
0.0
  9
$UCSYDIR
 10
0.0
 20
1.0
 30
0.0
  9
$PUCSNAME
  2

  9
$PUCSORG
 10
0.0
 20
0.0
 30
0.0
  9
$PUCSXDIR
 10
1.0
 20
0.0
 30
0.0
  9
$PUCSYDIR
 10
0.0
 20
1.0
 30
0.0
  9
$USERI1
 70
     0
  9
$USERI2
 70
     0
  9
$USERI3
 70
     0
  9
$USERI4
 70
     0
  9
$USERI5
 70
     0
  9
$USERR1
 40
0.0
  9
$USERR2
 40
0.0
  9
$USERR3
 40
0.0
  9
$USERR4
 40
0.0
  9
$USERR5
 40
0.0
  9
$WORLDVIEW
 70
     1
  9
$SHADEDGE
 70
     3
  9
$SHADEDIF
 70
    70
  9
$TILEMODE
 70
     1
  9
$MAXACTVP
 70
    16
  9
$PINSBASE
 10
0.0
 20
0.0
 30
0.0
  9
$PLIMCHECK
 70
     0
  9
$PEXTMIN
 10
1.000000000000000E+20
 20
1.000000000000000E+20
 30
1.000000000000000E+20
  9
$PEXTMAX
 10
-1.000000000000000E+20
 20
-1.000000000000000E+20
 30
-1.000000000000000E+20
  9
$PLIMMIN
 10
0.0
 20
0.0
  9
$PLIMMAX
 10
12.0
 20
9.0
  9
$UNITMODE
 70
     0
  9
$VISRETAIN
 70
     0
  9
$PLINEGEN
 70
     0
  9
$PSLTSCALE
 70
     0
  9
$TREEDEPTH
 70
  3020
  9
$PICKSTYLE
 70
     1
  9
$CMLSTYLE
  2
STANDARD
  9
$CMLJUST
 70
     0
  9
$CMLSCALE
 40
1.0
  9
$SAVEIMAGES
 70
     1
  0
ENDSEC
  0
SECTION
  2
CLASSES
  0
CLASS
  1
XRECORD
  2
AcDbXrecord
  3
AutoCAD 2000
 90
    32768
280
     0
281
     0
  0
CLASS
  1
LWPOLYLINE
  2
AcDbPolyline
  3
AutoCAD 2000
 90
    32768
280
     0
281
     1
  0
CLASS
  1
HATCH
  2
AcDbHatch
  3
AutoCAD 2000
 90
    32768
280
     0
281
     1
  0
CLASS
  1
ACDBPLACEHOLDER
  2
AcDbPlaceHolder
  3
ObjectDBX Classes
 90
        0
280
     0
281
     0
  0
CLASS
  1
LAYOUT
  2
AcDbLayout
  3
ObjectDBX Classes
 90
        0
280
     0
281
     0
  0
ENDSEC
  0
SECTION
  2
TABLES
  0
TABLE
  2
VPORT
  5
8
330
0
100
AcDbSymbolTable
 70
     1
  0
VPORT
  5
EF
102
{ACAD_XDICTIONARY
360
11A
102
}
330
8
100
AcDbSymbolTableRecord
100
AcDbViewportTableRecord
  2
*ACTIVE
 70
     0
 10
0.0
 20
0.0
 11
1.0
 21
1.0
 12
297.622366
 22
40.776789
 13
0.0
 23
0.0
 14
0.5
 24
0.5
 15
0.0
 25
0.0
 16
0.0
 26
0.0
 36
1.0
 17
0.0
 27
0.0
 37
0.0
 40
338.446422
 41
1.915354
 42
50.0
 43
0.0
 44
0.0
 50
0.0
 51
0.0
 71
     0
 72
   100
 73
     1
 74
     3
 75
     1
 76
     0
 77
     0
 78
     0
  0
ENDTAB
  0
TABLE
  2
LTYPE
  5
5
330
0
100
AcDbSymbolTable
 70
     1
  0
LTYPE
  5
12
330
5
100
AcDbSymbolTableRecord
100
AcDbLinetypeTableRecord
  2
BYBLOCK
 70
     0
  3

 72
    65
 73
     0
 40
0.0
  0
LTYPE
  5
13
330
5
100
AcDbSymbolTableRecord
100
AcDbLinetypeTableRecord
  2
BYLAYER
 70
     0
  3

 72
    65
 73
     0
 40
0.0
  0
LTYPE
  5
14
330
5
100
AcDbSymbolTableRecord
100
AcDbLinetypeTableRecord
  2
CONTINUOUS
 70
     0
  3
Solid line
 72
    65
 73
     0
 40
0.0
  0
ENDTAB
  0
TABLE
  2
LAYER
  5
2
330
0
100
AcDbSymbolTable
 70
     2
  0
LAYER
  5
F
330
2
100
AcDbSymbolTableRecord
100
AcDbLayerTableRecord
  2
0
 70
     0
 62
     7
  6
CONTINUOUS
  0
LAYER
  5
35
330
2
100
AcDbSymbolTableRecord
100
AcDbLayerTableRecord
  2
DRIP
 70
     0
 62
     5
  6
CONTINUOUS
  0
ENDTAB
  0
TABLE
  2
STYLE
  5
3
330
0
100
AcDbSymbolTable
 70
     1
  0
STYLE
  5
10
330
3
100
AcDbSymbolTableRecord
100
AcDbTextStyleTableRecord
  2
STANDARD
 70
     0
 40
0.0
 41
1.0
 50
0.0
 71
     0
 42
0.2
  3
txt
  4

  0
ENDTAB
  0
TABLE
  2
VIEW
  5
6
330
0
100
AcDbSymbolTable
 70
     0
  0
ENDTAB
  0
TABLE
  2
UCS
  5
7
330
0
100
AcDbSymbolTable
 70
     0
  0
ENDTAB
  0
TABLE
  2
APPID
  5
9
330
0
100
AcDbSymbolTable
 70
     1
  0
APPID
  5
11
330
9
100
AcDbSymbolTableRecord
100
AcDbRegAppTableRecord
  2
ACAD
 70
     0
  0
ENDTAB
  0
TABLE
  2
DIMSTYLE
  5
A
330
0
100
AcDbSymbolTable
 70
     1
  0
DIMSTYLE
105
2D
330
A
100
AcDbSymbolTableRecord
100
AcDbDimStyleTableRecord
  2
STANDARD
 70
     0
  3

  4

  5

  6

  7

 40
1.0
 41
0.18
 42
0.0625
 43
0.38
 44
0.18
 45
0.0
 46
0.0
 47
0.0
 48
0.0
140
0.18
141
0.09
142
0.0
143
25.4
144
1.0
145
0.0
146
1.0
147
0.09
 71
     0
 72
     0
 73
     1
 74
     1
 75
     0
 76
     0
 77
     0
 78
     0
170
     0
171
     2
172
     0
173
     0
174
     0
175
     0
176
     0
177
     0
178
     0
270
     2
271
     4
272
     4
273
     2
274
     2
340
10
275
     0
280
     0
281
     0
282
     0
283
     1
284
     0
285
     0
286
     0
287
     3
288
     0
  0
ENDTAB
  0
TABLE
  2
BLOCK_RECORD
  5
1
330
0
100
AcDbSymbolTable
 70
     0
  0
BLOCK_RECORD
  5
18
330
1
100
AcDbSymbolTableRecord
100
AcDbBlockTableRecord
  2
*MODEL_SPACE
  0
BLOCK_RECORD
  5
15
330
1
100
AcDbSymbolTableRecord
100
AcDbBlockTableRecord
  2
*PAPER_SPACE
  0
ENDTAB
  0
ENDSEC
  0
SECTION
  2
BLOCKS
  0
BLOCK
  5
24
330
18
100
AcDbEntity
  8
0
100
AcDbBlockBegin
  2
*MODEL_SPACE
 70
     0
 71
     0
 10
0.0
 20
0.0
 30
0.0
  3
*MODEL_SPACE
  1

  0
ENDBLK
  5
25
330
18
100
AcDbEntity
  8
0
100
AcDbBlockEnd
  0
BLOCK
  5
22
330
15
100
AcDbEntity
 67
     1
  8
0
100
AcDbBlockBegin
  2
*PAPER_SPACE
 70
     0
 71
     0
 10
0.0
 20
0.0
 30
0.0
  3
*PAPER_SPACE
  1

  0
ENDBLK
  5
23
330
15
100
AcDbEntity
 67
     1
  8
0
100
AcDbBlockEnd
  0
ENDSEC
  0
SECTION
  2
ENTITIES
  0
LINE
  5
9C
330
18
100
AcDbEntity
  8
DRIP
100
AcDbLine
 10
80.25
 20
-24.446422
 30
0.0
 11
111.75
 21
-24.446422
 31
0.0
  0
LINE
  5
9D
330
18
100
AcDbEntity
  8
DRIP
100
AcDbLine
 10
80.25
 20
-18.446422
 30
0.0
 11
111.75
 21
-18.446422
 31
0.0
  0
LINE
  5
9E
330
18
100
AcDbEntity
  8
DRIP
100
AcDbLine
 10
80.25
 20
3.492729
 30
0.0
 11
111.75
 21
3.492729
 31
0.0
  0
LINE
  5
9F
330
18
100
AcDbEntity
  8
DRIP
100
AcDbLine
 10
109.75
 20
7.553578
 30
0.0
 11
109.75
 21
177.053578
 31
0.0
  0
LINE
  5
A0
330
18
100
AcDbEntity
  8
DRIP
100
AcDbLine
 10
105.75
 20
7.553578
 30
0.0
 11
105.75
 21
177.053578
 31
0.0
  0
LINE
  5
A1
330
18
100
AcDbEntity
  8
DRIP
100
AcDbLine
 10
82.25
 20
7.553578
 30
0.0
 11
82.25
 21
177.053578
 31
0.0
  0
LINE
  5
A2
330
18
100
AcDbEntity
  8
DRIP
100
AcDbLine
 10
86.25
 20
7.553578
 30
0.0
 11
86.25
 21
177.053578
 31
0.0
  0
LINE
  5
A3
330
18
100
AcDbEntity
  8
DRIP
100
AcDbLine
 10
80.25
 20
-27.446422
 30
0.0
 11
80.25
 21
7.553578
 31
0.0
  0
LINE
  5
A4
330
18
100
AcDbEntity
  8
DRIP
100
AcDbLine
 10
111.75
 20
-27.446422
 30
0.0
 11
111.75
 21
7.553578
 31
0.0
  0
LINE
  5
A5
330
18
100
AcDbEntity
  8
DRIP
100
AcDbLine
 10
80.25
 20
7.553578
 30
0.0
 11
111.75
 21
7.553578
 31
0.0
  0
LINE
  5
A6
330
18
100
AcDbEntity
  8
DRIP
100
AcDbLine
 10
80.25
 20
-27.446422
 30
0.0
 11
111.75
 21
-27.446422
 31
0.0
  0
ARC
  5
A7
330
18
100
AcDbEntity
  8
DRIP
100
AcDbCircle
 10
107.75
 20
-54.946422
 30
0.0
 40
2.0
100
AcDbArc
 50
270.0
 51
90.0
  0
ARC
  5
A8
330
18
100
AcDbEntity
  8
DRIP
100
AcDbCircle
 10
84.25
 20
-54.946422
 30
0.0
 40
2.0
100
AcDbArc
 50
90.0
 51
270.0
  0
LINE
  5
A9
330
18
100
AcDbEntity
  8
DRIP
100
AcDbLine
 10
105.75
 20
177.053578
 30
0.0
 11
109.75
 21
177.053578
 31
0.0
  0
LINE
  5
AA
330
18
100
AcDbEntity
  8
DRIP
100
AcDbLine
 10
84.25
 20
-52.946422
 30
0.0
 11
107.75
 21
-52.946422
 31
0.0
  0
LINE
  5
AB
330
18
100
AcDbEntity
  8
DRIP
100
AcDbLine
 10
84.25
 20
-56.946422
 30
0.0
 11
107.75
 21
-56.946422
 31
0.0
  0
LINE
  5
AC
330
18
100
AcDbEntity
  8
DRIP
100
AcDbLine
 10
109.75
 20
-54.946422
 30
0.0
 11
109.75
 21
-27.446422
 31
0.0
  0
LINE
  5
AD
330
18
100
AcDbEntity
  8
DRIP
100
AcDbLine
 10
105.75
 20
-52.946422
 30
0.0
 11
105.75
 21
-27.446422
 31
0.0
  0
LINE
  5
AE
330
18
100
AcDbEntity
  8
DRIP
100
AcDbLine
 10
86.25
 20
-52.946422
 30
0.0
 11
86.25
 21
-27.446422
 31
0.0
  0
LINE
  5
AF
330
18
100
AcDbEntity
  8
DRIP
100
AcDbLine
 10
82.25
 20
-54.946422
 30
0.0
 11
82.25
 21
-27.446422
 31
0.0
  0
LINE
  5
B0
330
18
100
AcDbEntity
  8
DRIP
100
AcDbLine
 10
82.25
 20
177.053578
 30
0.0
 11
86.25
 21
177.053578
 31
0.0
  0
LINE
  5
B1
330
18
100
AcDbEntity
  8
DRIP
100
AcDbLine
 10
82.25
 20
24.605468
 30
0.0
 11
86.25
 21
24.605468
 31
0.0
  0
LINE
  5
B2
330
18
100
AcDbEntity
  8
DRIP
100
AcDbLine
 10
105.75
 20
24.605468
 30
0.0
 11
109.75
 21
24.605468
 31
0.0
  0
LINE
  5
B3
330
18
100
AcDbEntity
  8
DRIP
100
AcDbLine
 10
1.867655
 20
-27.446422
 30
0.0
 11
8.499955
 21
-27.446422
 31
0.0
  0
LINE
  5
B4
330
18
100
AcDbEntity
  8
DRIP
100
AcDbLine
 10
2.500015
 20
-18.446422
 30
0.0
 11
2.500015
 21
0.5535290000000001
 31
0.0
  0
LINE
  5
B5
330
18
100
AcDbEntity
  8
DRIP
100
AcDbLine
 10
2.500015
 20
-18.446422
 30
0.0
 11
0.500015
 21
-18.446422
 31
0.0
  0
LINE
  5
B6
330
18
100
AcDbEntity
  8
DRIP
100
AcDbLine
 10
0.500015
 20
-18.446422
 30
0.0
 11
0.500015
 21
-25.946422
 31
0.0
  0
LINE
  5
B7
330
18
100
AcDbEntity
  8
DRIP
100
AcDbLine
 10
0.500015
 20
-25.946422
 30
0.0
 11
1.867655
 21
-27.446422
 31
0.0
  0
LINE
  5
B8
330
18
100
AcDbEntity
  8
DRIP
100
AcDbLine
 10
-4.000045
 20
-25.446422
 30
0.0
 11
-6.000045
 21
-22.446422
 31
0.0
  0
LINE
  5
B9
330
18
100
AcDbEntity
  8
DRIP
100
AcDbLine
 10
-1.867645
 20
-25.446422
 30
0.0
 11
-4.000045
 21
-25.446422
 31
0.0
  0
LINE
  5
BA
330
18
100
AcDbEntity
  8
DRIP
100
AcDbLine
 10
-0.500005
 20
-23.946422
 30
0.0
 11
-1.867645
 21
-25.446422
 31
0.0
  0
LINE
  5
BB
330
18
100
AcDbEntity
  8
DRIP
100
AcDbLine
 10
-0.500005
 20
-18.446422
 30
0.0
 11
-0.500005
 21
-23.946422
 31
0.0
  0
LINE
  5
BC
330
18
100
AcDbEntity
  8
DRIP
100
AcDbLine
 10
-2.500005
 20
0.553578
 30
0.0
 11
-2.500005
 21
-18.446422
 31
0.0
  0
ARC
  5
BD
330
18
100
AcDbEntity
  8
DRIP
100
AcDbCircle
 10
0.0
 20
0.0
 30
0.0
 40
2.560561
100
AcDbArc
 50
12.484465
 51
167.514418
  0
LINE
  5
BE
330
18
100
AcDbEntity
  8
DRIP
100
AcDbLine
 10
-2.500005
 20
-18.446422
 30
0.0
 11
-0.500005
 21
-18.446422
 31
0.0
  0
LINE
  5
BF
330
18
100
AcDbEntity
  8
DRIP
100
AcDbLine
 10
12.499955
 20
-27.446422
 30
0.0
 11
15.999955
 21
-24.352672
 31
0.0
  0
ARC
  5
C0
330
18
100
AcDbEntity
  8
DRIP
100
AcDbCircle
 10
5.634174
 20
-8.333166
 30
0.0
 40
15.933494
100
AcDbArc
 50
80.072897
 51
136.900961
  0
ARC
  5
C1
330
18
100
AcDbEntity
  8
DRIP
100
AcDbCircle
 10
6.512772
 20
-3.45637
 30
0.0
 40
11.230588
100
AcDbArc
 50
32.353471
 51
57.783907
  0
LINE
  5
C2
330
18
100
AcDbEntity
  8
DRIP
100
AcDbLine
 10
15.999955
 20
-24.352672
 30
0.0
 11
15.999955
 21
2.553578
 31
0.0
  0
LINE
  5
C3
330
18
100
AcDbEntity
  8
DRIP
100
AcDbLine
 10
-6.000045
 20
-22.446422
 30
0.0
 11
-6.000045
 21
2.553578
 31
0.0
  0
LINE
  5
C4
330
18
100
AcDbEntity
  8
DRIP
100
AcDbLine
 10
-4.000045
 20
-25.446422
 30
0.0
 11
-1.867645
 21
-25.446422
 31
0.0
  0
ARC
  5
C5
330
18
100
AcDbEntity
  8
DRIP
100
AcDbCircle
 10
4.884024
 20
17.21888
 30
0.0
 40
3.477033
100
AcDbArc
 50
357.274868
 51
100.963924
  0
ARC
  5
C6
330
18
100
AcDbEntity
  8
DRIP
100
AcDbCircle
 10
8.592599
 20
20.878441
 30
0.0
 40
3.765251
100
AcDbArc
 50
358.875699
 51
98.170954
  0
ARC
  5
C7
330
18
100
AcDbEntity
  8
DRIP
100
AcDbCircle
 10
-11.126133
 20
27.763152
 30
0.0
 40
3.517011
100
AcDbArc
 50
179.252561
 51
258.842598
  0
ARC
  5
C8
330
18
100
AcDbEntity
  8
DRIP
100
AcDbCircle
 10
-15.136349
 20
23.903199
 30
0.0
 40
3.509913
100
AcDbArc
 50
177.471627
 51
276.21879
  0
LINE
  5
C9
330
18
100
AcDbEntity
  8
DRIP
100
AcDbLine
 10
4.222724
 20
20.632448
 30
0.0
 11
-14.756136
 21
20.413941
 31
0.0
  0
LINE
  5
CA
330
18
100
AcDbEntity
  8
DRIP
100
AcDbLine
 10
8.057454999999999
 20
24.605468
 30
0.0
 11
-11.806692
 21
24.312615
 31
0.0
  0
ARC
  5
CB
330
18
100
AcDbEntity
  8
DRIP
100
AcDbCircle
 10
6.499955
 20
-50.946422
 30
0.0
 40
2.0
100
AcDbArc
 50
270.0
 51
0.0
  0
ARC
  5
CC
330
18
100
AcDbEntity
  8
DRIP
100
AcDbCircle
 10
8.499955
 20
-52.946422
 30
0.0
 40
4.0
100
AcDbArc
 50
270.0
 51
0.0
  0
LINE
  5
CD
330
18
100
AcDbEntity
  8
DRIP
100
AcDbLine
 10
-14.642845
 20
27.809031
 30
0.0
 11
-14.642845
 21
177.053578
 31
0.0
  0
LINE
  5
CE
330
18
100
AcDbEntity
  8
DRIP
100
AcDbLine
 10
-18.642845
 20
24.058036
 30
0.0
 11
-18.642845
 21
177.053578
 31
0.0
  0
LINE
  5
CF
330
18
100
AcDbEntity
  8
DRIP
100
AcDbLine
 10
8.499955
 20
-50.946422
 30
0.0
 11
8.357125
 21
17.053566
 31
0.0
  0
LINE
  5
D0
330
18
100
AcDbEntity
  8
DRIP
100
AcDbLine
 10
12.499955
 20
-52.946422
 30
0.0
 11
12.357125
 21
20.804561
 31
0.0
  0
LINE
  5
D1
330
18
100
AcDbEntity
  8
DRIP
100
AcDbLine
 10
-26.500045
 20
-52.946422
 30
0.0
 11
6.499955
 21
-52.946422
 31
0.0
  0
LINE
  5
D2
330
18
100
AcDbEntity
  8
DRIP
100
AcDbLine
 10
-18.642845
 20
177.053578
 30
0.0
 11
-14.642845
 21
177.053578
 31
0.0
  0
LINE
  5
D3
330
18
100
AcDbEntity
  8
DRIP
100
AcDbLine
 10
-26.500045
 20
-56.946422
 30
0.0
 11
8.499955
 21
-56.946422
 31
0.0
  0
LINE
  5
D4
330
18
100
AcDbEntity
  8
DRIP
100
AcDbLine
 10
-26.500045
 20
-52.946422
 30
0.0
 11
-26.500045
 21
-56.946422
 31
0.0
  0
LINE
  5
D5
330
18
100
AcDbEntity
  8
DRIP
100
AcDbLine
 10
-6.000045
 20
-123.946422
 30
0.0
 11
-12.000045
 21
-123.946422
 31
0.0
  0
LINE
  5
D6
330
18
100
AcDbEntity
  8
DRIP
100
AcDbLine
 10
-6.000045
 20
-102.946422
 30
0.0
 11
-12.000045
 21
-102.946422
 31
0.0
  0
ARC
  5
D7
330
18
100
AcDbEntity
  8
DRIP
100
AcDbCircle
 10
-12.000045
 20
-113.446422
 30
0.0
 40
10.5
100
AcDbArc
 50
90.0
 51
270.0
  0
LINE
  5
D8
330
18
100
AcDbEntity
  8
DRIP
100
AcDbLine
 10
-6.000045
 20
-127.946422
 30
0.0
 11
-12.000045
 21
-127.946422
 31
0.0
  0
LINE
  5
D9
330
18
100
AcDbEntity
  8
DRIP
100
AcDbLine
 10
-6.000045
 20
-98.946422
 30
0.0
 11
-12.000045
 21
-98.946422
 31
0.0
  0
LINE
  5
DA
330
18
100
AcDbEntity
  8
DRIP
100
AcDbLine
 10
-6.000045
 20
-128.446422
 30
0.0
 11
8.499955
 21
-128.446422
 31
0.0
  0
LINE
  5
DB
330
18
100
AcDbEntity
  8
DRIP
100
AcDbLine
 10
8.499955
 20
-128.446422
 30
0.0
 11
8.499955
 21
-127.946422
 31
0.0
  0
LINE
  5
DC
330
18
100
AcDbEntity
  8
DRIP
100
AcDbLine
 10
12.499955
 20
-128.446422
 30
0.0
 11
12.499955
 21
-125.946422
 31
0.0
  0
CIRCLE
  5
DD
330
18
100
AcDbEntity
  8
DRIP
100
AcDbCircle
 10
-16.500045
 20
-125.946422
 30
0.0
 40
2.0
  0
LINE
  5
DE
330
18
100
AcDbEntity
  8
DRIP
100
AcDbLine
 10
12.499955
 20
-128.446422
 30
0.0
 11
15.999955
 21
-128.446422
 31
0.0
  0
LINE
  5
DF
330
18
100
AcDbEntity
  8
DRIP
100
AcDbLine
 10
12.499955
 20
-98.446422
 30
0.0
 11
15.999955
 21
-98.446422
 31
0.0
  0
CIRCLE
  5
E0
330
18
100
AcDbEntity
  8
DRIP
100
AcDbCircle
 10
-16.500045
 20
-100.946422
 30
0.0
 40
2.0
  0
LINE
  5
E1
330
18
100
AcDbEntity
  8
DRIP
100
AcDbLine
 10
12.499955
 20
-98.446422
 30
0.0
 11
12.499955
 21
-100.946422
 31
0.0
  0
LINE
  5
E2
330
18
100
AcDbEntity
  8
DRIP
100
AcDbLine
 10
8.499955
 20
-98.446422
 30
0.0
 11
8.499955
 21
-98.946422
 31
0.0
  0
LINE
  5
E3
330
18
100
AcDbEntity
  8
DRIP
100
AcDbLine
 10
-6.000045
 20
-98.446422
 30
0.0
 11
8.499955
 21
-98.446422
 31
0.0
  0
LINE
  5
E4
330
18
100
AcDbEntity
  8
DRIP
100
AcDbLine
 10
-6.000045
 20
-98.446422
 30
0.0
 11
-6.000045
 21
-98.946422
 31
0.0
  0
LINE
  5
E5
330
18
100
AcDbEntity
  8
DRIP
100
AcDbLine
 10
15.999955
 20
-98.446422
 30
0.0
 11
15.999955
 21
-128.446422
 31
0.0
  0
ARC
  5
E6
330
18
100
AcDbEntity
  8
DRIP
100
AcDbCircle
 10
10.499955
 20
-125.946422
 30
0.0
 40
2.0
100
AcDbArc
 50
270.0
 51
90.0
  0
ARC
  5
E7
330
18
100
AcDbEntity
  8
DRIP
100
AcDbCircle
 10
10.499955
 20
-100.946422
 30
0.0
 40
2.0
100
AcDbArc
 50
270.0
 51
90.0
  0
LINE
  5
E8
330
18
100
AcDbEntity
  8
DRIP
100
AcDbLine
 10
-16.500045
 20
-102.946422
 30
0.0
 11
10.499955
 21
-102.946422
 31
0.0
  0
LINE
  5
E9
330
18
100
AcDbEntity
  8
DRIP
100
AcDbLine
 10
-16.500045
 20
-98.946422
 30
0.0
 11
10.499955
 21
-98.946422
 31
0.0
  0
LINE
  5
EA
330
18
100
AcDbEntity
  8
DRIP
100
AcDbLine
 10
-16.500045
 20
-123.946422
 30
0.0
 11
10.499955
 21
-123.946422
 31
0.0
  0
LINE
  5
EB
330
18
100
AcDbEntity
  8
DRIP
100
AcDbLine
 10
-16.500045
 20
-127.946422
 30
0.0
 11
10.499955
 21
-127.946422
 31
0.0
  0
LINE
  5
EC
330
18
100
AcDbEntity
  8
DRIP
100
AcDbLine
 10
-6.000045
 20
-127.946422
 30
0.0
 11
-6.000045
 21
-128.446422
 31
0.0
  0
LINE
  5
ED
330
18
100
AcDbEntity
  8
DRIP
100
AcDbLine
 10
-6.000045
 20
-102.946422
 30
0.0
 11
-6.000045
 21
-123.946422
 31
0.0
  0
ARC
  5
EE
330
18
100
AcDbEntity
  8
DRIP
100
AcDbCircle
 10
-12.000045
 20
-113.446422
 30
0.0
 40
14.5
100
AcDbArc
 50
116.361602
 51
243.638398
  0
ENDSEC
  0
SECTION
  2
OBJECTS
  0
DICTIONARY
  5
C
330
0
100
AcDbDictionary
  3
ACAD_GROUP
350
D
  3
ACAD_LAYOUT
350
F0
  3
ACAD_MLINESTYLE
350
E
1001
ACAD
1000
TREAT_AS_HARD
1070
     0
  0
DICTIONARY
  5
11A
330
EF
100
AcDbDictionary
  3
ACAD_XREC_ROUNDTRIP
360
11B
  0
DICTIONARY
  5
D
102
{ACAD_REACTORS
330
C
102
}
330
C
100
AcDbDictionary
1001
ACAD
1000
TREAT_AS_HARD
1070
     0
  0
DICTIONARY
  5
F0
102
{ACAD_REACTORS
330
C
102
}
330
C
100
AcDbDictionary
1001
ACAD
1000
TREAT_AS_HARD
1070
     0
  0
DICTIONARY
  5
E
102
{ACAD_REACTORS
330
C
102
}
330
C
100
AcDbDictionary
  3
STANDARD
350
1B
1001
ACAD
1000
TREAT_AS_HARD
1070
     0
  0
XRECORD
  5
11B
102
{ACAD_REACTORS
330
11A
102
}
330
11A
100
AcDbXrecord
102
UCS
 74
     0
 71
     1
 10
0.0
 20
0.0
 30
0.0
 10
1.0
 20
0.0
 30
0.0
 10
0.0
 20
1.0
 30
0.0
146
0.0
 79
     0
102
VIEW
281
     0
  0
MLINESTYLE
  5
1B
102
{ACAD_REACTORS
330
E
102
}
330
E
100
AcDbMlineStyle
  2
STANDARD
 70
     0
  3

 62
     0
 51
90.0
 52
90.0
 71
     2
 49
0.5
 62
   256
  6
BYLAYER
 49
-0.5
 62
   256
  6
BYLAYER
  0
ENDSEC
  0
EOF
