  0
SECTION
  2
HEADER
  9
$ACADVER
  1
AC1009
  9
$DWGCODEPAGE
  3
ansi_1252
  9
$INSBASE
 10
0.0
 20
0.0
 30
0.0
  9
$EXTMIN
 10
-1518.3556
 20
-2204.1556
 30
0.0
  9
$EXTMAX
 10
1518.3556
 20
2204.1556
 30
0.0
  9
$LIMMIN
 10
0.0
 20
0.0
  9
$LIMMAX
 10
12.0
 20
9.0
  9
$ORTHOMODE
 70
     0
  9
$REGENMODE
 70
     1
  9
$FILLMODE
 70
     1
  9
$QTEXTMODE
 70
     0
  9
$MIRRTEXT
 70
     1
  9
$DRAGMODE
 70
     2
  9
$LTSCALE
 40
16.0
  9
$OSMODE
 70
    37
  9
$ATTMODE
 70
     1
  9
$TEXTSIZE
 40
0.2
  9
$TRACEWID
 40
0.05
  9
$TEXTSTYLE
  7
STANDARD
  9
$CLAYER
  8
0
  9
$CELTYPE
  6
BYBLOCK
  9
$CECOLOR
 62
   256
  9
$DIMSCALE
 40
1.0
  9
$DIMASZ
 40
0.18
  9
$DIMEXO
 40
0.0625
  9
$DIMDLI
 40
0.38
  9
$DIMRND
 40
0.0
  9
$DIMDLE
 40
0.0
  9
$DIMEXE
 40
0.18
  9
$DIMTP
 40
0.0
  9
$DIMTM
 40
0.0
  9
$DIMTXT
 40
0.18
  9
$DIMCEN
 40
0.09
  9
$DIMTSZ
 40
0.0
  9
$DIMTOL
 70
     0
  9
$DIMLIM
 70
     0
  9
$DIMTIH
 70
     1
  9
$DIMTOH
 70
     1
  9
$DIMSE1
 70
     0
  9
$DIMSE2
 70
     0
  9
$DIMTAD
 70
     0
  9
$DIMZIN
 70
     0
  9
$DIMBLK
  1

  9
$DIMASO
 70
     1
  9
$DIMSHO
 70
     1
  9
$DIMPOST
  1

  9
$DIMAPOST
  1

  9
$DIMALT
 70
     0
  9
$DIMALTD
 70
     2
  9
$DIMALTF
 40
25.4
  9
$DIMLFAC
 40
1.0
  9
$DIMTOFL
 70
     0
  9
$DIMTVP
 40
0.0
  9
$DIMTIX
 70
     0
  9
$DIMSOXD
 70
     0
  9
$DIMSAH
 70
     0
  9
$DIMBLK1
  1

  9
$DIMBLK2
  1

  9
$DIMSTYLE
  2
STANDARD
  9
$DIMCLRD
 70
     0
  9
$DIMCLRE
 70
     0
  9
$DIMCLRT
 70
     0
  9
$DIMTFAC
 40
1.0
  9
$DIMGAP
 40
0.09
  9
$LUNITS
 70
     2
  9
$LUPREC
 70
     4
  9
$SKETCHINC
 40
0.1
  9
$FILLETRAD
 40
0.5
  9
$AUNITS
 70
     0
  9
$AUPREC
 70
     0
  9
$MENU
  1
.
  9
$ELEVATION
 40
0.0
  9
$PELEVATION
 40
0.0
  9
$THICKNESS
 40
0.0
  9
$LIMCHECK
 70
     0
  9
$CHAMFERA
 40
0.5
  9
$CHAMFERB
 40
0.5
  9
$SKPOLY
 70
     0
  9
$TDCREATE
 40
2453619.495898114
  9
$TDUPDATE
 40
2453619.495898125
  9
$TDINDWG
 40
0.0000000116
  9
$TDUSRTIMER
 40
0.0000000116
  9
$USRTIMER
 70
     1
  9
$ANGBASE
 50
0.0
  9
$ANGDIR
 70
     0
  9
$PDMODE
 70
     0
  9
$PDSIZE
 40
0.0
  9
$PLINEWID
 40
0.0
  9
$COORDS
 70
     1
  9
$SPLFRAME
 70
     0
  9
$SPLINETYPE
 70
     6
  9
$SPLINESEGS
 70
     8
  9
$ATTDIA
 70
     0
  9
$ATTREQ
 70
     1
  9
$HANDLING
 70
     1
  9
$HANDSEED
  5
121
  9
$SURFTAB1
 70
     6
  9
$SURFTAB2
 70
     6
  9
$SURFTYPE
 70
     6
  9
$SURFU
 70
     6
  9
$SURFV
 70
     6
  9
$UCSNAME
  2

  9
$UCSORG
 10
0.0
 20
0.0
 30
0.0
  9
$UCSXDIR
 10
1.0
 20
0.0
 30
0.0
  9
$UCSYDIR
 10
0.0
 20
1.0
 30
0.0
  9
$PUCSNAME
  2

  9
$PUCSORG
 10
0.0
 20
0.0
 30
0.0
  9
$PUCSXDIR
 10
1.0
 20
0.0
 30
0.0
  9
$PUCSYDIR
 10
0.0
 20
1.0
 30
0.0
  9
$USERI1
 70
     0
  9
$USERI2
 70
     0
  9
$USERI3
 70
     0
  9
$USERI4
 70
     0
  9
$USERI5
 70
     0
  9
$USERR1
 40
0.0
  9
$USERR2
 40
0.0
  9
$USERR3
 40
0.0
  9
$USERR4
 40
0.0
  9
$USERR5
 40
0.0
  9
$WORLDVIEW
 70
     1
  9
$SHADEDGE
 70
     3
  9
$SHADEDIF
 70
    70
  9
$TILEMODE
 70
     1
  9
$MAXACTVP
 70
    64
  9
$PLIMCHECK
 70
     0
  9
$PEXTMIN
 10
1.000000000000000E+20
 20
1.000000000000000E+20
 30
1.000000000000000E+20
  9
$PEXTMAX
 10
-1.000000000000000E+20
 20
-1.000000000000000E+20
 30
-1.000000000000000E+20
  9
$PLIMMIN
 10
0.0
 20
0.0
  9
$PLIMMAX
 10
12.0
 20
9.0
  9
$UNITMODE
 70
     0
  9
$VISRETAIN
 70
     1
  9
$PLINEGEN
 70
     0
  9
$PSLTSCALE
 70
     1
  0
ENDSEC
  0
SECTION
  2
TABLES
  0
TABLE
  2
VPORT
 70
     1
  0
VPORT
  2
*ACTIVE
 70
     0
 10
0.0
 20
0.0
 11
1.0
 21
1.0
 12
10.42990654205607
 22
4.5
 13
0.0
 23
0.0
 14
0.5
 24
0.5
 15
0.5
 25
0.5
 16
0.0
 26
0.0
 36
1.0
 17
0.0
 27
0.0
 37
0.0
 40
9.0
 41
1.972972972850329
 42
50.0
 43
0.0
 44
0.0
 50
0.0
 51
0.0
 71
     0
 72
   100
 73
     1
 74
     3
 75
     0
 76
     0
 77
     0
 78
     0
  0
ENDTAB
  0
TABLE
  2
LTYPE
 70
     9
  0
LTYPE
  2
CONTINUOUS
 70
     0
  3
Solid Line
 72
    65
 73
     0
 40
0.0
  0
LTYPE
  2
MCDASH1
 70
     0
  3
MiniCad+ Generated
 72
    65
 73
     6
 40
12.361262
 49
3.531955
 49
-1.765784
 49
3.531955
 49
-1.765784
 49
0.000388
 49
-1.765396
  0
LTYPE
  2
MCDASH2
 70
     0
  3
MiniCad+ Generated
 72
    65
 73
     4
 40
14.127046
 49
8.829694
 49
-1.765784
 49
1.765784
 49
-1.765784
  0
LTYPE
  2
MCDASH3
 70
     0
  3
MiniCad+ Generated
 72
    65
 73
     4
 40
7.063523
 49
3.531955
 49
-1.765784
 49
0.000388
 49
-1.765396
  0
LTYPE
  2
MCDASH4
 70
     0
  3
MiniCad+ Generated
 72
    65
 73
     2
 40
5.297739
 49
3.531955
 49
-1.765784
  0
LTYPE
  2
MCDASH5
 70
     0
  3
MiniCad+ Generated
 72
    65
 73
     6
 40
8.829307
 49
3.531955
 49
-1.765784
 49
0.000388
 49
-1.765396
 49
0.000388
 49
-1.765396
  0
LTYPE
  2
MCDASH6
 70
     0
  3
MiniCad+ Generated
 72
    65
 73
     4
 40
3.531568
 49
0.000388
 49
-1.765396
 49
0.000388
 49
-1.765396
  0
LTYPE
  2
MCDASH7
 70
     0
  3
MiniCad+ Generated
 72
    65
 73
     2
 40
2.648676
 49
1.765784
 49
-0.882892
  0
LTYPE
  2
MCDASH8
 70
     0
  3
MiniCad+ Generated
 72
    65
 73
     6
 40
17.658614
 49
8.829694
 49
-1.765784
 49
1.765784
 49
-1.765784
 49
1.765784
 49
-1.765784
  0
ENDTAB
  0
TABLE
  2
LAYER
 70
     2
  0
LAYER
  2
0
 70
     0
 62
     7
  6
CONTINUOUS
  0
LAYER
  2
DISEGNO
 70
     0
 62
     7
  6
CONTINUOUS
  0
ENDTAB
  0
TABLE
  2
STYLE
 70
     1
  0
STYLE
  2
STANDARD
 70
     0
 40
0.0
 41
1.0
 50
0.0
 71
     0
 42
0.2
  3
txt
  4

  0
ENDTAB
  0
TABLE
  2
VIEW
 70
     0
  0
ENDTAB
  0
TABLE
  2
UCS
 70
     0
  0
ENDTAB
  0
TABLE
  2
APPID
 70
     1
  0
APPID
  2
ACAD
 70
     0
  0
ENDTAB
  0
TABLE
  2
DIMSTYLE
 70
     1
  0
DIMSTYLE
  2
STANDARD
 70
     0
  3

  4

  5

  6

  7

 40
1.0
 41
0.18
 42
0.0625
 43
0.38
 44
0.18
 45
0.0
 46
0.0
 47
0.0
 48
0.0
140
0.18
141
0.09
142
0.0
143
25.4
144
1.0
145
0.0
146
1.0
147
0.09
 71
     0
 72
     0
 73
     1
 74
     1
 75
     0
 76
     0
 77
     0
 78
     0
170
     0
171
     2
172
     0
173
     0
174
     0
175
     0
176
     0
177
     0
178
     0
  0
ENDTAB
  0
ENDSEC
  0
SECTION
  2
BLOCKS
  0
BLOCK
  8
0
  2
$MODEL_SPACE
 70
     0
 10
0.0
 20
0.0
 30
0.0
  3
$MODEL_SPACE
  1

  0
ENDBLK
  5
11C
  8
0
  0
BLOCK
 67
     1
  8
0
  2
$PAPER_SPACE
 70
     0
 10
0.0
 20
0.0
 30
0.0
  3
$PAPER_SPACE
  1

  0
ENDBLK
  5
11A
 67
     1
  8
0
  0
BLOCK
  8
0
  2
$ARROW1$
 70
     0
 10
0.0
 20
0.0
 30
0.0
  3
$ARROW1$
  1

  0
POLYLINE
  5
2E
  8
0
 66
     1
 10
0.0
 20
0.0
 30
0.0
 70
     1
  0
VERTEX
  5
A6
  8
0
 10
-25.4
 20
4.318
 30
0.0
  0
VERTEX
  5
A7
  8
0
 10
-25.4
 20
-4.318
 30
0.0
  0
VERTEX
  5
A8
  8
0
 10
0.0
 20
0.0
 30
0.0
  0
SEQEND
  5
106
  8
0
  0
ENDBLK
  5
108
  8
0
  0
BLOCK
  8
0
  2
$ARROW2$
 70
     0
 10
0.0
 20
0.0
 30
0.0
  3
$ARROW2$
  1

  0
POLYLINE
  5
36
  8
0
 66
     1
 10
0.0
 20
0.0
 30
0.0
 70
     1
  0
VERTEX
  5
AA
  8
0
 10
-25.4
 20
12.7
 30
0.0
  0
VERTEX
  5
AB
  8
0
 10
-25.4
 20
-12.7
 30
0.0
  0
VERTEX
  5
AC
  8
0
 10
0.0
 20
0.0
 30
0.0
  0
SEQEND
  5
109
  8
0
  0
ENDBLK
  5
10B
  8
0
  0
BLOCK
  8
0
  2
$ARROW3$
 70
     0
 10
0.0
 20
0.0
 30
0.0
  3
$ARROW3$
  1

  0
POLYLINE
  5
3E
  8
0
 66
     1
 10
0.0
 20
0.0
 30
0.0
 70
     1
  0
VERTEX
  5
AE
  8
0
 10
-6.35
 20
0.0
 30
0.0
  0
VERTEX
  5
AF
  8
0
 10
-6.2535
 20
-1.1028
 30
0.0
  0
VERTEX
  5
B0
  8
0
 10
-5.967
 20
-2.172
 30
0.0
  0
VERTEX
  5
B1
  8
0
 10
-5.4992
 20
-3.1751
 30
0.0
  0
VERTEX
  5
B2
  8
0
 10
-4.8643
 20
-4.0818
 30
0.0
  0
VERTEX
  5
B3
  8
0
 10
-4.0816
 20
-4.8644
 30
0.0
  0
VERTEX
  5
B4
  8
0
 10
-3.175
 20
-5.4993
 30
0.0
  0
VERTEX
  5
B5
  8
0
 10
-2.1718
 20
-5.9671
 30
0.0
  0
VERTEX
  5
B6
  8
0
 10
-1.1026
 20
-6.2535
 30
0.0
  0
VERTEX
  5
B7
  8
0
 10
0.0001
 20
-6.35
 30
0.0
  0
VERTEX
  5
B8
  8
0
 10
0.0
 20
-6.35
 30
0.0
  0
VERTEX
  5
B9
  8
0
 10
1.1027
 20
-6.2535
 30
0.0
  0
VERTEX
  5
BA
  8
0
 10
2.1719
 20
-5.967
 30
0.0
  0
VERTEX
  5
BB
  8
0
 10
3.175
 20
-5.4992
 30
0.0
  0
VERTEX
  5
BC
  8
0
 10
4.0817
 20
-4.8644
 30
0.0
  0
VERTEX
  5
BD
  8
0
 10
4.8644
 20
-4.0816
 30
0.0
  0
VERTEX
  5
BE
  8
0
 10
5.4993
 20
-3.175
 30
0.0
  0
VERTEX
  5
BF
  8
0
 10
5.9671
 20
-2.1718
 30
0.0
  0
VERTEX
  5
C0
  8
0
 10
6.2535
 20
-1.1026
 30
0.0
  0
VERTEX
  5
C1
  8
0
 10
6.35
 20
0.0
 30
0.0
  0
VERTEX
  5
C2
  8
0
 10
6.2535
 20
1.1026
 30
0.0
  0
VERTEX
  5
C3
  8
0
 10
5.967
 20
2.1719
 30
0.0
  0
VERTEX
  5
C4
  8
0
 10
5.4992
 20
3.175
 30
0.0
  0
VERTEX
  5
C5
  8
0
 10
4.8644
 20
4.0817
 30
0.0
  0
VERTEX
  5
C6
  8
0
 10
4.0817
 20
4.8644
 30
0.0
  0
VERTEX
  5
C7
  8
0
 10
3.175
 20
5.4992
 30
0.0
  0
VERTEX
  5
C8
  8
0
 10
2.1718
 20
5.9671
 30
0.0
  0
VERTEX
  5
C9
  8
0
 10
1.1026
 20
6.2535
 30
0.0
  0
VERTEX
  5
CA
  8
0
 10
0.0
 20
6.35
 30
0.0
  0
VERTEX
  5
CB
  8
0
 10
-1.1026
 20
6.2535
 30
0.0
  0
VERTEX
  5
CC
  8
0
 10
-2.1719
 20
5.967
 30
0.0
  0
VERTEX
  5
CD
  8
0
 10
-3.175
 20
5.4992
 30
0.0
  0
VERTEX
  5
CE
  8
0
 10
-4.0817
 20
4.8644
 30
0.0
  0
VERTEX
  5
CF
  8
0
 10
-4.8644
 20
4.0817
 30
0.0
  0
VERTEX
  5
D0
  8
0
 10
-5.4993
 20
3.175
 30
0.0
  0
VERTEX
  5
D1
  8
0
 10
-5.9671
 20
2.1718
 30
0.0
  0
VERTEX
  5
D2
  8
0
 10
-6.2535
 20
1.1026
 30
0.0
  0
VERTEX
  5
D3
  8
0
 10
-6.35
 20
0.0
 30
0.0
  0
SEQEND
  5
10C
  8
0
  0
ENDBLK
  5
10E
  8
0
  0
BLOCK
  8
0
  2
$ARROW4$
 70
     0
 10
0.0
 20
0.0
 30
0.0
  3
$ARROW4$
  1

  0
LINE
  5
69
  8
0
 10
12.7
 20
12.7
 30
0.0
 11
-12.7
 21
-12.7
 31
0.0
  0
ENDBLK
  5
110
  8
0
  0
BLOCK
  8
0
  2
$ARROW5$
 70
     0
 10
0.0
 20
0.0
 30
0.0
  3
$ARROW5$
  1

  0
LINE
  5
6D
  8
0
 10
12.7
 20
12.7
 30
0.0
 11
-12.7
 21
-12.7
 31
0.0
  0
LINE
  5
6E
  8
0
 10
-12.7
 20
12.7
 30
0.0
 11
12.7
 21
-12.7
 31
0.0
  0
ENDBLK
  5
112
  8
0
  0
BLOCK
  8
0
  2
67123A
 70
     0
 10
0.0
 20
0.0
 30
0.0
  3
67123A
  1

  0
LINE
  5
72
  8
0
 62
     6
 10
-0.1175
 20
6.288
 30
0.0
 11
-0.1175
 21
-6.2842
 31
0.0
  0
LINE
  5
73
  8
0
 62
     6
 10
-2.7001
 20
-8.509499999999999
 30
0.0
 11
-18.1175
 21
-5.5981
 31
0.0
  0
LINE
  5
74
  8
0
 62
     6
 10
-2.116
 20
5.9982
 30
0.0
 11
-2.116
 21
-5.9958
 31
0.0
  0
LINE
  5
75
  8
0
 62
     6
 10
0.5
 20
0.0
 30
0.0
 11
-19.0
 21
0.0
 31
0.0
  0
LINE
  5
76
  8
0
 62
     6
 10
-12.3477
 20
-6.6876
 30
0.0
 11
-11.996
 21
-4.7203
 31
0.0
  0
LINE
  5
77
  8
0
 62
     6
 10
-11.9956
 20
4.7227
 30
0.0
 11
-12.3477
 21
6.6914
 31
0.0
  0
LINE
  5
78
  8
0
 62
     6
 10
-11.9956
 20
4.7227
 30
0.0
 11
-2.6126
 21
6.4945
 31
0.0
  0
ARC
  5
79
  8
0
 62
     6
 10
-2.3675
 20
6.288
 30
0.0
 40
2.25
 50
0.0
 51
98.50058
  0
ARC
  5
7A
  8
0
 62
     6
 10
-2.3675
 20
-6.2842
 30
0.0
 40
2.25
 50
261.49942
 51
0.0
  0
LINE
  5
7B
  8
0
 62
     6
 10
-11.996
 20
-4.7203
 30
0.0
 11
-2.6127
 21
-6.4921
 31
0.0
  0
ARC
  5
7C
  8
0
 62
     6
 10
-2.616
 20
5.9982
 30
0.0
 40
0.5
 50
0.0
 51
98.500641
  0
ARC
  5
7D
  8
0
 62
     6
 10
-2.616
 20
-5.9958
 30
0.0
 40
0.5
 50
261.500092
 51
0.0
  0
LINE
  5
7E
  8
0
 62
     6
 10
-18.1175
 20
5.6019
 30
0.0
 11
-18.1175
 21
-5.5981
 31
0.0
  0
LINE
  5
7F
  8
0
 62
     6
 10
-18.1175
 20
5.6019
 30
0.0
 11
-2.7001
 21
8.513299999999999
 31
0.0
  0
ENDBLK
  5
114
  8
0
  0
BLOCK
  8
0
  2
67123B
 70
     0
 10
0.0
 20
0.0
 30
0.0
  3
67123B
  1

  0
LINE
  5
83
  8
0
 62
     6
 10
0.0
 20
0.0
 30
0.0
 11
6000.0
 21
0.0
 31
0.0
  0
LINE
  5
84
  8
0
 62
     6
 10
0.0
 20
17.0
 30
0.0
 11
0.0
 21
0.0
 31
0.0
  0
LINE
  5
85
  8
0
 62
     6
 10
0.0
 20
17.0
 30
0.0
 11
6000.0
 21
17.0
 31
0.0
  0
LINE
  5
86
  8
0
 62
     6
 10
0.0
 20
2.9
 30
0.0
 11
6000.0
 21
2.9
 31
0.0
  0
LINE
  5
87
  8
0
 62
     6
 10
6000.0
 20
17.0
 30
0.0
 11
6000.0
 21
0.0
 31
0.0
  0
LINE
  5
88
  8
0
 62
     6
 10
0.0
 20
14.1
 30
0.0
 11
6000.0
 21
14.1
 31
0.0
  0
ENDBLK
  5
116
  8
0
  0
BLOCK
  8
0
  2
67123C
 70
     0
 10
0.0
 20
0.0
 30
0.0
  3
67123C
  1

  0
LINE
  5
8C
  8
0
 62
     6
 10
0.0
 20
18.0
 30
0.0
 11
6000.0
 21
18.0
 31
0.0
  0
LINE
  5
8D
  8
0
 62
     6
 10
0.0
 20
0.0
 30
0.0
 11
6000.0
 21
0.0
 31
0.0
  0
LINE
  5
8E
  8
0
 62
     6
 10
0.0
 20
0.0
 30
0.0
 11
0.0
 21
18.0
 31
0.0
  0
LINE
  5
8F
  8
0
 62
     6
 10
0.0
 20
5.6824
 30
0.0
 11
6000.0
 21
5.6824
 31
0.0
  0
LINE
  5
90
  8
0
 62
     6
 10
6000.0
 20
0.0
 30
0.0
 11
6000.0
 21
18.0
 31
0.0
  0
ENDBLK
  5
118
  8
0
  0
ENDSEC
  0
SECTION
  2
ENTITIES
  0
INSERT
  5
92
  8
DISEGNO
  2
67123A
 10
-1497.8087
 20
13.9469
 30
0.0
  0
INSERT
  5
93
  8
DISEGNO
  2
67123B
 10
-1483.8087
 20
5.5056
 30
0.0
  0
INSERT
  5
94
  8
DISEGNO
  2
67123C
 10
-1483.8087
 20
-22.5531
 30
0.0
  0
ENDSEC
  0
EOF
