  0
SECTION
  2
HEADER
  9
$ACADVER
  1
AC1009
  9
$DWGCODEPAGE
  3
ansi_1252
  9
$INSBASE
 10
0.0
 20
0.0
 30
0.0
  9
$EXTMIN
 10
-106.5
 20
-154.60316
 30
0.0
  9
$EXTMAX
 10
106.5
 20
154.60316
 30
0.0
  9
$LIMMIN
 10
0.0
 20
0.0
  9
$LIMMAX
 10
12.0
 20
9.0
  9
$ORTHOMODE
 70
     0
  9
$REGENMODE
 70
     1
  9
$FILLMODE
 70
     1
  9
$QTEXTMODE
 70
     0
  9
$MIRRTEXT
 70
     1
  9
$DRAGMODE
 70
     2
  9
$LTSCALE
 40
1.122267
  9
$OSMODE
 70
    37
  9
$ATTMODE
 70
     1
  9
$TEXTSIZE
 40
0.2
  9
$TRACEWID
 40
0.05
  9
$TEXTSTYLE
  7
STANDARD
  9
$CLAYER
  8
0
  9
$CELTYPE
  6
BYBLOCK
  9
$CECOLOR
 62
   256
  9
$DIMSCALE
 40
1.0
  9
$DIMASZ
 40
0.18
  9
$DIMEXO
 40
0.0625
  9
$DIMDLI
 40
0.38
  9
$DIMRND
 40
0.0
  9
$DIMDLE
 40
0.0
  9
$DIMEXE
 40
0.18
  9
$DIMTP
 40
0.0
  9
$DIMTM
 40
0.0
  9
$DIMTXT
 40
0.18
  9
$DIMCEN
 40
0.09
  9
$DIMTSZ
 40
0.0
  9
$DIMTOL
 70
     0
  9
$DIMLIM
 70
     0
  9
$DIMTIH
 70
     1
  9
$DIMTOH
 70
     1
  9
$DIMSE1
 70
     0
  9
$DIMSE2
 70
     0
  9
$DIMTAD
 70
     0
  9
$DIMZIN
 70
     0
  9
$DIMBLK
  1

  9
$DIMASO
 70
     1
  9
$DIMSHO
 70
     1
  9
$DIMPOST
  1

  9
$DIMAPOST
  1

  9
$DIMALT
 70
     0
  9
$DIMALTD
 70
     2
  9
$DIMALTF
 40
25.4
  9
$DIMLFAC
 40
1.0
  9
$DIMTOFL
 70
     0
  9
$DIMTVP
 40
0.0
  9
$DIMTIX
 70
     0
  9
$DIMSOXD
 70
     0
  9
$DIMSAH
 70
     0
  9
$DIMBLK1
  1

  9
$DIMBLK2
  1

  9
$DIMSTYLE
  2
STANDARD
  9
$DIMCLRD
 70
     0
  9
$DIMCLRE
 70
     0
  9
$DIMCLRT
 70
     0
  9
$DIMTFAC
 40
1.0
  9
$DIMGAP
 40
0.09
  9
$LUNITS
 70
     2
  9
$LUPREC
 70
     4
  9
$SKETCHINC
 40
0.1
  9
$FILLETRAD
 40
0.5
  9
$AUNITS
 70
     0
  9
$AUPREC
 70
     0
  9
$MENU
  1
.
  9
$ELEVATION
 40
0.0
  9
$PELEVATION
 40
0.0
  9
$THICKNESS
 40
0.0
  9
$LIMCHECK
 70
     0
  9
$CHAMFERA
 40
0.5
  9
$CHAMFERB
 40
0.5
  9
$SKPOLY
 70
     0
  9
$TDCREATE
 40
2453619.495888137
  9
$TDUPDATE
 40
2453619.495888148
  9
$TDINDWG
 40
0.0000000116
  9
$TDUSRTIMER
 40
0.0000000116
  9
$USRTIMER
 70
     1
  9
$ANGBASE
 50
0.0
  9
$ANGDIR
 70
     0
  9
$PDMODE
 70
     0
  9
$PDSIZE
 40
0.0
  9
$PLINEWID
 40
0.0
  9
$COORDS
 70
     1
  9
$SPLFRAME
 70
     0
  9
$SPLINETYPE
 70
     6
  9
$SPLINESEGS
 70
     8
  9
$ATTDIA
 70
     0
  9
$ATTREQ
 70
     1
  9
$HANDLING
 70
     1
  9
$HANDSEED
  5
104
  9
$SURFTAB1
 70
     6
  9
$SURFTAB2
 70
     6
  9
$SURFTYPE
 70
     6
  9
$SURFU
 70
     6
  9
$SURFV
 70
     6
  9
$UCSNAME
  2

  9
$UCSORG
 10
0.0
 20
0.0
 30
0.0
  9
$UCSXDIR
 10
1.0
 20
0.0
 30
0.0
  9
$UCSYDIR
 10
0.0
 20
1.0
 30
0.0
  9
$PUCSNAME
  2

  9
$PUCSORG
 10
0.0
 20
0.0
 30
0.0
  9
$PUCSXDIR
 10
1.0
 20
0.0
 30
0.0
  9
$PUCSYDIR
 10
0.0
 20
1.0
 30
0.0
  9
$USERI1
 70
     0
  9
$USERI2
 70
     0
  9
$USERI3
 70
     0
  9
$USERI4
 70
     0
  9
$USERI5
 70
     0
  9
$USERR1
 40
0.0
  9
$USERR2
 40
0.0
  9
$USERR3
 40
0.0
  9
$USERR4
 40
0.0
  9
$USERR5
 40
0.0
  9
$WORLDVIEW
 70
     1
  9
$SHADEDGE
 70
     3
  9
$SHADEDIF
 70
    70
  9
$TILEMODE
 70
     1
  9
$MAXACTVP
 70
    64
  9
$PLIMCHECK
 70
     0
  9
$PEXTMIN
 10
1.000000000000000E+20
 20
1.000000000000000E+20
 30
1.000000000000000E+20
  9
$PEXTMAX
 10
-1.000000000000000E+20
 20
-1.000000000000000E+20
 30
-1.000000000000000E+20
  9
$PLIMMIN
 10
0.0
 20
0.0
  9
$PLIMMAX
 10
12.0
 20
9.0
  9
$UNITMODE
 70
     0
  9
$VISRETAIN
 70
     1
  9
$PLINEGEN
 70
     0
  9
$PSLTSCALE
 70
     1
  0
ENDSEC
  0
SECTION
  2
TABLES
  0
TABLE
  2
VPORT
 70
     1
  0
VPORT
  2
*ACTIVE
 70
     0
 10
0.0
 20
0.0
 11
1.0
 21
1.0
 12
10.42990654205607
 22
4.5
 13
0.0
 23
0.0
 14
0.5
 24
0.5
 15
0.5
 25
0.5
 16
0.0
 26
0.0
 36
1.0
 17
0.0
 27
0.0
 37
0.0
 40
9.0
 41
1.972972972850329
 42
50.0
 43
0.0
 44
0.0
 50
0.0
 51
0.0
 71
     0
 72
   100
 73
     1
 74
     3
 75
     0
 76
     0
 77
     0
 78
     0
  0
ENDTAB
  0
TABLE
  2
LTYPE
 70
     9
  0
LTYPE
  2
CONTINUOUS
 70
     0
  3
Solid Line
 72
    65
 73
     0
 40
0.0
  0
LTYPE
  2
MCDASH1
 70
     0
  3
MiniCad+ Generated
 72
    65
 73
     2
 40
2.116538
 49
1.058075
 49
-1.058463
  0
LTYPE
  2
MCDASH2
 70
     0
  3
MiniCad+ Generated
 72
    65
 73
     2
 40
3.527692
 49
2.469229
 49
-1.058463
  0
LTYPE
  2
MCDASH3
 70
     0
  3
MiniCad+ Generated
 72
    65
 73
     2
 40
6.35
 49
5.291537
 49
-1.058463
  0
LTYPE
  2
MCDASH4
 70
     0
  3
MiniCad+ Generated
 72
    65
 73
     2
 40
7.760767
 49
6.702692
 49
-1.058075
  0
LTYPE
  2
MCDASH5
 70
     0
  3
MiniCad+ Generated
 72
    65
 73
     2
 40
1.058075
 49
0.352692
 49
-0.705383
  0
LTYPE
  2
MCDASH6
 70
     0
  3
MiniCad+ Generated
 72
    65
 73
     4
 40
5.291538
 49
3.175
 49
-1.058075
 49
0.352692
 49
-0.705771
  0
LTYPE
  2
MCDASH7
 70
     0
  3
MiniCad+ Generated
 72
    65
 73
     6
 40
9.525001
 49
3.175
 49
-1.058075
 49
3.175
 49
-1.058463
 49
0.352692
 49
-0.705771
  0
LTYPE
  2
MCDASH8
 70
     0
  3
MiniCad+ Generated
 72
    65
 73
     6
 40
6.350001000000001
 49
3.175
 49
-1.058075
 49
0.352692
 49
-0.705771
 49
0.352692
 49
-0.705771
  0
ENDTAB
  0
TABLE
  2
LAYER
 70
     4
  0
LAYER
  2
0
 70
     0
 62
     7
  6
CONTINUOUS
  0
LAYER
  2
PROFILI
 70
     0
 62
     7
  6
CONTINUOUS
  0
LAYER
  2
FISSAGGI
 70
     0
 62
     2
  6
CONTINUOUS
  0
LAYER
  2
PANNELLI
 70
     0
 62
     6
  6
CONTINUOUS
  0
ENDTAB
  0
TABLE
  2
STYLE
 70
     1
  0
STYLE
  2
STANDARD
 70
     0
 40
0.0
 41
1.0
 50
0.0
 71
     0
 42
0.2
  3
txt
  4

  0
ENDTAB
  0
TABLE
  2
VIEW
 70
     0
  0
ENDTAB
  0
TABLE
  2
UCS
 70
     0
  0
ENDTAB
  0
TABLE
  2
APPID
 70
     1
  0
APPID
  2
ACAD
 70
     0
  0
ENDTAB
  0
TABLE
  2
DIMSTYLE
 70
     1
  0
DIMSTYLE
  2
STANDARD
 70
     0
  3

  4

  5

  6

  7

 40
1.0
 41
0.18
 42
0.0625
 43
0.38
 44
0.18
 45
0.0
 46
0.0
 47
0.0
 48
0.0
140
0.18
141
0.09
142
0.0
143
25.4
144
1.0
145
0.0
146
1.0
147
0.09
 71
     0
 72
     0
 73
     1
 74
     1
 75
     0
 76
     0
 77
     0
 78
     0
170
     0
171
     2
172
     0
173
     0
174
     0
175
     0
176
     0
177
     0
178
     0
  0
ENDTAB
  0
ENDSEC
  0
SECTION
  2
BLOCKS
  0
BLOCK
  8
0
  2
$MODEL_SPACE
 70
     0
 10
0.0
 20
0.0
 30
0.0
  3
$MODEL_SPACE
  1

  0
ENDBLK
  5
FF
  8
0
  0
BLOCK
 67
     1
  8
0
  2
$PAPER_SPACE
 70
     0
 10
0.0
 20
0.0
 30
0.0
  3
$PAPER_SPACE
  1

  0
ENDBLK
  5
FD
 67
     1
  8
0
  0
BLOCK
  8
0
  2
$ARROW1$
 70
     0
 10
0.0
 20
0.0
 30
0.0
  3
$ARROW1$
  1

  0
SOLID
  5
30
  8
0
 62
     0
 10
-25.4
 20
4.318
 30
0.0
 11
-25.4
 21
-4.318
 31
0.0
 12
0.0
 22
0.0
 32
0.0
 13
0.0
 23
0.0
 33
0.0
  0
ENDBLK
  5
EA
  8
0
  0
BLOCK
  8
0
  2
$ARROW2$
 70
     0
 10
0.0
 20
0.0
 30
0.0
  3
$ARROW2$
  1

  0
SOLID
  5
34
  8
0
 62
     0
 10
-25.4
 20
12.7
 30
0.0
 11
-25.4
 21
-12.7
 31
0.0
 12
0.0
 22
0.0
 32
0.0
 13
0.0
 23
0.0
 33
0.0
  0
ENDBLK
  5
EC
  8
0
  0
BLOCK
  8
0
  2
$ARROW3$
 70
     0
 10
0.0
 20
0.0
 30
0.0
  3
$ARROW3$
  1

  0
POLYLINE
  5
38
  8
0
  6
BYBLOCK
 62
     0
 66
     1
 10
0.0
 20
0.0
 30
0.0
 70
     1
 40
0.5
 41
0.5
  0
VERTEX
  5
B2
  8
0
  6
BYBLOCK
 62
     0
 10
-6.35
 20
0.0
 30
0.0
 42
1.0
  0
VERTEX
  5
B3
  8
0
  6
BYBLOCK
 62
     0
 10
6.35
 20
0.0
 30
0.0
 42
1.0
  0
SEQEND
  5
ED
  8
0
  6
BYBLOCK
 62
     0
  0
ENDBLK
  5
EF
  8
0
  0
BLOCK
  8
0
  2
$ARROW4$
 70
     0
 10
0.0
 20
0.0
 30
0.0
  3
$ARROW4$
  1

  0
LINE
  5
3F
  8
0
  6
BYBLOCK
 62
     0
 10
12.7
 20
12.7
 30
0.0
 11
-12.7
 21
-12.7
 31
0.0
  0
ENDBLK
  5
F1
  8
0
  0
BLOCK
  8
0
  2
$ARROW5$
 70
     0
 10
0.0
 20
0.0
 30
0.0
  3
$ARROW5$
  1

  0
LINE
  5
43
  8
0
  6
BYBLOCK
 62
     0
 10
12.7
 20
12.7
 30
0.0
 11
-12.7
 21
-12.7
 31
0.0
  0
LINE
  5
44
  8
0
  6
BYBLOCK
 62
     0
 10
-12.7
 20
12.7
 30
0.0
 11
12.7
 21
-12.7
 31
0.0
  0
ENDBLK
  5
F3
  8
0
  0
BLOCK
  8
0
  2
BORDER
 70
     0
 10
0.0
 20
0.0
 30
0.0
  3
BORDER
  1

  0
LINE
  5
48
  8
0
 62
     6
 10
0.0
 20
0.0
 30
0.0
 11
1.0
 21
0.0
 31
0.0
  0
LINE
  5
49
  8
0
 62
     6
 10
1.0
 20
0.0
 30
0.0
 11
1.0
 21
1.0
 31
0.0
  0
LINE
  5
4A
  8
0
 62
     6
 10
1.0
 20
1.0
 30
0.0
 11
0.0
 21
1.0
 31
0.0
  0
LINE
  5
4B
  8
0
 62
     6
 10
0.0
 20
1.0
 30
0.0
 11
0.0
 21
0.0
 31
0.0
  0
ENDBLK
  5
F5
  8
0
  0
BLOCK
  8
0
  2
213A
 70
     0
 10
0.0
 20
0.0
 30
0.0
  3
213A
  1

  0
ARC
  5
4F
  8
0
 62
     6
 10
25.0
 20
-43.5
 30
0.0
 40
3.0
 50
270.0
 51
0.0
  0
ARC
  5
50
  8
0
 62
     6
 10
-25.0
 20
-43.5
 30
0.0
 40
3.0
 50
180.0
 51
270.0
  0
ARC
  5
51
  8
0
 62
     6
 10
-25.0
 20
43.5
 30
0.0
 40
3.0
 50
90.0
 51
180.0
  0
ARC
  5
52
  8
0
 62
     6
 10
25.0
 20
43.5
 30
0.0
 40
3.0
 50
0.0
 51
90.0
  0
CIRCLE
  5
53
  8
0
 62
     6
 10
0.0
 20
0.0
 30
0.0
 40
7.0
  0
CIRCLE
  5
54
  8
0
 62
     6
 10
0.0
 20
0.0
 30
0.0
 40
9.50393
  0
CIRCLE
  5
55
  8
0
 62
     6
 10
0.0
 20
0.0
 30
0.0
 40
18.0
  0
LINE
  5
56
  8
0
 62
     6
 10
21.0
 20
46.5
 30
0.0
 11
21.0
 21
-46.5
 31
0.0
  0
LINE
  5
57
  8
0
 62
     6
 10
-21.0
 20
46.5
 30
0.0
 11
-21.0
 21
-46.5
 31
0.0
  0
LINE
  5
58
  8
0
 62
     6
 10
-28.0
 20
43.5
 30
0.0
 11
-28.0
 21
-43.5
 31
0.0
  0
LINE
  5
59
  8
0
 62
     6
 10
-25.0
 20
-46.5
 30
0.0
 11
25.0
 21
-46.5
 31
0.0
  0
LINE
  5
5A
  8
0
 62
     6
 10
28.0
 20
43.5
 30
0.0
 11
28.0
 21
-43.5
 31
0.0
  0
LINE
  5
5B
  8
0
 62
     6
 10
-25.0
 20
46.5
 30
0.0
 11
25.0
 21
46.5
 31
0.0
  0
CIRCLE
  5
5C
  8
0
 62
     6
 10
0.0
 20
0.0
 30
0.0
 40
6.0
  0
ENDBLK
  5
F7
  8
0
  0
BLOCK
  8
0
  2
213B
 70
     0
 10
0.0
 20
0.0
 30
0.0
  3
213B
  1

  0
LINE
  5
60
  8
0
 62
     6
 10
10.30933
 20
-37.99082
 30
0.0
 11
10.30933
 21
-24.06462
 31
0.0
  0
LINE
  5
61
  8
0
 62
     6
 10
10.30933
 20
-24.06462
 30
0.0
 11
10.30933
 21
-11.5
 31
0.0
  0
LINE
  5
62
  8
0
 62
     6
 10
10.30933
 20
-11.5
 30
0.0
 11
12.0
 21
-6.0
 31
0.0
  0
LINE
  5
63
  8
0
 62
     6
 10
12.0
 20
-6.0
 30
0.0
 11
12.0
 21
0.0
 31
0.0
  0
LINE
  5
64
  8
0
 62
     6
 10
12.0
 20
0.0
 30
0.0
 11
12.0
 21
6.0
 31
0.0
  0
LINE
  5
65
  8
0
 62
     6
 10
8.9093
 20
-11.34977
 30
0.0
 11
10.59997
 21
-5.84977
 31
0.0
  0
LINE
  5
66
  8
0
 62
     6
 10
10.59997
 20
-5.84977
 30
0.0
 11
10.59997
 21
0.0
 31
0.0
  0
LINE
  5
67
  8
0
 62
     6
 10
8.9093
 20
-11.34977
 30
0.0
 11
8.9093
 21
-21.24396
 31
0.0
  0
LINE
  5
68
  8
0
 62
     6
 10
8.9093
 20
-21.24396
 30
0.0
 11
0.0
 21
-22.81491
 31
0.0
  0
LINE
  5
69
  8
0
 62
     6
 10
10.30933
 20
-37.99082
 30
0.0
 11
0.0
 21
-36.17301
 31
0.0
  0
LINE
  5
6A
  8
0
 62
     6
 10
10.30933
 20
37.99082
 30
0.0
 11
0.0
 21
36.17301
 31
0.0
  0
LINE
  5
6B
  8
0
 62
     6
 10
8.9093
 20
21.24396
 30
0.0
 11
0.0
 21
22.81491
 31
0.0
  0
CIRCLE
  5
6C
  8
0
 62
     6
 10
115.0
 20
0.0
 30
0.0
 40
2.0
  0
LINE
  5
6D
  8
0
 62
     6
 10
125.0
 20
-5.0
 30
0.0
 11
123.0
 21
-7.0
 31
0.0
  0
LINE
  5
6E
  8
0
 62
     6
 10
123.0
 20
7.0
 30
0.0
 11
125.0
 21
5.0
 31
0.0
  0
LINE
  5
6F
  8
0
 62
     6
 10
123.0
 20
7.0
 30
0.0
 11
123.0
 21
-7.0
 31
0.0
  0
LINE
  5
70
  8
0
 62
     6
 10
123.0
 20
-7.0
 30
0.0
 11
24.16418
 21
-7.0
 31
0.0
  0
LINE
  5
71
  8
0
 62
     6
 10
123.0
 20
7.0
 30
0.0
 11
24.16418
 21
7.0
 31
0.0
  0
LINE
  5
72
  8
0
 62
     6
 10
125.0
 20
5.0
 30
0.0
 11
125.0
 21
-5.0
 31
0.0
  0
LINE
  5
73
  8
0
 62
     6
 10
8.9093
 20
11.34977
 30
0.0
 11
8.9093
 21
21.24396
 31
0.0
  0
LINE
  5
74
  8
0
 62
     6
 10
10.59997
 20
5.84977
 30
0.0
 11
10.59997
 21
0.0
 31
0.0
  0
LINE
  5
75
  8
0
 62
     6
 10
8.9093
 20
11.34977
 30
0.0
 11
10.59997
 21
5.84977
 31
0.0
  0
LINE
  5
76
  8
0
 62
     6
 10
12.0
 20
0.0
 30
0.0
 11
12.0
 21
-6.0
 31
0.0
  0
LINE
  5
77
  8
0
 62
     6
 10
12.0
 20
6.0
 30
0.0
 11
12.0
 21
0.0
 31
0.0
  0
LINE
  5
78
  8
0
 62
     6
 10
10.30933
 20
11.5
 30
0.0
 11
12.0
 21
6.0
 31
0.0
  0
LINE
  5
79
  8
0
 62
     6
 10
10.30933
 20
24.06462
 30
0.0
 11
10.30933
 21
11.5
 31
0.0
  0
LINE
  5
7A
  8
0
 62
     6
 10
0.0
 20
-22.81491
 30
0.0
 11
0.0
 21
22.81491
 31
0.0
  0
LINE
  5
7B
  8
0
 62
     6
 10
0.0
 20
36.17301
 30
0.0
 11
0.0
 21
46.5
 31
0.0
  0
LINE
  5
7C
  8
0
 62
     6
 10
10.30933
 20
37.99082
 30
0.0
 11
10.30933
 21
24.06462
 31
0.0
  0
LINE
  5
7D
  8
0
 62
     6
 10
25.0
 20
0.0
 30
0.0
 11
21.0
 21
-33.5
 31
0.0
  0
LINE
  5
7E
  8
0
 62
     6
 10
21.0
 20
33.5
 30
0.0
 11
25.0
 21
0.0
 31
0.0
  0
ARC
  5
7F
  8
0
 62
     6
 10
10.0
 20
-33.5
 30
0.0
 40
11.0
 50
270.0
 51
0.0
  0
LINE
  5
80
  8
0
 62
     6
 10
10.0
 20
-44.5
 30
0.0
 11
0.0
 21
-46.5
 31
0.0
  0
LINE
  5
81
  8
0
 62
     6
 10
10.0
 20
44.5
 30
0.0
 11
0.0
 21
46.5
 31
0.0
  0
ARC
  5
82
  8
0
 62
     6
 10
10.0
 20
33.5
 30
0.0
 40
11.0
 50
0.0
 51
90.0
  0
LINE
  5
83
  8
0
 62
     6
 10
0.0
 20
-46.5
 30
0.0
 11
0.0
 21
-36.17301
 31
0.0
  0
ENDBLK
  5
F9
  8
0
  0
BLOCK
  8
0
  2
213C
 70
     0
 10
0.0
 20
0.0
 30
0.0
  3
213C
  1

  0
LINE
  5
87
  8
0
 62
     6
 10
7.0
 20
-12.0
 30
0.0
 11
-7.0
 21
-12.0
 31
0.0
  0
LINE
  5
88
  8
0
 62
     6
 10
5.0
 20
-112.83582
 30
0.0
 11
-5.0
 21
-112.83582
 31
0.0
  0
LINE
  5
89
  8
0
 62
     6
 10
7.0
 20
-110.83582
 30
0.0
 11
7.0
 21
-12.0
 31
0.0
  0
LINE
  5
8A
  8
0
 62
     6
 10
-7.0
 20
-110.83582
 30
0.0
 11
-7.0
 21
-12.0
 31
0.0
  0
LINE
  5
8B
  8
0
 62
     6
 10
7.0
 20
-110.83582
 30
0.0
 11
-7.0
 21
-110.83582
 31
0.0
  0
LINE
  5
8C
  8
0
 62
     6
 10
7.0
 20
-110.83582
 30
0.0
 11
5.0
 21
-112.83582
 31
0.0
  0
LINE
  5
8D
  8
0
 62
     6
 10
-5.0
 20
-112.83582
 30
0.0
 11
-7.0
 21
-110.83582
 31
0.0
  0
CIRCLE
  5
8E
  8
0
 62
     6
 10
0.0
 20
-102.83582
 30
0.0
 40
2.0
  0
LINE
  5
8F
  8
0
 62
     6
 10
-21.0
 20
-22.0
 30
0.0
 11
-28.0
 21
-22.0
 31
0.0
  0
LINE
  5
90
  8
0
 62
     6
 10
9.50393
 20
-12.0
 30
0.0
 11
9.50393
 21
-11.0
 31
0.0
  0
LINE
  5
91
  8
0
 62
     6
 10
-9.50393
 20
-12.0
 30
0.0
 11
-9.50393
 21
-11.0
 31
0.0
  0
LINE
  5
92
  8
0
 62
     6
 10
9.50393
 20
-12.0
 30
0.0
 11
-9.50393
 21
-12.0
 31
0.0
  0
LINE
  5
93
  8
0
 62
     6
 10
-18.0
 20
-8.0
 30
0.0
 11
-9.50393
 21
-11.0
 31
0.0
  0
LINE
  5
94
  8
0
 62
     6
 10
18.0
 20
-8.0
 30
0.0
 11
9.50393
 21
-11.0
 31
0.0
  0
LINE
  5
95
  8
0
 62
     6
 10
21.0
 20
-8.0
 30
0.0
 11
-21.0
 21
-8.0
 31
0.0
  0
LINE
  5
96
  8
0
 62
     6
 10
9.50393
 20
-11.0
 30
0.0
 11
-9.50393
 21
-11.0
 31
0.0
  0
LINE
  5
97
  8
0
 62
     6
 10
21.0
 20
-8.0
 30
0.0
 11
21.0
 21
-22.0
 31
0.0
  0
LINE
  5
98
  8
0
 62
     6
 10
-21.0
 20
-8.0
 30
0.0
 11
-21.0
 21
-22.0
 31
0.0
  0
LINE
  5
99
  8
0
 62
     6
 10
28.0
 20
0.0
 30
0.0
 11
28.0
 21
-22.0
 31
0.0
  0
LINE
  5
9A
  8
0
 62
     6
 10
-28.0
 20
-22.0
 30
0.0
 11
-28.0
 21
0.0
 31
0.0
  0
LINE
  5
9B
  8
0
 62
     6
 10
28.0
 20
-22.0
 30
0.0
 11
21.0
 21
-22.0
 31
0.0
  0
LINE
  5
9C
  8
0
 62
     6
 10
28.0
 20
0.0
 30
0.0
 11
-28.0
 21
0.0
 31
0.0
  0
ENDBLK
  5
FB
  8
0
  0
ENDSEC
  0
SECTION
  2
ENTITIES
  0
INSERT
  5
9E
  8
0
  2
213A
 10
-78.5
 20
65.66791000000001
 30
0.0
  0
INSERT
  5
9F
  8
0
  2
213B
 10
-18.5
 20
65.66791000000001
 30
0.0
  0
INSERT
  5
A0
  8
0
  2
213C
 10
-78.5
 20
0.66791
 30
0.0
  0
ENDSEC
  0
EOF
