  0
SECTION
  2
HEADER
  9
$ACADVER
  1
AC1014
  9
$ACADMAINTVER
 70
     9
  9
$DWGCODEPAGE
  3
ANSI_1252
  9
$INSBASE
 10
0.0
 20
0.0
 30
0.0
  9
$EXTMIN
 10
-29.5
 20
-62.0
 30
0.0
  9
$EXTMAX
 10
93.209304
 20
14.0
 30
0.0
  9
$LIMMIN
 10
0.0
 20
0.0
  9
$LIMMAX
 10
297.0
 20
210.0
  9
$ORTHOMODE
 70
     0
  9
$REGENMODE
 70
     1
  9
$FILLMODE
 70
     1
  9
$QTEXTMODE
 70
     0
  9
$MIRRTEXT
 70
     1
  9
$DRAGMODE
 70
     2
  9
$LTSCALE
 40
10.0
  9
$OSMODE
 70
    37
  9
$ATTMODE
 70
     1
  9
$TEXTSIZE
 40
0.2
  9
$TRACEWID
 40
0.05
  9
$TEXTSTYLE
  7
STANDARD
  9
$CLAYER
  8
0
  9
$CELTYPE
  6
BYLAYER
  9
$CECOLOR
 62
   256
  9
$CELTSCALE
 40
1.0
  9
$DELOBJ
 70
     1
  9
$DISPSILH
 70
     0
  9
$DIMSCALE
 40
1.0
  9
$DIMASZ
 40
0.18
  9
$DIMEXO
 40
0.0625
  9
$DIMDLI
 40
0.38
  9
$DIMRND
 40
0.0
  9
$DIMDLE
 40
0.0
  9
$DIMEXE
 40
0.18
  9
$DIMTP
 40
0.0
  9
$DIMTM
 40
0.0
  9
$DIMTXT
 40
0.18
  9
$DIMCEN
 40
0.09
  9
$DIMTSZ
 40
0.0
  9
$DIMTOL
 70
     0
  9
$DIMLIM
 70
     0
  9
$DIMTIH
 70
     1
  9
$DIMTOH
 70
     1
  9
$DIMSE1
 70
     0
  9
$DIMSE2
 70
     0
  9
$DIMTAD
 70
     0
  9
$DIMZIN
 70
     0
  9
$DIMBLK
  1

  9
$DIMASO
 70
     1
  9
$DIMSHO
 70
     0
  9
$DIMPOST
  1

  9
$DIMAPOST
  1

  9
$DIMALT
 70
     0
  9
$DIMALTD
 70
     2
  9
$DIMALTF
 40
25.4
  9
$DIMLFAC
 40
1.0
  9
$DIMTOFL
 70
     0
  9
$DIMTVP
 40
0.0
  9
$DIMTIX
 70
     0
  9
$DIMSOXD
 70
     0
  9
$DIMSAH
 70
     0
  9
$DIMBLK1
  1

  9
$DIMBLK2
  1

  9
$DIMSTYLE
  2
STANDARD
  9
$DIMCLRD
 70
     0
  9
$DIMCLRE
 70
     0
  9
$DIMCLRT
 70
     0
  9
$DIMTFAC
 40
1.0
  9
$DIMGAP
 40
0.09
  9
$DIMJUST
 70
     0
  9
$DIMSD1
 70
     0
  9
$DIMSD2
 70
     0
  9
$DIMTOLJ
 70
     1
  9
$DIMTZIN
 70
     0
  9
$DIMALTZ
 70
     0
  9
$DIMALTTZ
 70
     0
  9
$DIMFIT
 70
     3
  9
$DIMUPT
 70
     0
  9
$DIMUNIT
 70
     2
  9
$DIMDEC
 70
     4
  9
$DIMTDEC
 70
     4
  9
$DIMALTU
 70
     2
  9
$DIMALTTD
 70
     2
  9
$DIMTXSTY
  7
STANDARD
  9
$DIMAUNIT
 70
     0
  9
$LUNITS
 70
     2
  9
$LUPREC
 70
     4
  9
$SKETCHINC
 40
0.1
  9
$FILLETRAD
 40
0.0
  9
$AUNITS
 70
     0
  9
$AUPREC
 70
     0
  9
$MENU
  1
sitopluk
  9
$ELEVATION
 40
0.0
  9
$PELEVATION
 40
0.0
  9
$THICKNESS
 40
0.0
  9
$LIMCHECK
 70
     0
  9
$CHAMFERA
 40
0.0
  9
$CHAMFERB
 40
0.0
  9
$CHAMFERC
 40
0.0
  9
$CHAMFERD
 40
0.0
  9
$SKPOLY
 70
     0
  9
$TDCREATE
 40
2450497.872777315
  9
$TDUPDATE
 40
2453594.56034287
  9
$TDINDWG
 40
0.0001208912
  9
$TDUSRTIMER
 40
0.0001208912
  9
$USRTIMER
 70
     1
  9
$ANGBASE
 50
0.0
  9
$ANGDIR
 70
     0
  9
$PDMODE
 70
     0
  9
$PDSIZE
 40
0.0
  9
$PLINEWID
 40
0.0
  9
$COORDS
 70
     1
  9
$SPLFRAME
 70
     0
  9
$SPLINETYPE
 70
     6
  9
$SPLINESEGS
 70
     8
  9
$ATTDIA
 70
     0
  9
$ATTREQ
 70
     1
  9
$HANDLING
 70
     1
  9
$HANDSEED
  5
A5
  9
$SURFTAB1
 70
     6
  9
$SURFTAB2
 70
     6
  9
$SURFTYPE
 70
     6
  9
$SURFU
 70
     6
  9
$SURFV
 70
     6
  9
$UCSNAME
  2

  9
$UCSORG
 10
0.0
 20
0.0
 30
0.0
  9
$UCSXDIR
 10
1.0
 20
0.0
 30
0.0
  9
$UCSYDIR
 10
0.0
 20
1.0
 30
0.0
  9
$PUCSNAME
  2

  9
$PUCSORG
 10
0.0
 20
0.0
 30
0.0
  9
$PUCSXDIR
 10
1.0
 20
0.0
 30
0.0
  9
$PUCSYDIR
 10
0.0
 20
1.0
 30
0.0
  9
$USERI1
 70
     0
  9
$USERI2
 70
     0
  9
$USERI3
 70
     0
  9
$USERI4
 70
     0
  9
$USERI5
 70
     0
  9
$USERR1
 40
0.0
  9
$USERR2
 40
0.0
  9
$USERR3
 40
0.0
  9
$USERR4
 40
0.0
  9
$USERR5
 40
0.0
  9
$WORLDVIEW
 70
     1
  9
$SHADEDGE
 70
     3
  9
$SHADEDIF
 70
    70
  9
$TILEMODE
 70
     1
  9
$MAXACTVP
 70
    48
  9
$PINSBASE
 10
0.0
 20
0.0
 30
0.0
  9
$PLIMCHECK
 70
     0
  9
$PEXTMIN
 10
1.000000000000000E+20
 20
1.000000000000000E+20
 30
1.000000000000000E+20
  9
$PEXTMAX
 10
-1.000000000000000E+20
 20
-1.000000000000000E+20
 30
-1.000000000000000E+20
  9
$PLIMMIN
 10
0.0
 20
0.0
  9
$PLIMMAX
 10
12.0
 20
9.0
  9
$UNITMODE
 70
     0
  9
$VISRETAIN
 70
     1
  9
$PLINEGEN
 70
     0
  9
$PSLTSCALE
 70
     1
  9
$TREEDEPTH
 70
  3020
  9
$PICKSTYLE
 70
     1
  9
$CMLSTYLE
  2
STANDARD
  9
$CMLJUST
 70
     0
  9
$CMLSCALE
 40
1.0
  9
$PROXYGRAPHICS
 70
     1
  9
$MEASUREMENT
 70
     0
  0
ENDSEC
  0
SECTION
  2
CLASSES
  0
CLASS
  1
XRECORD
  2
AcDbXrecord
  3
AutoCAD 2000
 90
        0
280
     0
281
     0
  0
CLASS
  1
LWPOLYLINE
  2
AcDbPolyline
  3
AutoCAD 2000
 90
        0
280
     0
281
     1
  0
CLASS
  1
HATCH
  2
AcDbHatch
  3
AutoCAD 2000
 90
        0
280
     0
281
     1
  0
CLASS
  1
ACDBPLACEHOLDER
  2
AcDbPlaceHolder
  3
ObjectDBX Classes
 90
        0
280
     0
281
     0
  0
CLASS
  1
LAYOUT
  2
AcDbLayout
  3
ObjectDBX Classes
 90
        0
280
     0
281
     0
  0
ENDSEC
  0
SECTION
  2
TABLES
  0
TABLE
  2
VPORT
  5
8
330
0
100
AcDbSymbolTable
 70
     2
  0
VPORT
  5
80
102
{ACAD_XDICTIONARY
360
A3
102
}
330
8
100
AcDbSymbolTableRecord
100
AcDbViewportTableRecord
  2
*ACTIVE
 70
     0
 10
0.0
 20
0.0
 11
1.0
 21
1.0
 12
133.75
 22
74.0
 13
0.0
 23
0.0
 14
0.5
 24
0.5
 15
0.0
 25
0.0
 16
0.0
 26
0.0
 36
1.0
 17
0.0
 27
0.0
 37
0.0
 40
275.0792452830189
 41
1.748582230623819
 42
50.0
 43
0.0
 44
0.0
 50
0.0
 51
0.0
 71
     0
 72
   100
 73
     1
 74
     1
 75
     1
 76
     0
 77
     0
 78
     0
  0
ENDTAB
  0
TABLE
  2
LTYPE
  5
5
330
0
100
AcDbSymbolTable
 70
     1
  0
LTYPE
  5
12
330
5
100
AcDbSymbolTableRecord
100
AcDbLinetypeTableRecord
  2
BYBLOCK
 70
     0
  3

 72
    65
 73
     0
 40
0.0
  0
LTYPE
  5
13
330
5
100
AcDbSymbolTableRecord
100
AcDbLinetypeTableRecord
  2
BYLAYER
 70
     0
  3

 72
    65
 73
     0
 40
0.0
  0
LTYPE
  5
14
330
5
100
AcDbSymbolTableRecord
100
AcDbLinetypeTableRecord
  2
CONTINUOUS
 70
     0
  3
Solid line
 72
    65
 73
     0
 40
0.0
  0
ENDTAB
  0
TABLE
  2
LAYER
  5
2
330
0
100
AcDbSymbolTable
 70
     4
  0
LAYER
  5
E
330
2
100
AcDbSymbolTableRecord
100
AcDbLayerTableRecord
  2
0
 70
     0
 62
     7
  6
CONTINUOUS
  0
LAYER
  5
1F
330
2
100
AcDbSymbolTableRecord
100
AcDbLayerTableRecord
  2
PROFILI
 70
     0
 62
     7
  6
CONTINUOUS
  0
LAYER
  5
20
330
2
100
AcDbSymbolTableRecord
100
AcDbLayerTableRecord
  2
FISSAGGI
 70
     0
 62
     2
  6
CONTINUOUS
  0
LAYER
  5
21
330
2
100
AcDbSymbolTableRecord
100
AcDbLayerTableRecord
  2
PANNELLI
 70
     0
 62
     6
  6
CONTINUOUS
  0
ENDTAB
  0
TABLE
  2
STYLE
  5
3
330
0
100
AcDbSymbolTable
 70
     1
  0
STYLE
  5
F
330
3
100
AcDbSymbolTableRecord
100
AcDbTextStyleTableRecord
  2
STANDARD
 70
     0
 40
0.0
 41
1.0
 50
0.0
 71
     0
 42
0.2
  3
txt
  4

  0
ENDTAB
  0
TABLE
  2
VIEW
  5
6
330
0
100
AcDbSymbolTable
 70
     0
  0
ENDTAB
  0
TABLE
  2
UCS
  5
7
330
0
100
AcDbSymbolTable
 70
     0
  0
ENDTAB
  0
TABLE
  2
APPID
  5
9
330
0
100
AcDbSymbolTable
 70
     1
  0
APPID
  5
10
330
9
100
AcDbSymbolTableRecord
100
AcDbRegAppTableRecord
  2
ACAD
 70
     0
  0
ENDTAB
  0
TABLE
  2
DIMSTYLE
  5
A
330
0
100
AcDbSymbolTable
 70
     1
  0
DIMSTYLE
105
7F
330
A
100
AcDbSymbolTableRecord
100
AcDbDimStyleTableRecord
  2
STANDARD
 70
     0
  3

  4

  5

  6

  7

 40
1.0
 41
0.18
 42
0.0625
 43
0.38
 44
0.18
 45
0.0
 46
0.0
 47
0.0
 48
0.0
140
0.18
141
0.09
142
0.0
143
25.4
144
1.0
145
0.0
146
1.0
147
0.09
 71
     0
 72
     0
 73
     1
 74
     1
 75
     0
 76
     0
 77
     0
 78
     0
170
     0
171
     2
172
     0
173
     0
174
     0
175
     0
176
     0
177
     0
178
     0
270
     2
271
     4
272
     4
273
     2
274
     2
340
F
275
     0
280
     0
281
     0
282
     0
283
     1
284
     0
285
     0
286
     0
287
     3
288
     0
  0
ENDTAB
  0
TABLE
  2
BLOCK_RECORD
  5
1
330
0
100
AcDbSymbolTable
 70
     4
  0
BLOCK_RECORD
  5
18
330
1
100
AcDbSymbolTableRecord
100
AcDbBlockTableRecord
  2
*MODEL_SPACE
  0
BLOCK_RECORD
  5
15
330
1
100
AcDbSymbolTableRecord
100
AcDbBlockTableRecord
  2
*PAPER_SPACE
  0
BLOCK_RECORD
  5
22
330
1
100
AcDbSymbolTableRecord
100
AcDbBlockTableRecord
  2
BORDER
  0
BLOCK_RECORD
  5
29
330
1
100
AcDbSymbolTableRecord
100
AcDbBlockTableRecord
  2
211A
  0
BLOCK_RECORD
  5
45
330
1
100
AcDbSymbolTableRecord
100
AcDbBlockTableRecord
  2
211C
  0
BLOCK_RECORD
  5
56
330
1
100
AcDbSymbolTableRecord
100
AcDbBlockTableRecord
  2
211B
  0
ENDTAB
  0
ENDSEC
  0
SECTION
  2
BLOCKS
  0
BLOCK
  5
19
330
18
100
AcDbEntity
  8
0
100
AcDbBlockBegin
  2
*MODEL_SPACE
 70
     0
 71
     0
 10
0.0
 20
0.0
 30
0.0
  3
*MODEL_SPACE
  1

  0
ENDBLK
  5
1A
330
18
100
AcDbEntity
  8
0
100
AcDbBlockEnd
  0
BLOCK
  5
16
330
15
100
AcDbEntity
 67
     1
  8
0
100
AcDbBlockBegin
  2
*PAPER_SPACE
 70
     0
 71
     0
 10
0.0
 20
0.0
 30
0.0
  3
*PAPER_SPACE
  1

  0
ENDBLK
  5
17
330
15
100
AcDbEntity
 67
     1
  8
0
100
AcDbBlockEnd
  0
BLOCK
  5
23
330
22
100
AcDbEntity
  8
0
100
AcDbBlockBegin
  2
BORDER
 70
     0
 71
     0
 10
0.0
 20
0.0
 30
0.0
  3
BORDER
  1

  0
LINE
  5
24
330
22
100
AcDbEntity
  8
0
100
AcDbLine
 10
0.0
 20
0.0
 30
0.0
 11
1.0
 21
0.0
 31
0.0
  0
LINE
  5
25
330
22
100
AcDbEntity
  8
0
100
AcDbLine
 10
1.0
 20
0.0
 30
0.0
 11
1.0
 21
1.0
 31
0.0
  0
LINE
  5
26
330
22
100
AcDbEntity
  8
0
100
AcDbLine
 10
1.0
 20
1.0
 30
0.0
 11
0.0
 21
1.0
 31
0.0
  0
LINE
  5
27
330
22
100
AcDbEntity
  8
0
100
AcDbLine
 10
0.0
 20
1.0
 30
0.0
 11
0.0
 21
0.0
 31
0.0
  0
ENDBLK
  5
28
330
22
100
AcDbEntity
  8
0
100
AcDbBlockEnd
  0
BLOCK
  5
2A
330
29
100
AcDbEntity
  8
0
100
AcDbBlockBegin
  2
211A
 70
     0
 71
     0
 10
0.0
 20
0.0
 30
0.0
  3
211A
  1

  0
ARC
  5
2B
330
29
100
AcDbEntity
  8
0
100
AcDbCircle
 10
26.5
 20
-11.0
 30
0.0
 40
3.0
100
AcDbArc
 50
270.0
 51
0.0
  0
LINE
  5
2C
330
29
100
AcDbEntity
  8
0
100
AcDbLine
 10
26.5
 20
-11.0
 30
0.0
 11
26.5
 21
-7.0
 31
0.0
  0
ARC
  5
2D
330
29
100
AcDbEntity
  8
0
100
AcDbCircle
 10
23.5
 20
-11.0
 30
0.0
 40
3.0
100
AcDbArc
 50
270.0
 51
0.0
  0
LINE
  5
2E
330
29
100
AcDbEntity
  8
0
100
AcDbLine
 10
26.5
 20
-7.0
 30
0.0
 11
29.5
 21
-7.9
 31
0.0
  0
LINE
  5
2F
330
29
100
AcDbEntity
  8
0
100
AcDbLine
 10
-26.5
 20
-7.0
 30
0.0
 11
-29.5
 21
-7.9
 31
0.0
  0
ARC
  5
30
330
29
100
AcDbEntity
  8
0
100
AcDbCircle
 10
-23.5
 20
-11.0
 30
0.0
 40
3.0
100
AcDbArc
 50
180.0
 51
270.0
  0
LINE
  5
31
330
29
100
AcDbEntity
  8
0
100
AcDbLine
 10
-26.5
 20
-11.0
 30
0.0
 11
-26.5
 21
-7.0
 31
0.0
  0
ARC
  5
32
330
29
100
AcDbEntity
  8
0
100
AcDbCircle
 10
-26.5
 20
-11.0
 30
0.0
 40
3.0
100
AcDbArc
 50
180.0
 51
270.0
  0
LINE
  5
33
330
29
100
AcDbEntity
  8
0
100
AcDbLine
 10
-26.5
 20
-14.0
 30
0.0
 11
26.5
 21
-14.0
 31
0.0
  0
LINE
  5
34
330
29
100
AcDbEntity
  8
0
100
AcDbLine
 10
26.5
 20
-7.0
 30
0.0
 11
-26.5
 21
-7.0
 31
0.0
  0
LINE
  5
35
330
29
100
AcDbEntity
  8
0
100
AcDbLine
 10
-26.45804
 20
-11.5
 30
0.0
 11
26.45804
 21
-11.5
 31
0.0
  0
LINE
  5
36
330
29
100
AcDbEntity
  8
0
100
AcDbLine
 10
-26.45804
 20
11.5
 30
0.0
 11
26.45804
 21
11.5
 31
0.0
  0
LINE
  5
37
330
29
100
AcDbEntity
  8
0
100
AcDbLine
 10
26.5
 20
7.0
 30
0.0
 11
-26.5
 21
7.0
 31
0.0
  0
LINE
  5
38
330
29
100
AcDbEntity
  8
0
100
AcDbLine
 10
-26.5
 20
14.0
 30
0.0
 11
26.5
 21
14.0
 31
0.0
  0
ARC
  5
39
330
29
100
AcDbEntity
  8
0
100
AcDbCircle
 10
-26.5
 20
11.0
 30
0.0
 40
3.0
100
AcDbArc
 50
90.0
 51
180.0
  0
LINE
  5
3A
330
29
100
AcDbEntity
  8
0
100
AcDbLine
 10
-26.5
 20
11.0
 30
0.0
 11
-26.5
 21
7.0
 31
0.0
  0
ARC
  5
3B
330
29
100
AcDbEntity
  8
0
100
AcDbCircle
 10
-23.5
 20
11.0
 30
0.0
 40
3.0
100
AcDbArc
 50
90.0
 51
180.0
  0
LINE
  5
3C
330
29
100
AcDbEntity
  8
0
100
AcDbLine
 10
-26.5
 20
7.0
 30
0.0
 11
-29.5
 21
7.9
 31
0.0
  0
LINE
  5
3D
330
29
100
AcDbEntity
  8
0
100
AcDbLine
 10
26.5
 20
7.0
 30
0.0
 11
29.5
 21
7.9
 31
0.0
  0
ARC
  5
3E
330
29
100
AcDbEntity
  8
0
100
AcDbCircle
 10
23.5
 20
11.0
 30
0.0
 40
3.0
100
AcDbArc
 50
0.0
 51
90.0
  0
LINE
  5
3F
330
29
100
AcDbEntity
  8
0
100
AcDbLine
 10
26.5
 20
11.0
 30
0.0
 11
26.5
 21
7.0
 31
0.0
  0
ARC
  5
40
330
29
100
AcDbEntity
  8
0
100
AcDbCircle
 10
26.5
 20
11.0
 30
0.0
 40
3.0
100
AcDbArc
 50
0.0
 51
90.0
  0
LINE
  5
41
330
29
100
AcDbEntity
  8
0
100
AcDbLine
 10
-29.5
 20
0.0
 30
0.0
 11
29.5
 21
0.0
 31
0.0
  0
LINE
  5
42
330
29
100
AcDbEntity
  8
0
100
AcDbLine
 10
29.5
 20
11.0
 30
0.0
 11
29.5
 21
-11.0
 31
0.0
  0
LINE
  5
43
330
29
100
AcDbEntity
  8
0
100
AcDbLine
 10
-29.5
 20
11.0
 30
0.0
 11
-29.5
 21
-11.0
 31
0.0
  0
ENDBLK
  5
44
330
29
100
AcDbEntity
  8
0
100
AcDbBlockEnd
  0
BLOCK
  5
46
330
45
100
AcDbEntity
  8
0
100
AcDbBlockBegin
  2
211C
 70
     0
 71
     0
 10
0.0
 20
0.0
 30
0.0
  3
211C
  1

  0
LINE
  5
47
330
45
100
AcDbEntity
  8
0
100
AcDbLine
 10
0.0
 20
0.0
 30
0.0
 11
24.3
 21
0.0
 31
0.0
  0
LINE
  5
48
330
45
100
AcDbEntity
  8
0
100
AcDbLine
 10
24.3
 20
-8.25
 30
0.0
 11
33.209304
 21
-6.679049000000001
 31
0.0
  0
LINE
  5
49
330
45
100
AcDbEntity
  8
0
100
AcDbLine
 10
24.3
 20
8.25
 30
0.0
 11
33.209304
 21
6.679049000000001
 31
0.0
  0
LINE
  5
4A
330
45
100
AcDbEntity
  8
0
100
AcDbLine
 10
24.3
 20
8.25
 30
0.0
 11
24.3
 21
-8.25
 31
0.0
  0
LINE
  5
4B
330
45
100
AcDbEntity
  8
0
100
AcDbLine
 10
7.0
 20
14.0
 30
0.0
 11
28.590909
 21
14.0
 31
0.0
  0
LINE
  5
4C
330
45
100
AcDbEntity
  8
0
100
AcDbLine
 10
7.0
 20
14.0
 30
0.0
 11
1.5
 21
8.5
 31
0.0
  0
LINE
  5
4D
330
45
100
AcDbEntity
  8
0
100
AcDbLine
 10
1.5
 20
8.5
 30
0.0
 11
0.0
 21
0.0
 31
0.0
  0
LINE
  5
4E
330
45
100
AcDbEntity
  8
0
100
AcDbLine
 10
7.0
 20
-14.0
 30
0.0
 11
1.5
 21
-8.5
 31
0.0
  0
LINE
  5
4F
330
45
100
AcDbEntity
  8
0
100
AcDbLine
 10
1.5
 20
-8.5
 30
0.0
 11
0.0
 21
0.0
 31
0.0
  0
LINE
  5
50
330
45
100
AcDbEntity
  8
0
100
AcDbLine
 10
28.590909
 20
14.0
 30
0.0
 11
33.0
 21
10.375
 31
0.0
  0
LINE
  5
51
330
45
100
AcDbEntity
  8
0
100
AcDbLine
 10
28.590909
 20
-14.0
 30
0.0
 11
33.0
 21
-10.375
 31
0.0
  0
LINE
  5
52
330
45
100
AcDbEntity
  8
0
100
AcDbLine
 10
7.0
 20
-14.0
 30
0.0
 11
28.590909
 21
-14.0
 31
0.0
  0
LINE
  5
53
330
45
100
AcDbEntity
  8
0
100
AcDbLine
 10
33.051568
 20
-6.706861999999999
 30
0.0
 11
33.0
 21
-10.375
 31
0.0
  0
LINE
  5
54
330
45
100
AcDbEntity
  8
0
100
AcDbLine
 10
33.051568
 20
6.706861999999999
 30
0.0
 11
33.0
 21
10.375
 31
0.0
  0
ENDBLK
  5
55
330
45
100
AcDbEntity
  8
0
100
AcDbBlockEnd
  0
BLOCK
  5
57
330
56
100
AcDbEntity
  8
0
100
AcDbBlockBegin
  2
211B
 70
     0
 71
     0
 10
0.0
 20
0.0
 30
0.0
  3
211B
  1

  0
LINE
  5
58
330
56
100
AcDbEntity
  8
0
100
AcDbLine
 10
-23.921557
 20
-12.0
 30
0.0
 11
23.921557
 21
-12.0
 31
0.0
  0
CIRCLE
  5
59
330
56
100
AcDbEntity
  8
0
100
AcDbCircle
 10
19.5
 20
-5.0
 30
0.0
 40
2.5
  0
LWPOLYLINE
  5
5A
330
56
100
AcDbEntity
  8
0
100
AcDbPolyline
 90
        6
 70
     1
 43
0.0
 10
19.5
 20
-9.5
 10
15.602886
 20
-7.25
 10
15.602886
 20
-2.75
 10
19.5
 20
-0.5
 10
23.397114
 20
-2.75
 10
23.397114
 20
-7.25
  0
CIRCLE
  5
62
330
56
100
AcDbEntity
  8
0
100
AcDbCircle
 10
-19.5
 20
-5.0
 30
0.0
 40
2.5
  0
LWPOLYLINE
  5
63
330
56
100
AcDbEntity
  8
0
100
AcDbPolyline
 90
        6
 70
     1
 43
0.0
 10
-19.5
 20
-9.5
 10
-15.602886
 20
-7.25
 10
-15.602886
 20
-2.75
 10
-19.5
 20
-0.5
 10
-23.397114
 20
-2.75
 10
-23.397114
 20
-7.25
  0
ARC
  5
6B
330
56
100
AcDbEntity
  8
0
100
AcDbCircle
 10
-26.5
 20
-6.780359
 30
0.0
 40
3.0
100
AcDbArc
 50
180.0
 51
199.653824
  0
ARC
  5
6C
330
56
100
AcDbEntity
  8
0
100
AcDbCircle
 10
26.5
 20
-6.780359
 30
0.0
 40
3.0
100
AcDbArc
 50
340.346176
 51
0.0
  0
ARC
  5
6D
330
56
100
AcDbEntity
  8
0
100
AcDbCircle
 10
26.5
 20
3.154726
 30
0.0
 40
3.0
100
AcDbArc
 50
0.0
 51
49.23794600000001
  0
ARC
  5
6E
330
56
100
AcDbEntity
  8
0
100
AcDbCircle
 10
-26.5
 20
3.154726
 30
0.0
 40
3.0
100
AcDbArc
 50
130.762054
 51
180.0
  0
ARC
  5
6F
330
56
100
AcDbEntity
  8
0
100
AcDbCircle
 10
23.921557
 20
-14.0
 30
0.0
 40
3.0
100
AcDbArc
 50
270.0
 51
340.346176
  0
ARC
  5
70
330
56
100
AcDbEntity
  8
0
100
AcDbCircle
 10
-23.921557
 20
-14.0
 30
0.0
 40
3.0
100
AcDbArc
 50
199.653824
 51
270.0
  0
LINE
  5
71
330
56
100
AcDbEntity
  8
0
100
AcDbLine
 10
-23.921557
 20
-17.0
 30
0.0
 11
23.921557
 21
-17.0
 31
0.0
  0
LINE
  5
72
330
56
100
AcDbEntity
  8
0
100
AcDbLine
 10
29.5
 20
3.154726
 30
0.0
 11
29.5
 21
-6.780359
 31
0.0
  0
LINE
  5
73
330
56
100
AcDbEntity
  8
0
100
AcDbLine
 10
29.325226
 20
-7.789368
 30
0.0
 11
26.746782
 21
-15.009009
 31
0.0
  0
LINE
  5
74
330
56
100
AcDbEntity
  8
0
100
AcDbLine
 10
-29.325226
 20
-7.789368
 30
0.0
 11
-26.746782
 21
-15.009009
 31
0.0
  0
ARC
  5
75
330
56
100
AcDbEntity
  8
0
100
AcDbCircle
 10
0.0
 20
-27.586957
 30
0.0
 40
43.586957
100
AcDbArc
 50
49.23794600000001
 51
130.762054
  0
LINE
  5
76
330
56
100
AcDbEntity
  8
0
100
AcDbLine
 10
-12.5
 20
-4.5
 30
0.0
 11
12.5
 21
-4.5
 31
0.0
  0
LINE
  5
77
330
56
100
AcDbEntity
  8
0
100
AcDbLine
 10
-12.5
 20
3.5
 30
0.0
 11
12.5
 21
3.5
 31
0.0
  0
LINE
  5
78
330
56
100
AcDbEntity
  8
0
100
AcDbLine
 10
-12.5
 20
3.5
 30
0.0
 11
-12.5
 21
-4.5
 31
0.0
  0
LINE
  5
79
330
56
100
AcDbEntity
  8
0
100
AcDbLine
 10
12.5
 20
3.5
 30
0.0
 11
12.5
 21
-4.5
 31
0.0
  0
LINE
  5
7A
330
56
100
AcDbEntity
  8
0
100
AcDbLine
 10
-29.5
 20
3.154726
 30
0.0
 11
-29.5
 21
-6.780359
 31
0.0
  0
ENDBLK
  5
7B
330
56
100
AcDbEntity
  8
0
100
AcDbBlockEnd
  0
ENDSEC
  0
SECTION
  2
ENTITIES
  0
INSERT
  5
7C
330
18
100
AcDbEntity
  8
0
100
AcDbBlockReference
  2
211A
 10
0.0
 20
0.0
 30
0.0
  0
INSERT
  5
7D
330
18
100
AcDbEntity
  8
0
100
AcDbBlockReference
  2
211C
 10
60.0
 20
0.0
 30
0.0
  0
INSERT
  5
7E
330
18
100
AcDbEntity
  8
0
100
AcDbBlockReference
  2
211B
 10
0.0
 20
-45.0
 30
0.0
  0
ENDSEC
  0
SECTION
  2
OBJECTS
  0
DICTIONARY
  5
C
330
0
100
AcDbDictionary
  3
ACAD_GROUP
350
D
  3
ACAD_LAYOUT
350
81
  3
ACAD_MLINESTYLE
350
1B
  3
ACDBHEADERROUNDTRIPXREC
350
84
  0
DICTIONARY
  5
A3
330
80
100
AcDbDictionary
280
     1
  3
ACAD_XREC_ROUNDTRIP
360
A4
  0
DICTIONARY
  5
D
102
{ACAD_REACTORS
330
C
102
}
330
C
100
AcDbDictionary
  0
DICTIONARY
  5
81
102
{ACAD_REACTORS
330
C
102
}
330
C
100
AcDbDictionary
  0
DICTIONARY
  5
1B
102
{ACAD_REACTORS
330
C
102
}
330
C
100
AcDbDictionary
  3
STANDARD
350
1C
  0
DICTIONARY
  5
84
102
{ACAD_REACTORS
330
C
102
}
330
C
100
AcDbDictionary
  3
CEPSNTYPE
350
8C
  3
DIMSTYLEDATA
350
A2
  3
FINGERPRINTGUID
350
8D
  3
HYPERLINKBASE
350
87
  3
INSUNITS
350
8B
  3
LAYOUTDICT
350
89
  3
LWETCUNION
350
8A
  3
PSVPSCALE
350
8F
  3
PUCSBASE
350
92
  3
PUCSORGBACK
350
98
  3
PUCSORGBOTTOM
350
94
  3
PUCSORGFRONT
350
97
  3
PUCSORGLEFT
350
95
  3
PUCSORGRIGHT
350
96
  3
PUCSORGTOP
350
93
  3
PUCSORTHOREF
350
90
  3
PUCSORTHOVIEW
350
91
  3
STYLESHEET
350
88
  3
TSTACKALIGN
350
85
  3
TSTACKSIZE
350
86
  3
UCSBASE
350
9B
  3
UCSORGBACK
350
A1
  3
UCSORGBOTTOM
350
9D
  3
UCSORGFRONT
350
A0
  3
UCSORGLEFT
350
9E
  3
UCSORGRIGHT
350
9F
  3
UCSORGTOP
350
9C
  3
UCSORTHOREF
350
99
  3
UCSORTHOVIEW
350
9A
  3
VERSIONGUID
350
8E
  0
XRECORD
  5
A4
102
{ACAD_REACTORS
330
A3
102
}
330
A3
100
AcDbXrecord
102
UCS
 74
     0
 71
     1
 10
0.0
 20
0.0
 30
0.0
 10
1.0
 20
0.0
 30
0.0
 10
0.0
 20
1.0
 30
0.0
146
0.0
 79
     0
102
VIEW
281
     0
  0
MLINESTYLE
  5
1C
102
{ACAD_REACTORS
330
1B
102
}
330
1B
100
AcDbMlineStyle
  2
STANDARD
 70
     0
  3

 62
   256
 51
90.0
 52
90.0
 71
     2
 49
0.5
 62
   256
  6
BYLAYER
 49
-0.5
 62
   256
  6
BYLAYER
  0
XRECORD
  5
8C
102
{ACAD_REACTORS
330
84
102
}
330
84
100
AcDbXrecord
 90
        0
  0
XRECORD
  5
A2
102
{ACAD_REACTORS
330
84
102
}
330
84
100
AcDbXrecord
1000
DSTYLE
1002
{
1070
   340
340
F
1002
}
  0
XRECORD
  5
8D
102
{ACAD_REACTORS
330
84
102
}
330
84
100
AcDbXrecord
  1
{FAEB1C30-E019-11D5-929B-00C0DF256EC4}
  0
XRECORD
  5
87
102
{ACAD_REACTORS
330
84
102
}
330
84
100
AcDbXrecord
  1

  0
XRECORD
  5
8B
102
{ACAD_REACTORS
330
84
102
}
330
84
100
AcDbXrecord
 90
        0
  0
XRECORD
  5
89
102
{ACAD_REACTORS
330
84
102
}
330
84
100
AcDbXrecord
340
81
  0
XRECORD
  5
8A
102
{ACAD_REACTORS
330
84
102
}
330
84
100
AcDbXrecord
 90
    10781
  0
XRECORD
  5
8F
102
{ACAD_REACTORS
330
84
102
}
330
84
100
AcDbXrecord
 40
0.0
  0
XRECORD
  5
92
102
{ACAD_REACTORS
330
84
102
}
330
84
100
AcDbXrecord
340
0
  0
XRECORD
  5
98
102
{ACAD_REACTORS
330
84
102
}
330
84
100
AcDbXrecord
 10
0.0
 20
0.0
 30
0.0
  0
XRECORD
  5
94
102
{ACAD_REACTORS
330
84
102
}
330
84
100
AcDbXrecord
 10
0.0
 20
0.0
 30
0.0
  0
XRECORD
  5
97
102
{ACAD_REACTORS
330
84
102
}
330
84
100
AcDbXrecord
 10
0.0
 20
0.0
 30
0.0
  0
XRECORD
  5
95
102
{ACAD_REACTORS
330
84
102
}
330
84
100
AcDbXrecord
 10
0.0
 20
0.0
 30
0.0
  0
XRECORD
  5
96
102
{ACAD_REACTORS
330
84
102
}
330
84
100
AcDbXrecord
 10
0.0
 20
0.0
 30
0.0
  0
XRECORD
  5
93
102
{ACAD_REACTORS
330
84
102
}
330
84
100
AcDbXrecord
 10
0.0
 20
0.0
 30
0.0
  0
XRECORD
  5
90
102
{ACAD_REACTORS
330
84
102
}
330
84
100
AcDbXrecord
340
0
  0
XRECORD
  5
91
102
{ACAD_REACTORS
330
84
102
}
330
84
100
AcDbXrecord
 70
     0
  0
XRECORD
  5
88
102
{ACAD_REACTORS
330
84
102
}
330
84
100
AcDbXrecord
  1

  0
XRECORD
  5
85
102
{ACAD_REACTORS
330
84
102
}
330
84
100
AcDbXrecord
 90
        1
  0
XRECORD
  5
86
102
{ACAD_REACTORS
330
84
102
}
330
84
100
AcDbXrecord
 90
       70
  0
XRECORD
  5
9B
102
{ACAD_REACTORS
330
84
102
}
330
84
100
AcDbXrecord
340
0
  0
XRECORD
  5
A1
102
{ACAD_REACTORS
330
84
102
}
330
84
100
AcDbXrecord
 10
0.0
 20
0.0
 30
0.0
  0
XRECORD
  5
9D
102
{ACAD_REACTORS
330
84
102
}
330
84
100
AcDbXrecord
 10
0.0
 20
0.0
 30
0.0
  0
XRECORD
  5
A0
102
{ACAD_REACTORS
330
84
102
}
330
84
100
AcDbXrecord
 10
0.0
 20
0.0
 30
0.0
  0
XRECORD
  5
9E
102
{ACAD_REACTORS
330
84
102
}
330
84
100
AcDbXrecord
 10
0.0
 20
0.0
 30
0.0
  0
XRECORD
  5
9F
102
{ACAD_REACTORS
330
84
102
}
330
84
100
AcDbXrecord
 10
0.0
 20
0.0
 30
0.0
  0
XRECORD
  5
9C
102
{ACAD_REACTORS
330
84
102
}
330
84
100
AcDbXrecord
 10
0.0
 20
0.0
 30
0.0
  0
XRECORD
  5
99
102
{ACAD_REACTORS
330
84
102
}
330
84
100
AcDbXrecord
340
0
  0
XRECORD
  5
9A
102
{ACAD_REACTORS
330
84
102
}
330
84
100
AcDbXrecord
 70
     0
  0
XRECORD
  5
8E
102
{ACAD_REACTORS
330
84
102
}
330
84
100
AcDbXrecord
  1
{FAEB1C32-E019-11D5-929B-00C0DF256EC4}
  0
ENDSEC
  0
EOF
