  0
SECTION
  2
HEADER
  9
$ACADVER
  1
AC1009
  9
$DWGCODEPAGE
  3
ansi_1252
  9
$INSBASE
 10
0.0
 20
0.0
 30
0.0
  9
$EXTMIN
 10
-105.22343
 20
-152.75
 30
0.0
  9
$EXTMAX
 10
105.22343
 20
152.75
 30
0.0
  9
$LIMMIN
 10
0.0
 20
0.0
  9
$LIMMAX
 10
12.0
 20
9.0
  9
$ORTHOMODE
 70
     0
  9
$REGENMODE
 70
     1
  9
$FILLMODE
 70
     1
  9
$QTEXTMODE
 70
     0
  9
$MIRRTEXT
 70
     1
  9
$DRAGMODE
 70
     2
  9
$LTSCALE
 40
1.108815
  9
$OSMODE
 70
    37
  9
$ATTMODE
 70
     1
  9
$TEXTSIZE
 40
0.2
  9
$TRACEWID
 40
0.05
  9
$TEXTSTYLE
  7
STANDARD
  9
$CLAYER
  8
0
  9
$CELTYPE
  6
BYBLOCK
  9
$CECOLOR
 62
   256
  9
$DIMSCALE
 40
1.0
  9
$DIMASZ
 40
0.18
  9
$DIMEXO
 40
0.0625
  9
$DIMDLI
 40
0.38
  9
$DIMRND
 40
0.0
  9
$DIMDLE
 40
0.0
  9
$DIMEXE
 40
0.18
  9
$DIMTP
 40
0.0
  9
$DIMTM
 40
0.0
  9
$DIMTXT
 40
0.18
  9
$DIMCEN
 40
0.09
  9
$DIMTSZ
 40
0.0
  9
$DIMTOL
 70
     0
  9
$DIMLIM
 70
     0
  9
$DIMTIH
 70
     1
  9
$DIMTOH
 70
     1
  9
$DIMSE1
 70
     0
  9
$DIMSE2
 70
     0
  9
$DIMTAD
 70
     0
  9
$DIMZIN
 70
     0
  9
$DIMBLK
  1

  9
$DIMASO
 70
     1
  9
$DIMSHO
 70
     1
  9
$DIMPOST
  1

  9
$DIMAPOST
  1

  9
$DIMALT
 70
     0
  9
$DIMALTD
 70
     2
  9
$DIMALTF
 40
25.4
  9
$DIMLFAC
 40
1.0
  9
$DIMTOFL
 70
     0
  9
$DIMTVP
 40
0.0
  9
$DIMTIX
 70
     0
  9
$DIMSOXD
 70
     0
  9
$DIMSAH
 70
     0
  9
$DIMBLK1
  1

  9
$DIMBLK2
  1

  9
$DIMSTYLE
  2
STANDARD
  9
$DIMCLRD
 70
     0
  9
$DIMCLRE
 70
     0
  9
$DIMCLRT
 70
     0
  9
$DIMTFAC
 40
1.0
  9
$DIMGAP
 40
0.09
  9
$LUNITS
 70
     2
  9
$LUPREC
 70
     4
  9
$SKETCHINC
 40
0.1
  9
$FILLETRAD
 40
0.5
  9
$AUNITS
 70
     0
  9
$AUPREC
 70
     0
  9
$MENU
  1
.
  9
$ELEVATION
 40
0.0
  9
$PELEVATION
 40
0.0
  9
$THICKNESS
 40
0.0
  9
$LIMCHECK
 70
     0
  9
$CHAMFERA
 40
0.5
  9
$CHAMFERB
 40
0.5
  9
$SKPOLY
 70
     0
  9
$TDCREATE
 40
2453619.495882234
  9
$TDUPDATE
 40
2453619.495882245
  9
$TDINDWG
 40
0.0000000116
  9
$TDUSRTIMER
 40
0.0000000116
  9
$USRTIMER
 70
     1
  9
$ANGBASE
 50
0.0
  9
$ANGDIR
 70
     0
  9
$PDMODE
 70
     0
  9
$PDSIZE
 40
0.0
  9
$PLINEWID
 40
0.0
  9
$COORDS
 70
     1
  9
$SPLFRAME
 70
     0
  9
$SPLINETYPE
 70
     6
  9
$SPLINESEGS
 70
     8
  9
$ATTDIA
 70
     0
  9
$ATTREQ
 70
     1
  9
$HANDLING
 70
     1
  9
$HANDSEED
  5
15A
  9
$SURFTAB1
 70
     6
  9
$SURFTAB2
 70
     6
  9
$SURFTYPE
 70
     6
  9
$SURFU
 70
     6
  9
$SURFV
 70
     6
  9
$UCSNAME
  2

  9
$UCSORG
 10
0.0
 20
0.0
 30
0.0
  9
$UCSXDIR
 10
1.0
 20
0.0
 30
0.0
  9
$UCSYDIR
 10
0.0
 20
1.0
 30
0.0
  9
$PUCSNAME
  2

  9
$PUCSORG
 10
0.0
 20
0.0
 30
0.0
  9
$PUCSXDIR
 10
1.0
 20
0.0
 30
0.0
  9
$PUCSYDIR
 10
0.0
 20
1.0
 30
0.0
  9
$USERI1
 70
     0
  9
$USERI2
 70
     0
  9
$USERI3
 70
     0
  9
$USERI4
 70
     0
  9
$USERI5
 70
     0
  9
$USERR1
 40
0.0
  9
$USERR2
 40
0.0
  9
$USERR3
 40
0.0
  9
$USERR4
 40
0.0
  9
$USERR5
 40
0.0
  9
$WORLDVIEW
 70
     1
  9
$SHADEDGE
 70
     3
  9
$SHADEDIF
 70
    70
  9
$TILEMODE
 70
     1
  9
$MAXACTVP
 70
    64
  9
$PLIMCHECK
 70
     0
  9
$PEXTMIN
 10
1.000000000000000E+20
 20
1.000000000000000E+20
 30
1.000000000000000E+20
  9
$PEXTMAX
 10
-1.000000000000000E+20
 20
-1.000000000000000E+20
 30
-1.000000000000000E+20
  9
$PLIMMIN
 10
0.0
 20
0.0
  9
$PLIMMAX
 10
12.0
 20
9.0
  9
$UNITMODE
 70
     0
  9
$VISRETAIN
 70
     1
  9
$PLINEGEN
 70
     0
  9
$PSLTSCALE
 70
     1
  0
ENDSEC
  0
SECTION
  2
TABLES
  0
TABLE
  2
VPORT
 70
     1
  0
VPORT
  2
*ACTIVE
 70
     0
 10
0.0
 20
0.0
 11
1.0
 21
1.0
 12
10.42990654205607
 22
4.5
 13
0.0
 23
0.0
 14
0.5
 24
0.5
 15
0.5
 25
0.5
 16
0.0
 26
0.0
 36
1.0
 17
0.0
 27
0.0
 37
0.0
 40
9.0
 41
1.972972972850329
 42
50.0
 43
0.0
 44
0.0
 50
0.0
 51
0.0
 71
     0
 72
   100
 73
     1
 74
     3
 75
     0
 76
     0
 77
     0
 78
     0
  0
ENDTAB
  0
TABLE
  2
LTYPE
 70
     9
  0
LTYPE
  2
CONTINUOUS
 70
     0
  3
Solid Line
 72
    65
 73
     0
 40
0.0
  0
LTYPE
  2
MCDASH1
 70
     0
  3
MiniCad+ Generated
 72
    65
 73
     2
 40
3.381965
 49
2.254514
 49
-1.127451
  0
LTYPE
  2
MCDASH2
 70
     0
  3
MiniCad+ Generated
 72
    65
 73
     2
 40
3.527692
 49
2.469229
 49
-1.058463
  0
LTYPE
  2
MCDASH3
 70
     0
  3
MiniCad+ Generated
 72
    65
 73
     2
 40
6.35
 49
5.291537
 49
-1.058463
  0
LTYPE
  2
MCDASH4
 70
     0
  3
MiniCad+ Generated
 72
    65
 73
     2
 40
7.760767
 49
6.702692
 49
-1.058075
  0
LTYPE
  2
MCDASH5
 70
     0
  3
MiniCad+ Generated
 72
    65
 73
     2
 40
1.058075
 49
0.352692
 49
-0.705383
  0
LTYPE
  2
MCDASH6
 70
     0
  3
MiniCad+ Generated
 72
    65
 73
     4
 40
5.291538
 49
3.175
 49
-1.058075
 49
0.352692
 49
-0.705771
  0
LTYPE
  2
MCDASH7
 70
     0
  3
MiniCad+ Generated
 72
    65
 73
     6
 40
9.525001
 49
3.175
 49
-1.058075
 49
3.175
 49
-1.058463
 49
0.352692
 49
-0.705771
  0
LTYPE
  2
MCDASH8
 70
     0
  3
MiniCad+ Generated
 72
    65
 73
     6
 40
6.350001000000001
 49
3.175
 49
-1.058075
 49
0.352692
 49
-0.705771
 49
0.352692
 49
-0.705771
  0
ENDTAB
  0
TABLE
  2
LAYER
 70
     4
  0
LAYER
  2
0
 70
     0
 62
     7
  6
CONTINUOUS
  0
LAYER
  2
PROFILI
 70
     0
 62
     7
  6
CONTINUOUS
  0
LAYER
  2
FISSAGGI
 70
     0
 62
     2
  6
CONTINUOUS
  0
LAYER
  2
PANNELLI
 70
     0
 62
     6
  6
CONTINUOUS
  0
ENDTAB
  0
TABLE
  2
STYLE
 70
     1
  0
STYLE
  2
STANDARD
 70
     0
 40
0.0
 41
1.0
 50
0.0
 71
     0
 42
0.2
  3
txt
  4

  0
ENDTAB
  0
TABLE
  2
VIEW
 70
     0
  0
ENDTAB
  0
TABLE
  2
UCS
 70
     0
  0
ENDTAB
  0
TABLE
  2
APPID
 70
     1
  0
APPID
  2
ACAD
 70
     0
  0
ENDTAB
  0
TABLE
  2
DIMSTYLE
 70
     1
  0
DIMSTYLE
  2
STANDARD
 70
     0
  3

  4

  5

  6

  7

 40
1.0
 41
0.18
 42
0.0625
 43
0.38
 44
0.18
 45
0.0
 46
0.0
 47
0.0
 48
0.0
140
0.18
141
0.09
142
0.0
143
25.4
144
1.0
145
0.0
146
1.0
147
0.09
 71
     0
 72
     0
 73
     1
 74
     1
 75
     0
 76
     0
 77
     0
 78
     0
170
     0
171
     2
172
     0
173
     0
174
     0
175
     0
176
     0
177
     0
178
     0
  0
ENDTAB
  0
ENDSEC
  0
SECTION
  2
BLOCKS
  0
BLOCK
  8
0
  2
$MODEL_SPACE
 70
     0
 10
0.0
 20
0.0
 30
0.0
  3
$MODEL_SPACE
  1

  0
ENDBLK
  5
155
  8
0
  0
BLOCK
 67
     1
  8
0
  2
$PAPER_SPACE
 70
     0
 10
0.0
 20
0.0
 30
0.0
  3
$PAPER_SPACE
  1

  0
ENDBLK
  5
153
 67
     1
  8
0
  0
BLOCK
  8
0
  2
$ARROW1$
 70
     0
 10
0.0
 20
0.0
 30
0.0
  3
$ARROW1$
  1

  0
SOLID
  5
30
  8
0
 62
     0
 10
-25.4
 20
4.318
 30
0.0
 11
-25.4
 21
-4.318
 31
0.0
 12
0.0
 22
0.0
 32
0.0
 13
0.0
 23
0.0
 33
0.0
  0
ENDBLK
  5
13F
  8
0
  0
BLOCK
  8
0
  2
$ARROW2$
 70
     0
 10
0.0
 20
0.0
 30
0.0
  3
$ARROW2$
  1

  0
SOLID
  5
34
  8
0
 62
     0
 10
-25.4
 20
12.7
 30
0.0
 11
-25.4
 21
-12.7
 31
0.0
 12
0.0
 22
0.0
 32
0.0
 13
0.0
 23
0.0
 33
0.0
  0
ENDBLK
  5
141
  8
0
  0
BLOCK
  8
0
  2
$ARROW3$
 70
     0
 10
0.0
 20
0.0
 30
0.0
  3
$ARROW3$
  1

  0
POLYLINE
  5
38
  8
0
  6
BYBLOCK
 62
     0
 66
     1
 10
0.0
 20
0.0
 30
0.0
 70
     1
 40
0.5
 41
0.5
  0
VERTEX
  5
100
  8
0
  6
BYBLOCK
 62
     0
 10
-6.35
 20
0.0
 30
0.0
 42
1.0
  0
VERTEX
  5
101
  8
0
  6
BYBLOCK
 62
     0
 10
6.35
 20
0.0
 30
0.0
 42
1.0
  0
SEQEND
  5
142
  8
0
  6
BYBLOCK
 62
     0
  0
ENDBLK
  5
144
  8
0
  0
BLOCK
  8
0
  2
$ARROW4$
 70
     0
 10
0.0
 20
0.0
 30
0.0
  3
$ARROW4$
  1

  0
LINE
  5
3F
  8
0
  6
BYBLOCK
 62
     0
 10
12.7
 20
12.7
 30
0.0
 11
-12.7
 21
-12.7
 31
0.0
  0
ENDBLK
  5
146
  8
0
  0
BLOCK
  8
0
  2
$ARROW5$
 70
     0
 10
0.0
 20
0.0
 30
0.0
  3
$ARROW5$
  1

  0
LINE
  5
43
  8
0
  6
BYBLOCK
 62
     0
 10
12.7
 20
12.7
 30
0.0
 11
-12.7
 21
-12.7
 31
0.0
  0
LINE
  5
44
  8
0
  6
BYBLOCK
 62
     0
 10
-12.7
 20
12.7
 30
0.0
 11
12.7
 21
-12.7
 31
0.0
  0
ENDBLK
  5
148
  8
0
  0
BLOCK
  8
0
  2
BORDER
 70
     0
 10
0.0
 20
0.0
 30
0.0
  3
BORDER
  1

  0
LINE
  5
48
  8
0
 62
     6
 10
0.0
 20
0.0
 30
0.0
 11
1.0
 21
0.0
 31
0.0
  0
LINE
  5
49
  8
0
 62
     6
 10
1.0
 20
0.0
 30
0.0
 11
1.0
 21
1.0
 31
0.0
  0
LINE
  5
4A
  8
0
 62
     6
 10
1.0
 20
1.0
 30
0.0
 11
0.0
 21
1.0
 31
0.0
  0
LINE
  5
4B
  8
0
 62
     6
 10
0.0
 20
1.0
 30
0.0
 11
0.0
 21
0.0
 31
0.0
  0
ENDBLK
  5
14A
  8
0
  0
BLOCK
  8
0
  2
199A
 70
     0
 10
0.0
 20
0.0
 30
0.0
  3
199A
  1

  0
LINE
  5
4F
  8
0
 62
     3
 10
-32.4873
 20
20.35026
 30
0.0
 11
-32.4873
 21
-0.5
 31
0.0
  0
LINE
  5
50
  8
0
 62
     3
 10
-25.9873
 20
36.35026
 30
0.0
 11
-27.9873
 21
36.35026
 31
0.0
  0
LINE
  5
51
  8
0
 62
     3
 10
-27.9873
 20
35.35026
 30
0.0
 11
-31.4873
 21
35.35026
 31
0.0
  0
LINE
  5
52
  8
0
 62
     3
 10
-27.9873
 20
19.35026
 30
0.0
 11
-31.4873
 21
19.35026
 31
0.0
  0
ARC
  5
53
  8
0
 62
     3
 10
-28.4873
 20
23.35026
 30
0.0
 40
5.0
 50
126.869888
 51
233.130096
  0
ARC
  5
54
  8
0
 62
     3
 10
-28.4873
 20
31.35026
 30
0.0
 40
5.0
 50
126.869888
 51
233.130096
  0
LINE
  5
55
  8
0
 62
     3
 10
-27.9873
 20
27.35026
 30
0.0
 11
-31.4873
 21
27.35026
 31
0.0
  0
LINE
  5
56
  8
0
 62
     3
 10
-33.4873
 20
23.35026
 30
0.0
 11
-33.4873
 21
31.35026
 31
0.0
  0
LINE
  5
57
  8
0
 62
     3
 10
-25.9873
 20
18.35026
 30
0.0
 11
-27.9873
 21
18.35026
 31
0.0
  0
LINE
  5
58
  8
0
 62
     3
 10
-27.9873
 20
18.35026
 30
0.0
 11
-27.9873
 21
36.35026
 31
0.0
  0
LINE
  5
59
  8
0
 62
     3
 10
32.5127
 20
19.35026
 30
0.0
 11
32.5127
 21
-0.5
 31
0.0
  0
LINE
  5
5A
  8
0
 62
     3
 10
28.0127
 20
18.35026
 30
0.0
 11
28.0127
 21
36.35026
 31
0.0
  0
LINE
  5
5B
  8
0
 62
     3
 10
26.0127
 20
18.35026
 30
0.0
 11
28.0127
 21
18.35026
 31
0.0
  0
LINE
  5
5C
  8
0
 62
     3
 10
35.09527
 20
21.35026
 30
0.0
 11
37.0127
 21
21.35026
 31
0.0
  0
LINE
  5
5D
  8
0
 62
     3
 10
35.41168
 20
22.35026
 30
0.0
 11
38.0127
 21
22.35026
 31
0.0
  0
LINE
  5
5E
  8
0
 62
     3
 10
35.41168
 20
32.35026
 30
0.0
 11
38.0127
 21
32.35026
 31
0.0
  0
LINE
  5
5F
  8
0
 62
     3
 10
35.09527
 20
33.35026
 30
0.0
 11
37.0127
 21
33.35026
 31
0.0
  0
LINE
  5
60
  8
0
 62
     3
 10
38.0127
 20
32.35026
 30
0.0
 11
37.0127
 21
33.35026
 31
0.0
  0
LINE
  5
61
  8
0
 62
     3
 10
38.0127
 20
22.35026
 30
0.0
 11
37.0127
 21
21.35026
 31
0.0
  0
LINE
  5
62
  8
0
 62
     3
 10
37.0127
 20
21.35026
 30
0.0
 11
37.0127
 21
33.35026
 31
0.0
  0
LINE
  5
63
  8
0
 62
     3
 10
38.0127
 20
22.35026
 30
0.0
 11
38.0127
 21
32.35026
 31
0.0
  0
LINE
  5
64
  8
0
 62
     3
 10
28.0127
 20
33.35026
 30
0.0
 11
28.43012
 21
33.35026
 31
0.0
  0
LINE
  5
65
  8
0
 62
     3
 10
28.0127
 20
21.35026
 30
0.0
 11
28.43012
 21
21.35026
 31
0.0
  0
LINE
  5
66
  8
0
 62
     3
 10
28.0127
 20
22.35026
 30
0.0
 11
28.11372
 21
22.35026
 31
0.0
  0
LINE
  5
67
  8
0
 62
     3
 10
28.0127
 20
32.35026
 30
0.0
 11
28.11372
 21
32.35026
 31
0.0
  0
LINE
  5
68
  8
0
 62
     3
 10
35.5127
 20
23.35026
 30
0.0
 11
35.5127
 21
31.35026
 31
0.0
  0
LINE
  5
69
  8
0
 62
     3
 10
30.0127
 20
27.35026
 30
0.0
 11
33.5127
 21
27.35026
 31
0.0
  0
ARC
  5
6A
  8
0
 62
     3
 10
30.5127
 20
31.35026
 30
0.0
 40
5.0
 50
306.869888
 51
53.130096
  0
ARC
  5
6B
  8
0
 62
     3
 10
30.5127
 20
23.35026
 30
0.0
 40
5.0
 50
306.869888
 51
53.130096
  0
ARC
  5
6C
  8
0
 62
     3
 10
33.0127
 20
31.35026
 30
0.0
 40
5.0
 50
126.869888
 51
233.130096
  0
ARC
  5
6D
  8
0
 62
     3
 10
33.0127
 20
23.35026
 30
0.0
 40
5.0
 50
126.869888
 51
233.130096
  0
LINE
  5
6E
  8
0
 62
     3
 10
30.0127
 20
19.35026
 30
0.0
 11
33.5127
 21
19.35026
 31
0.0
  0
LINE
  5
6F
  8
0
 62
     3
 10
30.0127
 20
35.35026
 30
0.0
 11
33.5127
 21
35.35026
 31
0.0
  0
LINE
  5
70
  8
0
 62
     3
 10
26.0127
 20
36.35026
 30
0.0
 11
28.0127
 21
36.35026
 31
0.0
  0
ARC
  5
71
  8
0
 62
     3
 10
0.0127
 20
-48.39947
 30
0.0
 40
70.09999999999999
 50
68.22895800000001
 51
88.36509700000001
  0
ARC
  5
72
  8
0
 62
     3
 10
0.0127
 20
-48.39947
 30
0.0
 40
70.09999999999999
 50
91.63491800000001
 51
111.771057
  0
ARC
  5
73
  8
0
 62
     3
 10
0.0127
 20
103.1
 30
0.0
 40
70.09999999999999
 50
271.6349180000001
 51
291.771057
  0
ARC
  5
74
  8
0
 62
     3
 10
0.0127
 20
103.1
 30
0.0
 40
70.09999999999999
 50
248.228958
 51
268.365097
  0
LINE
  5
75
  8
0
 62
     3
 10
-25.9873
 20
38.0
 30
0.0
 11
-25.9873
 21
16.70053
 31
0.0
  0
LINE
  5
76
  8
0
 62
     3
 10
26.0127
 20
38.0
 30
0.0
 11
26.0127
 21
16.70053
 31
0.0
  0
LINE
  5
77
  8
0
 62
     3
 10
2.0127
 20
-0.5
 30
0.0
 11
32.5127
 21
-0.5
 31
0.0
  0
ARC
  5
78
  8
0
 62
     3
 10
0.0127
 20
36.0
 30
0.0
 40
2.0
 50
0.0
 51
180.0
  0
LINE
  5
79
  8
0
 62
     3
 10
-1.9873
 20
-0.5
 30
0.0
 11
-1.9873
 21
36.0
 31
0.0
  0
LINE
  5
7A
  8
0
 62
     3
 10
2.0127
 20
-0.5
 30
0.0
 11
2.0127
 21
36.0
 31
0.0
  0
LINE
  5
7B
  8
0
  6
MCDASH1
 10
43.0127
 20
151.5
 30
0.0
 11
43.0127
 21
78.5
 31
0.0
  0
LINE
  5
7C
  8
0
 62
     3
 10
32.5127
 20
44.0
 30
0.0
 11
32.5127
 21
35.35026
 31
0.0
  0
LINE
  5
7D
  8
0
 62
     3
 10
-7.4873
 20
64.96857
 30
0.0
 11
-29.52258
 21
59.06423
 31
0.0
  0
LINE
  5
7E
  8
0
  6
MCDASH1
 10
44.0127
 20
122.75
 30
0.0
 11
44.0127
 21
114.25
 31
0.0
  0
LINE
  5
7F
  8
0
  6
MCDASH1
 10
44.0127
 20
160.5
 30
0.0
 11
44.0127
 21
148.5
 31
0.0
  0
LINE
  5
80
  8
0
  6
MCDASH1
 10
44.0127
 20
160.5
 30
0.0
 11
63.0127
 21
160.5
 31
0.0
  0
LINE
  5
81
  8
0
  6
MCDASH1
 10
43.0127
 20
144.25
 30
0.0
 11
63.0127
 21
144.25
 31
0.0
  0
LINE
  5
82
  8
0
  6
MCDASH1
 10
44.0127
 20
114.25
 30
0.0
 11
63.0127
 21
114.25
 31
0.0
  0
LINE
  5
83
  8
0
  6
MCDASH1
 10
44.0127
 20
122.75
 30
0.0
 11
63.0127
 21
122.75
 31
0.0
  0
LINE
  5
84
  8
0
  6
MCDASH1
 10
43.0127
 20
84.25
 30
0.0
 11
63.0127
 21
84.25
 31
0.0
  0
LINE
  5
85
  8
0
  6
MCDASH1
 10
43.0127
 20
92.75
 30
0.0
 11
63.0127
 21
92.75
 31
0.0
  0
LINE
  5
86
  8
0
  6
MCDASH1
 10
43.0127
 20
148.5
 30
0.0
 11
44.0127
 21
148.5
 31
0.0
  0
ARC
  5
87
  8
0
 62
     3
 10
-28.4873
 20
55.20053
 30
0.0
 40
4.0
 50
105.0
 51
180.0
  0
ARC
  5
88
  8
0
 62
     3
 10
39.32693
 20
48.0
 30
0.0
 40
4.0
 50
270.0
 51
327.308014
  0
ARC
  5
89
  8
0
 62
     3
 10
-3.4873
 20
77.46474000000001
 30
0.0
 40
4.0
 50
150.978729
 51
180.0
  0
ARC
  5
8A
  8
0
 62
     3
 10
-3.4873
 20
48.0
 30
0.0
 40
4.0
 50
180.0
 51
270.0
  0
ARC
  5
8B
  8
0
 62
     3
 10
35.36788
 20
147.5
 30
0.0
 40
4.0
 50
90.0
 51
150.978729
  0
LINE
  5
8C
  8
0
 62
     3
 10
42.69328
 20
45.83951
 30
0.0
 11
63.0127
 21
77.5
 31
0.0
  0
LINE
  5
8D
  8
0
 62
     3
 10
-3.4873
 20
44.0
 30
0.0
 11
39.32693
 21
44.0
 31
0.0
  0
LINE
  5
8E
  8
0
 62
     3
 10
31.87012
 20
149.44054
 30
0.0
 11
-6.98506
 21
79.40528000000001
 31
0.0
  0
LINE
  5
8F
  8
0
 62
     3
 10
-7.4873
 20
77.46474000000001
 30
0.0
 11
-7.4873
 21
48.0
 31
0.0
  0
LINE
  5
90
  8
0
 62
     3
 10
35.36788
 20
151.5
 30
0.0
 11
43.0127
 21
151.5
 31
0.0
  0
LINE
  5
91
  8
0
  6
MCDASH1
 10
53.0127
 20
77.5
 30
0.0
 11
63.0127
 21
77.5
 31
0.0
  0
LINE
  5
92
  8
0
  6
MCDASH1
 10
32.5127
 20
58.26984
 30
0.0
 11
53.0127
 21
77.5
 31
0.0
  0
LINE
  5
93
  8
0
  6
MCDASH1
 10
32.5127
 20
58.26984
 30
0.0
 11
32.5127
 21
44.0
 31
0.0
  0
LINE
  5
94
  8
0
 62
     3
 10
43.0127
 20
171.5
 30
0.0
 11
43.0127
 21
151.5
 31
0.0
  0
LINE
  5
95
  8
0
  6
MCDASH1
 10
43.0127
 20
78.5
 30
0.0
 11
-7.4873
 21
64.96857
 31
0.0
  0
LINE
  5
96
  8
0
 62
     3
 10
63.0127
 20
171.5
 30
0.0
 11
63.0127
 21
77.5
 31
0.0
  0
LINE
  5
97
  8
0
 62
     3
 10
43.0127
 20
171.5
 30
0.0
 11
63.0127
 21
171.5
 31
0.0
  0
LINE
  5
98
  8
0
 62
     3
 10
-32.4873
 20
-0.5
 30
0.0
 11
-1.9873
 21
-0.5
 31
0.0
  0
LINE
  5
99
  8
0
 62
     3
 10
-32.4873
 20
55.20053
 30
0.0
 11
-32.4873
 21
34.35026
 31
0.0
  0
ENDBLK
  5
14C
  8
0
  0
BLOCK
  8
0
  2
199B
 70
     0
 10
0.0
 20
0.0
 30
0.0
  3
199B
  1

  0
LINE
  5
9D
  8
0
 62
     3
 10
36.03775
 20
18.87028
 30
0.0
 11
19.68797
 21
17.20053
 31
0.0
  0
LINE
  5
9E
  8
0
 62
     3
 10
36.03775
 20
36.83025
 30
0.0
 11
19.68797
 21
38.5
 31
0.0
  0
POLYLINE
  5
9F
  8
0
 62
     3
 66
     1
 10
0.0
 20
0.0
 30
0.0
 70
     1
  0
VERTEX
  5
103
  8
0
 62
     3
 10
25.22572
 20
35.85026
 30
0.0
  0
VERTEX
  5
104
  8
0
 62
     3
 10
20.60692
 20
27.85026
 30
0.0
  0
VERTEX
  5
105
  8
0
 62
     3
 10
25.22572
 20
19.85026
 30
0.0
  0
VERTEX
  5
106
  8
0
 62
     3
 10
34.46333
 20
19.85026
 30
0.0
  0
VERTEX
  5
107
  8
0
 62
     3
 10
39.08213
 20
27.85026
 30
0.0
  0
VERTEX
  5
108
  8
0
 62
     3
 10
34.46333
 20
35.85026
 30
0.0
  0
SEQEND
  5
14D
  8
0
 62
     3
  0
ARC
  5
A7
  8
0
 62
     3
 10
35.42081
 20
22.82241
 30
0.0
 40
4.0
 50
278.872452
 51
339.250427
  0
ARC
  5
A8
  8
0
 62
     3
 10
35.42081
 20
32.87811
 30
0.0
 40
4.0
 50
20.749573
 51
81.127548
  0
LINE
  5
A9
  8
0
 62
     3
 10
32.5
 20
18.50898
 30
0.0
 11
32.5
 21
0.0
 31
0.0
  0
ARC
  5
AA
  8
0
 62
     3
 10
22.14973
 20
27.85026
 30
0.0
 40
18.19158
 50
339.250427
 51
20.749573
  0
LINE
  5
AB
  8
0
 62
     3
 10
19.68797
 20
38.5
 30
0.0
 11
19.68797
 21
17.20053
 31
0.0
  0
LINE
  5
AC
  8
0
  6
MCDASH1
 10
-19.0
 20
61.0
 30
0.0
 11
-19.0
 21
0.0
 31
0.0
  0
LINE
  5
AD
  8
0
  6
MCDASH1
 10
19.0
 20
61.0
 30
0.0
 11
19.0
 21
0.0
 31
0.0
  0
LINE
  5
AE
  8
0
  6
MCDASH1
 10
-19.0
 20
61.0
 30
0.0
 11
19.0
 21
61.0
 31
0.0
  0
LINE
  5
AF
  8
0
 62
     3
 10
25.0
 20
152.92995
 30
0.0
 11
35.0
 21
152.92995
 31
0.0
  0
ARC
  5
B0
  8
0
 62
     3
 10
0.0
 20
47.0
 30
0.0
 40
125.0
 50
73.73979199999999
 51
106.260208
  0
LINE
  5
B1
  8
0
 62
     3
 10
-35.0
 20
152.92995
 30
0.0
 11
-25.0
 21
152.92995
 31
0.0
  0
CIRCLE
  5
B2
  8
0
 62
     3
 10
0.0
 20
89.0
 30
0.0
 40
4.25
  0
CIRCLE
  5
B3
  8
0
 62
     3
 10
0.0
 20
119.0
 30
0.0
 40
4.25
  0
LINE
  5
B4
  8
0
  6
MCDASH1
 10
4.25
 20
156.75
 30
0.0
 11
4.25
 21
153.25
 31
0.0
  0
LINE
  5
B5
  8
0
  6
MCDASH1
 10
-4.25
 20
156.75
 30
0.0
 11
-4.25
 21
153.25
 31
0.0
  0
ARC
  5
B6
  8
0
  6
MCDASH1
 10
0.0
 20
156.75
 30
0.0
 40
4.25
 50
0.0
 51
180.0
  0
ARC
  5
B7
  8
0
 62
     3
 10
5.0
 20
149.0
 30
0.0
 40
4.25
 50
270.0
 51
90.0
  0
ARC
  5
B8
  8
0
 62
     3
 10
-5.0
 20
149.0
 30
0.0
 40
4.25
 50
90.0
 51
270.0
  0
LINE
  5
B9
  8
0
 62
     3
 10
-5.0
 20
153.25
 30
0.0
 11
5.0
 21
153.25
 31
0.0
  0
LINE
  5
BA
  8
0
 62
     3
 10
-5.0
 20
144.75
 30
0.0
 11
5.0
 21
144.75
 31
0.0
  0
LINE
  5
BB
  8
0
 62
     3
 10
32.5
 20
44.5
 30
0.0
 11
35.0
 21
44.5
 31
0.0
  0
LINE
  5
BC
  8
0
 62
     3
 10
25.0
 20
152.92995
 30
0.0
 11
25.0
 21
79.0
 31
0.0
  0
ARC
  5
BD
  8
0
 62
     3
 10
0.0
 20
129.78953
 30
0.0
 40
62.0
 50
238.386032
 51
301.613968
  0
ARC
  5
BE
  8
0
 62
     3
 10
0.0
 20
141.69968
 30
0.0
 40
67.5
 50
248.261536
 51
291.738464
  0
LINE
  5
BF
  8
0
 62
     3
 10
25.0
 20
79.0
 30
0.0
 11
32.5
 21
76.99038
 31
0.0
  0
LINE
  5
C0
  8
0
 62
     3
 10
-25.0
 20
79.0
 30
0.0
 11
-32.5
 21
76.99038
 31
0.0
  0
LINE
  5
C1
  8
0
 62
     3
 10
-25.0
 20
152.92995
 30
0.0
 11
-25.0
 21
79.0
 31
0.0
  0
LINE
  5
C2
  8
0
 62
     3
 10
-35.0
 20
44.5
 30
0.0
 11
-32.5
 21
44.5
 31
0.0
  0
LINE
  5
C3
  8
0
 62
     3
 10
-32.5
 20
76.99038
 30
0.0
 11
-32.5
 21
0.0
 31
0.0
  0
LINE
  5
C4
  8
0
 62
     3
 10
32.5
 20
76.99038
 30
0.0
 11
32.5
 21
37.19155
 31
0.0
  0
LINE
  5
C5
  8
0
 62
     3
 10
-35.0
 20
44.5
 30
0.0
 11
-35.0
 21
167.0
 31
0.0
  0
LINE
  5
C6
  8
0
 62
     3
 10
35.0
 20
44.5
 30
0.0
 11
35.0
 21
167.0
 31
0.0
  0
LINE
  5
C7
  8
0
 62
     3
 10
-32.5
 20
0.0
 30
0.0
 11
32.5
 21
0.0
 31
0.0
  0
ENDBLK
  5
14F
  8
0
  0
BLOCK
  8
0
  2
199C
 70
     0
 10
0.0
 20
0.0
 30
0.0
  3
199C
  1

  0
LINE
  5
CB
  8
0
 62
     3
 10
38.84453
 20
28.0
 30
0.0
 11
35.0
 21
28.0
 31
0.0
  0
LINE
  5
CC
  8
0
 62
     3
 10
37.84453
 20
30.0
 30
0.0
 11
37.84453
 21
33.5
 31
0.0
  0
ARC
  5
CD
  8
0
 62
     3
 10
33.84453
 20
33.0
 30
0.0
 40
5.0
 50
283.361526
 51
323.130096
  0
ARC
  5
CE
  8
0
 62
     3
 10
33.84453
 20
30.5
 30
0.0
 40
5.0
 50
36.869904
 51
76.638474
  0
LINE
  5
CF
  8
0
 62
     3
 10
35.84453
 20
28.0
 30
0.0
 11
35.84453
 21
28.41742
 31
0.0
  0
LINE
  5
D0
  8
0
 62
     3
 10
35.0
 20
37.84453
 30
0.0
 11
35.84453
 21
37.0
 31
0.0
  0
LINE
  5
D1
  8
0
 62
     3
 10
35.84453
 20
35.08258
 30
0.0
 11
35.84453
 21
37.0
 31
0.0
  0
LINE
  5
D2
  8
0
 62
     3
 10
38.84453
 20
26.0
 30
0.0
 11
38.84453
 21
28.0
 31
0.0
  0
LINE
  5
D3
  8
0
 62
     3
 10
38.84453
 20
-28.0
 30
0.0
 11
20.84453
 21
-28.0
 31
0.0
  0
LINE
  5
D4
  8
0
 62
     3
 10
38.84453
 20
-26.0
 30
0.0
 11
38.84453
 21
-28.0
 31
0.0
  0
LINE
  5
D5
  8
0
 62
     3
 10
33.84453
 20
-33.5
 30
0.0
 11
25.84453
 21
-33.5
 31
0.0
  0
LINE
  5
D6
  8
0
 62
     3
 10
29.84453
 20
-28.0
 30
0.0
 11
29.84453
 21
-31.5
 31
0.0
  0
ARC
  5
D7
  8
0
 62
     3
 10
25.84453
 20
-28.5
 30
0.0
 40
5.0
 50
216.869888
 51
323.130096
  0
ARC
  5
D8
  8
0
 62
     3
 10
33.84453
 20
-28.5
 30
0.0
 40
5.0
 50
216.869888
 51
323.130096
  0
LINE
  5
D9
  8
0
 62
     3
 10
37.84453
 20
-28.0
 30
0.0
 11
37.84453
 21
-31.5
 31
0.0
  0
LINE
  5
DA
  8
0
 62
     3
 10
21.84453
 20
-28.0
 30
0.0
 11
21.84453
 21
-31.5
 31
0.0
  0
LINE
  5
DB
  8
0
 62
     3
 10
20.84453
 20
-26.0
 30
0.0
 11
20.84453
 21
-28.0
 31
0.0
  0
LINE
  5
DC
  8
0
 62
     3
 10
40.0
 20
-2.0
 30
0.0
 11
40.0
 21
-26.0
 31
0.0
  0
LINE
  5
DD
  8
0
 62
     3
 10
32.4384
 20
-2.0
 30
0.0
 11
40.0
 21
-2.0
 31
0.0
  0
LINE
  5
DE
  8
0
 62
     3
 10
35.0
 20
2.0
 30
0.0
 11
40.0
 21
2.0
 31
0.0
  0
LINE
  5
DF
  8
0
 62
     3
 10
40.0
 20
26.0
 30
0.0
 11
40.0
 21
2.0
 31
0.0
  0
LINE
  5
E0
  8
0
 62
     3
 10
19.5
 20
-26.0
 30
0.0
 11
40.0
 21
-26.0
 31
0.0
  0
LINE
  5
E1
  8
0
 62
     3
 10
35.0
 20
26.0
 30
0.0
 11
40.0
 21
26.0
 31
0.0
  0
LINE
  5
E2
  8
0
 62
     3
 10
25.0
 20
0.0
 30
0.0
 11
35.0
 21
0.0
 31
0.0
  0
ARC
  5
E3
  8
0
 62
     3
 10
0.0
 20
0.0
 30
0.0
 40
32.5
 50
180.0
 51
0.0
  0
LINE
  5
E4
  8
0
 62
     3
 10
-35.0
 20
0.0
 30
0.0
 11
-25.0
 21
0.0
 31
0.0
  0
LINE
  5
E5
  8
0
 62
     3
 10
25.0
 20
40.5
 30
0.0
 11
25.0
 21
0.0
 31
0.0
  0
LINE
  5
E6
  8
0
 62
     3
 10
-25.0
 20
40.5
 30
0.0
 11
-25.0
 21
0.0
 31
0.0
  0
LINE
  5
E7
  8
0
 62
     3
 10
-35.0
 20
40.5
 30
0.0
 11
35.0
 21
40.5
 31
0.0
  0
LINE
  5
E8
  8
0
 62
     3
 10
-35.0
 20
60.5
 30
0.0
 11
35.0
 21
60.5
 31
0.0
  0
LINE
  5
E9
  8
0
 62
     3
 10
35.0
 20
60.5
 30
0.0
 11
35.0
 21
0.0
 31
0.0
  0
LINE
  5
EA
  8
0
 62
     3
 10
-35.0
 20
60.5
 30
0.0
 11
-35.0
 21
0.0
 31
0.0
  0
ENDBLK
  5
151
  8
0
  0
ENDSEC
  0
SECTION
  2
ENTITIES
  0
INSERT
  5
EC
  8
0
  2
199A
 10
-67.67065
 20
-19.25
 30
0.0
  0
INSERT
  5
ED
  8
0
  2
199B
 10
62.32935
 20
-19.25
 30
0.0
  0
INSERT
  5
EE
  8
0
  2
199C
 10
-67.67065
 20
-119.25
 30
0.0
  0
ENDSEC
  0
EOF
