  0
SECTION
  2
HEADER
  9
$ACADVER
  1
AC1014
  9
$ACADMAINTVER
 70
     9
  9
$DWGCODEPAGE
  3
ANSI_1252
  9
$INSBASE
 10
0.0
 20
0.0
 30
0.0
  9
$EXTMIN
 10
-30.927204
 20
-133.4999999999999
 30
0.0
  9
$EXTMAX
 10
170.3413029999999
 20
172.0
 30
0.0
  9
$LIMMIN
 10
0.0
 20
0.0
  9
$LIMMAX
 10
297.0
 20
210.0
  9
$ORTHOMODE
 70
     0
  9
$REGENMODE
 70
     1
  9
$FILLMODE
 70
     1
  9
$QTEXTMODE
 70
     0
  9
$MIRRTEXT
 70
     1
  9
$DRAGMODE
 70
     2
  9
$LTSCALE
 40
10.0
  9
$OSMODE
 70
    37
  9
$ATTMODE
 70
     1
  9
$TEXTSIZE
 40
0.2
  9
$TRACEWID
 40
0.05
  9
$TEXTSTYLE
  7
STANDARD
  9
$CLAYER
  8
0
  9
$CELTYPE
  6
BYLAYER
  9
$CECOLOR
 62
   256
  9
$CELTSCALE
 40
1.0
  9
$DELOBJ
 70
     1
  9
$DISPSILH
 70
     0
  9
$DIMSCALE
 40
1.0
  9
$DIMASZ
 40
0.18
  9
$DIMEXO
 40
0.0625
  9
$DIMDLI
 40
0.38
  9
$DIMRND
 40
0.0
  9
$DIMDLE
 40
0.0
  9
$DIMEXE
 40
0.18
  9
$DIMTP
 40
0.0
  9
$DIMTM
 40
0.0
  9
$DIMTXT
 40
10.0
  9
$DIMCEN
 40
0.09
  9
$DIMTSZ
 40
0.0
  9
$DIMTOL
 70
     0
  9
$DIMLIM
 70
     0
  9
$DIMTIH
 70
     1
  9
$DIMTOH
 70
     1
  9
$DIMSE1
 70
     0
  9
$DIMSE2
 70
     0
  9
$DIMTAD
 70
     0
  9
$DIMZIN
 70
     0
  9
$DIMBLK
  1

  9
$DIMASO
 70
     1
  9
$DIMSHO
 70
     0
  9
$DIMPOST
  1

  9
$DIMAPOST
  1

  9
$DIMALT
 70
     0
  9
$DIMALTD
 70
     2
  9
$DIMALTF
 40
25.4
  9
$DIMLFAC
 40
1.0
  9
$DIMTOFL
 70
     0
  9
$DIMTVP
 40
0.0
  9
$DIMTIX
 70
     0
  9
$DIMSOXD
 70
     0
  9
$DIMSAH
 70
     0
  9
$DIMBLK1
  1

  9
$DIMBLK2
  1

  9
$DIMSTYLE
  2
STANDARD
  9
$DIMCLRD
 70
     0
  9
$DIMCLRE
 70
     0
  9
$DIMCLRT
 70
     0
  9
$DIMTFAC
 40
1.0
  9
$DIMGAP
 40
0.09
  9
$DIMJUST
 70
     0
  9
$DIMSD1
 70
     0
  9
$DIMSD2
 70
     0
  9
$DIMTOLJ
 70
     1
  9
$DIMTZIN
 70
     0
  9
$DIMALTZ
 70
     0
  9
$DIMALTTZ
 70
     0
  9
$DIMFIT
 70
     5
  9
$DIMUPT
 70
     0
  9
$DIMUNIT
 70
     2
  9
$DIMDEC
 70
     4
  9
$DIMTDEC
 70
     4
  9
$DIMALTU
 70
     2
  9
$DIMALTTD
 70
     2
  9
$DIMTXSTY
  7
STANDARD
  9
$DIMAUNIT
 70
     0
  9
$LUNITS
 70
     2
  9
$LUPREC
 70
     4
  9
$SKETCHINC
 40
0.1
  9
$FILLETRAD
 40
0.0
  9
$AUNITS
 70
     0
  9
$AUPREC
 70
     0
  9
$MENU
  1
sitopluk
  9
$ELEVATION
 40
0.0
  9
$PELEVATION
 40
0.0
  9
$THICKNESS
 40
0.0
  9
$LIMCHECK
 70
     0
  9
$CHAMFERA
 40
0.0
  9
$CHAMFERB
 40
0.0
  9
$CHAMFERC
 40
0.0
  9
$CHAMFERD
 40
0.0
  9
$SKPOLY
 70
     0
  9
$TDCREATE
 40
2447893.083333334
  9
$TDUPDATE
 40
2447893.083333334
  9
$TDINDWG
 40
0.0049856366
  9
$TDUSRTIMER
 40
0.0049856366
  9
$USRTIMER
 70
     1
  9
$ANGBASE
 50
0.0
  9
$ANGDIR
 70
     0
  9
$PDMODE
 70
     0
  9
$PDSIZE
 40
0.0
  9
$PLINEWID
 40
0.0
  9
$COORDS
 70
     1
  9
$SPLFRAME
 70
     0
  9
$SPLINETYPE
 70
     6
  9
$SPLINESEGS
 70
     8
  9
$ATTDIA
 70
     0
  9
$ATTREQ
 70
     1
  9
$HANDLING
 70
     1
  9
$HANDSEED
  5
1E8
  9
$SURFTAB1
 70
     6
  9
$SURFTAB2
 70
     6
  9
$SURFTYPE
 70
     6
  9
$SURFU
 70
     6
  9
$SURFV
 70
     6
  9
$UCSNAME
  2

  9
$UCSORG
 10
0.0
 20
0.0
 30
0.0
  9
$UCSXDIR
 10
1.0
 20
0.0
 30
0.0
  9
$UCSYDIR
 10
0.0
 20
1.0
 30
0.0
  9
$PUCSNAME
  2

  9
$PUCSORG
 10
0.0
 20
0.0
 30
0.0
  9
$PUCSXDIR
 10
1.0
 20
0.0
 30
0.0
  9
$PUCSYDIR
 10
0.0
 20
1.0
 30
0.0
  9
$USERI1
 70
     0
  9
$USERI2
 70
     0
  9
$USERI3
 70
     0
  9
$USERI4
 70
     0
  9
$USERI5
 70
     0
  9
$USERR1
 40
0.0
  9
$USERR2
 40
0.0
  9
$USERR3
 40
0.0
  9
$USERR4
 40
0.0
  9
$USERR5
 40
0.0
  9
$WORLDVIEW
 70
     1
  9
$SHADEDGE
 70
     3
  9
$SHADEDIF
 70
    70
  9
$TILEMODE
 70
     1
  9
$MAXACTVP
 70
    16
  9
$PINSBASE
 10
0.0
 20
0.0
 30
0.0
  9
$PLIMCHECK
 70
     0
  9
$PEXTMIN
 10
1.000000000000000E+20
 20
1.000000000000000E+20
 30
1.000000000000000E+20
  9
$PEXTMAX
 10
-1.000000000000000E+20
 20
-1.000000000000000E+20
 30
-1.000000000000000E+20
  9
$PLIMMIN
 10
0.0
 20
0.0
  9
$PLIMMAX
 10
12.0
 20
9.0
  9
$UNITMODE
 70
     0
  9
$VISRETAIN
 70
     0
  9
$PLINEGEN
 70
     1
  9
$PSLTSCALE
 70
     0
  9
$TREEDEPTH
 70
  3020
  9
$PICKSTYLE
 70
     1
  9
$CMLSTYLE
  2
STANDARD
  9
$CMLJUST
 70
     0
  9
$CMLSCALE
 40
1.0
  9
$PROXYGRAPHICS
 70
     1
  9
$MEASUREMENT
 70
     0
  0
ENDSEC
  0
SECTION
  2
CLASSES
  0
CLASS
  1
ACDBDICTIONARYWDFLT
  2
AcDbDictionaryWithDefault
  3
ObjectDBX Classes
 90
        0
280
     0
281
     0
  0
CLASS
  1
ACDBPLACEHOLDER
  2
AcDbPlaceHolder
  3
ObjectDBX Classes
 90
        0
280
     0
281
     0
  0
CLASS
  1
LAYOUT
  2
AcDbLayout
  3
ObjectDBX Classes
 90
        0
280
     0
281
     0
  0
CLASS
  1
LONG_TRANSACTION
  2
AcDbLongTransaction
  3
AutoCAD 2000
 90
        0
280
     1
281
     0
  0
CLASS
  1
LWPOLYLINE
  2
AcDbPolyline
  3
AutoCAD 2000
 90
        0
280
     0
281
     1
  0
CLASS
  1
HATCH
  2
AcDbHatch
  3
AutoCAD 2000
 90
        0
280
     0
281
     1
  0
CLASS
  1
XRECORD
  2
AcDbXrecord
  3
AutoCAD 2000
 90
        0
280
     0
281
     0
  0
ENDSEC
  0
SECTION
  2
TABLES
  0
TABLE
  2
VPORT
  5
8
330
0
100
AcDbSymbolTable
 70
     1
  0
VPORT
  5
16F
102
{ACAD_XDICTIONARY
360
1E6
102
}
330
8
100
AcDbSymbolTableRecord
100
AcDbViewportTableRecord
  2
*ACTIVE
 70
     0
 10
0.0
 20
0.0
 11
1.0
 21
1.0
 12
138.0542169138025
 22
14.46503311497156
 13
0.0
 23
0.0
 14
0.5
 24
0.5
 15
0.0
 25
0.0
 16
0.0
 26
0.0
 36
1.0
 17
0.0
 27
0.0
 37
0.0
 40
344.1577981520995
 41
2.080597014925372
 42
50.0
 43
0.0
 44
0.0
 50
0.0
 51
0.0
 71
     0
 72
   100
 73
     1
 74
     1
 75
     1
 76
     0
 77
     0
 78
     0
  0
ENDTAB
  0
TABLE
  2
LTYPE
  5
5
330
0
100
AcDbSymbolTable
 70
     2
  0
LTYPE
  5
13
330
5
100
AcDbSymbolTableRecord
100
AcDbLinetypeTableRecord
  2
BYBLOCK
 70
     0
  3

 72
    65
 73
     0
 40
0.0
  0
LTYPE
  5
14
330
5
100
AcDbSymbolTableRecord
100
AcDbLinetypeTableRecord
  2
BYLAYER
 70
     0
  3

 72
    65
 73
     0
 40
0.0
  0
LTYPE
  5
15
330
5
100
AcDbSymbolTableRecord
100
AcDbLinetypeTableRecord
  2
CONTINUOUS
 70
     0
  3
Solid line
 72
    65
 73
     0
 40
0.0
  0
LTYPE
  5
26
330
5
100
AcDbSymbolTableRecord
100
AcDbLinetypeTableRecord
  2
HIDDEN
 70
     0
  3
_ _ _ _ _ _ _ _ _ _ _ _ _ _ _ _ _ _ _ _ _ _ _
 72
    65
 73
     2
 40
0.375
 49
0.25
 74
     0
 49
-0.125
 74
     0
  0
ENDTAB
  0
TABLE
  2
LAYER
  5
2
330
0
100
AcDbSymbolTable
 70
     5
  0
LAYER
  5
10
330
2
100
AcDbSymbolTableRecord
100
AcDbLayerTableRecord
  2
0
 70
     0
 62
     7
  6
CONTINUOUS
  0
LAYER
  5
29
330
2
100
AcDbSymbolTableRecord
100
AcDbLayerTableRecord
  2
PROFILI
 70
     0
 62
     7
  6
CONTINUOUS
  0
LAYER
  5
2A
330
2
100
AcDbSymbolTableRecord
100
AcDbLayerTableRecord
  2
FISSAGGI
 70
     0
 62
     2
  6
CONTINUOUS
  0
LAYER
  5
2B
330
2
100
AcDbSymbolTableRecord
100
AcDbLayerTableRecord
  2
PANNELLI
 70
     0
 62
     6
  6
CONTINUOUS
  0
LAYER
  5
DA
330
2
100
AcDbSymbolTableRecord
100
AcDbLayerTableRecord
  2
DEFPOINTS
 70
     0
 62
     7
  6
CONTINUOUS
  0
ENDTAB
  0
TABLE
  2
STYLE
  5
3
330
0
100
AcDbSymbolTable
 70
     1
  0
STYLE
  5
11
330
3
100
AcDbSymbolTableRecord
100
AcDbTextStyleTableRecord
  2
STANDARD
 70
     0
 40
0.0
 41
1.0
 50
0.0
 71
     0
 42
0.2
  3
txt
  4

  0
ENDTAB
  0
TABLE
  2
VIEW
  5
6
330
0
100
AcDbSymbolTable
 70
     0
  0
ENDTAB
  0
TABLE
  2
UCS
  5
7
330
0
100
AcDbSymbolTable
 70
     0
  0
ENDTAB
  0
TABLE
  2
APPID
  5
9
330
0
100
AcDbSymbolTable
 70
     1
  0
APPID
  5
12
330
9
100
AcDbSymbolTableRecord
100
AcDbRegAppTableRecord
  2
ACAD
 70
     0
  0
ENDTAB
  0
TABLE
  2
DIMSTYLE
  5
A
330
0
100
AcDbSymbolTable
 70
     1
  0
DIMSTYLE
105
28
330
A
100
AcDbSymbolTableRecord
100
AcDbDimStyleTableRecord
  2
STANDARD
 70
     0
  3

  4

  5

  6

  7

 40
1.0
 41
0.18
 42
0.0625
 43
0.38
 44
0.18
 45
0.0
 46
0.0
 47
0.0
 48
0.0
140
10.0
141
0.09
142
0.0
143
25.4
144
1.0
145
0.0
146
1.0
147
0.09
 71
     0
 72
     0
 73
     1
 74
     1
 75
     0
 76
     0
 77
     0
 78
     0
170
     0
171
     2
172
     0
173
     0
174
     0
175
     0
176
     0
177
     0
178
     0
270
     2
271
     4
272
     4
273
     2
274
     2
340
11
275
     0
280
     0
281
     0
282
     0
283
     1
284
     0
285
     0
286
     0
287
     5
288
     0
  0
ENDTAB
  0
TABLE
  2
BLOCK_RECORD
  5
1
330
0
100
AcDbSymbolTable
 70
     4
  0
BLOCK_RECORD
  5
1E
330
1
100
AcDbSymbolTableRecord
100
AcDbBlockTableRecord
  2
*MODEL_SPACE
  0
BLOCK_RECORD
  5
1A
330
1
100
AcDbSymbolTableRecord
100
AcDbBlockTableRecord
  2
*PAPER_SPACE
  0
BLOCK_RECORD
  5
22
330
1
100
AcDbSymbolTableRecord
100
AcDbBlockTableRecord
  2
BORDER
  0
BLOCK_RECORD
  5
23
330
1
100
AcDbSymbolTableRecord
100
AcDbBlockTableRecord
  2
199A
  0
BLOCK_RECORD
  5
24
330
1
100
AcDbSymbolTableRecord
100
AcDbBlockTableRecord
  2
199B
  0
BLOCK_RECORD
  5
25
330
1
100
AcDbSymbolTableRecord
100
AcDbBlockTableRecord
  2
199C
  0
ENDTAB
  0
ENDSEC
  0
SECTION
  2
BLOCKS
  0
BLOCK
  5
2E
330
1E
100
AcDbEntity
  8
0
100
AcDbBlockBegin
  2
*MODEL_SPACE
 70
     0
 71
     0
 10
0.0
 20
0.0
 30
0.0
  3
*MODEL_SPACE
  1

  0
ENDBLK
  5
2F
330
1E
100
AcDbEntity
  8
0
100
AcDbBlockEnd
  0
BLOCK
  5
2C
330
1A
100
AcDbEntity
 67
     1
  8
0
100
AcDbBlockBegin
  2
*PAPER_SPACE
 70
     0
 71
     0
 10
0.0
 20
0.0
 30
0.0
  3
*PAPER_SPACE
  1

  0
ENDBLK
  5
2D
330
1A
100
AcDbEntity
 67
     1
  8
0
100
AcDbBlockEnd
  0
BLOCK
  5
30
330
22
100
AcDbEntity
  8
0
100
AcDbBlockBegin
  2
BORDER
 70
     0
 71
     0
 10
0.0
 20
0.0
 30
0.0
  3
BORDER
  1

  0
LINE
  5
31
330
22
100
AcDbEntity
  8
0
100
AcDbLine
 10
0.0
 20
0.0
 30
0.0
 11
1.0
 21
0.0
 31
0.0
  0
LINE
  5
32
330
22
100
AcDbEntity
  8
0
100
AcDbLine
 10
1.0
 20
0.0
 30
0.0
 11
1.0
 21
1.0
 31
0.0
  0
LINE
  5
33
330
22
100
AcDbEntity
  8
0
100
AcDbLine
 10
1.0
 20
1.0
 30
0.0
 11
0.0
 21
1.0
 31
0.0
  0
LINE
  5
34
330
22
100
AcDbEntity
  8
0
100
AcDbLine
 10
0.0
 20
1.0
 30
0.0
 11
0.0
 21
0.0
 31
0.0
  0
ENDBLK
  5
35
330
22
100
AcDbEntity
  8
0
100
AcDbBlockEnd
  0
BLOCK
  5
36
330
23
100
AcDbEntity
  8
0
100
AcDbBlockBegin
  2
199A
 70
     0
 71
     0
 10
0.0
 20
0.0
 30
0.0
  3
199A
  1

  0
LINE
  5
37
330
23
100
AcDbEntity
  8
0
 62
     3
100
AcDbLine
 10
-32.487304
 20
20.350264
 30
0.0
 11
-32.487304
 21
-0.5
 31
0.0
  0
LINE
  5
38
330
23
100
AcDbEntity
  8
0
 62
     3
100
AcDbLine
 10
-25.987304
 20
36.350264
 30
0.0
 11
-27.987304
 21
36.350264
 31
0.0
  0
LINE
  5
39
330
23
100
AcDbEntity
  8
0
 62
     3
100
AcDbLine
 10
-27.987304
 20
35.350264
 30
0.0
 11
-31.487304
 21
35.350264
 31
0.0
  0
LINE
  5
3A
330
23
100
AcDbEntity
  8
0
 62
     3
100
AcDbLine
 10
-27.987304
 20
19.35026399999999
 30
0.0
 11
-31.487304
 21
19.35026399999999
 31
0.0
  0
ARC
  5
3B
330
23
100
AcDbEntity
  8
0
 62
     3
100
AcDbCircle
 10
-28.487304
 20
23.35026399999999
 30
0.0
 40
5.0
100
AcDbArc
 50
126.869898
 51
233.130102
  0
ARC
  5
3C
330
23
100
AcDbEntity
  8
0
 62
     3
100
AcDbCircle
 10
-28.487304
 20
31.350264
 30
0.0
 40
5.0
100
AcDbArc
 50
126.869898
 51
233.130102
  0
LINE
  5
3D
330
23
100
AcDbEntity
  8
0
 62
     3
100
AcDbLine
 10
-27.987304
 20
27.350264
 30
0.0
 11
-31.487304
 21
27.350264
 31
0.0
  0
LINE
  5
3E
330
23
100
AcDbEntity
  8
0
 62
     3
100
AcDbLine
 10
-33.487304
 20
23.35026399999999
 30
0.0
 11
-33.487304
 21
31.350264
 31
0.0
  0
LINE
  5
3F
330
23
100
AcDbEntity
  8
0
 62
     3
100
AcDbLine
 10
-25.987304
 20
18.350264
 30
0.0
 11
-27.987304
 21
18.350264
 31
0.0
  0
LINE
  5
40
330
23
100
AcDbEntity
  8
0
 62
     3
100
AcDbLine
 10
-27.987304
 20
18.350264
 30
0.0
 11
-27.987304
 21
36.350264
 31
0.0
  0
LINE
  5
41
330
23
100
AcDbEntity
  8
0
 62
     3
100
AcDbLine
 10
32.512696
 20
19.35026399999999
 30
0.0
 11
32.512696
 21
-0.5
 31
0.0
  0
LINE
  5
42
330
23
100
AcDbEntity
  8
0
 62
     3
100
AcDbLine
 10
28.01269599999999
 20
18.350264
 30
0.0
 11
28.01269599999999
 21
36.350264
 31
0.0
  0
LINE
  5
43
330
23
100
AcDbEntity
  8
0
 62
     3
100
AcDbLine
 10
26.012696
 20
18.350264
 30
0.0
 11
28.01269599999999
 21
18.350264
 31
0.0
  0
LINE
  5
44
330
23
100
AcDbEntity
  8
0
 62
     3
100
AcDbLine
 10
35.095272
 20
21.350264
 30
0.0
 11
37.01269599999999
 21
21.350264
 31
0.0
  0
LINE
  5
45
330
23
100
AcDbEntity
  8
0
 62
     3
100
AcDbLine
 10
35.411676
 20
22.350264
 30
0.0
 11
38.01269599999999
 21
22.350264
 31
0.0
  0
LINE
  5
46
330
23
100
AcDbEntity
  8
0
 62
     3
100
AcDbLine
 10
35.411676
 20
32.350264
 30
0.0
 11
38.01269599999999
 21
32.350264
 31
0.0
  0
LINE
  5
47
330
23
100
AcDbEntity
  8
0
 62
     3
100
AcDbLine
 10
35.095272
 20
33.350264
 30
0.0
 11
37.01269599999999
 21
33.350264
 31
0.0
  0
LINE
  5
48
330
23
100
AcDbEntity
  8
0
 62
     3
100
AcDbLine
 10
38.01269599999999
 20
32.350264
 30
0.0
 11
37.01269599999999
 21
33.350264
 31
0.0
  0
LINE
  5
49
330
23
100
AcDbEntity
  8
0
 62
     3
100
AcDbLine
 10
38.01269599999999
 20
22.350264
 30
0.0
 11
37.01269599999999
 21
21.350264
 31
0.0
  0
LINE
  5
4A
330
23
100
AcDbEntity
  8
0
 62
     3
100
AcDbLine
 10
37.01269599999999
 20
21.350264
 30
0.0
 11
37.01269599999999
 21
33.350264
 31
0.0
  0
LINE
  5
4B
330
23
100
AcDbEntity
  8
0
 62
     3
100
AcDbLine
 10
38.01269599999999
 20
22.350264
 30
0.0
 11
38.01269599999999
 21
32.350264
 31
0.0
  0
LINE
  5
4C
330
23
100
AcDbEntity
  8
0
 62
     3
100
AcDbLine
 10
28.01269599999999
 20
33.350264
 30
0.0
 11
28.430121
 21
33.350264
 31
0.0
  0
LINE
  5
4D
330
23
100
AcDbEntity
  8
0
 62
     3
100
AcDbLine
 10
28.01269599999999
 20
21.350264
 30
0.0
 11
28.430121
 21
21.350264
 31
0.0
  0
LINE
  5
4E
330
23
100
AcDbEntity
  8
0
 62
     3
100
AcDbLine
 10
28.01269599999999
 20
22.350264
 30
0.0
 11
28.113717
 21
22.350264
 31
0.0
  0
LINE
  5
4F
330
23
100
AcDbEntity
  8
0
 62
     3
100
AcDbLine
 10
28.01269599999999
 20
32.350264
 30
0.0
 11
28.113717
 21
32.350264
 31
0.0
  0
LINE
  5
50
330
23
100
AcDbEntity
  8
0
 62
     3
100
AcDbLine
 10
35.51269599999999
 20
23.35026399999999
 30
0.0
 11
35.51269599999999
 21
31.350264
 31
0.0
  0
LINE
  5
51
330
23
100
AcDbEntity
  8
0
 62
     3
100
AcDbLine
 10
30.012696
 20
27.350264
 30
0.0
 11
33.512696
 21
27.350264
 31
0.0
  0
ARC
  5
52
330
23
100
AcDbEntity
  8
0
 62
     3
100
AcDbCircle
 10
30.51269599999999
 20
31.350264
 30
0.0
 40
5.0
100
AcDbArc
 50
306.8698979999999
 51
53.130102
  0
ARC
  5
53
330
23
100
AcDbEntity
  8
0
 62
     3
100
AcDbCircle
 10
30.51269599999999
 20
23.35026399999999
 30
0.0
 40
5.0
100
AcDbArc
 50
306.8698979999999
 51
53.130102
  0
ARC
  5
54
330
23
100
AcDbEntity
  8
0
 62
     3
100
AcDbCircle
 10
33.01269599999999
 20
31.350264
 30
0.0
 40
5.0
100
AcDbArc
 50
126.869898
 51
233.130102
  0
ARC
  5
55
330
23
100
AcDbEntity
  8
0
 62
     3
100
AcDbCircle
 10
33.01269599999999
 20
23.35026399999999
 30
0.0
 40
5.0
100
AcDbArc
 50
126.869898
 51
233.130102
  0
LINE
  5
56
330
23
100
AcDbEntity
  8
0
 62
     3
100
AcDbLine
 10
30.012696
 20
19.35026399999999
 30
0.0
 11
33.512696
 21
19.35026399999999
 31
0.0
  0
LINE
  5
57
330
23
100
AcDbEntity
  8
0
 62
     3
100
AcDbLine
 10
30.012696
 20
35.350264
 30
0.0
 11
33.512696
 21
35.350264
 31
0.0
  0
LINE
  5
58
330
23
100
AcDbEntity
  8
0
 62
     3
100
AcDbLine
 10
26.012696
 20
36.350264
 30
0.0
 11
28.01269599999999
 21
36.350264
 31
0.0
  0
ARC
  5
59
330
23
100
AcDbEntity
  8
0
 62
     3
100
AcDbCircle
 10
0.012696
 20
-48.39947200000001
 30
0.0
 40
70.09999999999999
100
AcDbArc
 50
68.22894599999999
 51
88.36509100000001
  0
ARC
  5
5A
330
23
100
AcDbEntity
  8
0
 62
     3
100
AcDbCircle
 10
0.012696
 20
-48.39947200000001
 30
0.0
 40
70.09999999999999
100
AcDbArc
 50
91.63490899999999
 51
111.771054
  0
ARC
  5
5B
330
23
100
AcDbEntity
  8
0
 62
     3
100
AcDbCircle
 10
0.012696
 20
103.0999999999999
 30
0.0
 40
70.09999999999999
100
AcDbArc
 50
271.634909
 51
291.7710539999999
  0
ARC
  5
5C
330
23
100
AcDbEntity
  8
0
 62
     3
100
AcDbCircle
 10
0.012696
 20
103.0999999999999
 30
0.0
 40
70.09999999999999
100
AcDbArc
 50
248.228946
 51
268.365091
  0
LINE
  5
5D
330
23
100
AcDbEntity
  8
0
 62
     3
100
AcDbLine
 10
-25.987304
 20
38.0
 30
0.0
 11
-25.987304
 21
16.70052799999999
 31
0.0
  0
LINE
  5
5E
330
23
100
AcDbEntity
  8
0
 62
     3
100
AcDbLine
 10
26.012696
 20
38.0
 30
0.0
 11
26.012696
 21
16.70052799999999
 31
0.0
  0
LINE
  5
5F
330
23
100
AcDbEntity
  8
0
 62
     3
100
AcDbLine
 10
2.012696
 20
-0.5
 30
0.0
 11
32.512696
 21
-0.5
 31
0.0
  0
ARC
  5
60
330
23
100
AcDbEntity
  8
0
 62
     3
100
AcDbCircle
 10
0.012696
 20
36.0
 30
0.0
 40
2.0
100
AcDbArc
 50
0.0
 51
180.0
  0
LINE
  5
61
330
23
100
AcDbEntity
  8
0
 62
     3
100
AcDbLine
 10
-1.987303999999999
 20
-0.5
 30
0.0
 11
-1.987303999999999
 21
36.0
 31
0.0
  0
LINE
  5
62
330
23
100
AcDbEntity
  8
0
 62
     3
100
AcDbLine
 10
2.012696
 20
-0.5
 30
0.0
 11
2.012696
 21
36.0
 31
0.0
  0
LINE
  5
63
330
23
100
AcDbEntity
  8
0
  6
HIDDEN
 62
     3
100
AcDbLine
 10
43.012696
 20
151.5
 30
0.0
 11
43.012696
 21
78.5
 31
0.0
  0
LINE
  5
64
330
23
100
AcDbEntity
  8
0
 62
     3
100
AcDbLine
 10
32.512696
 20
44.0
 30
0.0
 11
32.512696
 21
35.350264
 31
0.0
  0
LINE
  5
65
330
23
100
AcDbEntity
  8
0
 62
     3
100
AcDbLine
 10
-7.487303999999999
 20
64.968566
 30
0.0
 11
-29.52258
 21
59.064231
 31
0.0
  0
LINE
  5
66
330
23
100
AcDbEntity
  8
0
  6
HIDDEN
 62
     3
100
AcDbLine
 10
44.012696
 20
122.75
 30
0.0
 11
44.012696
 21
114.25
 31
0.0
  0
LINE
  5
67
330
23
100
AcDbEntity
  8
0
  6
HIDDEN
 62
     3
100
AcDbLine
 10
44.012696
 20
160.4999999999999
 30
0.0
 11
44.012696
 21
148.5
 31
0.0
  0
LINE
  5
68
330
23
100
AcDbEntity
  8
0
  6
HIDDEN
 62
     3
100
AcDbLine
 10
44.012696
 20
160.4999999999999
 30
0.0
 11
63.012696
 21
160.4999999999999
 31
0.0
  0
LINE
  5
69
330
23
100
AcDbEntity
  8
0
  6
HIDDEN
 62
     3
100
AcDbLine
 10
43.012696
 20
144.25
 30
0.0
 11
63.012696
 21
144.25
 31
0.0
  0
LINE
  5
6A
330
23
100
AcDbEntity
  8
0
  6
HIDDEN
 62
     3
100
AcDbLine
 10
44.012696
 20
114.25
 30
0.0
 11
63.012696
 21
114.25
 31
0.0
  0
LINE
  5
6B
330
23
100
AcDbEntity
  8
0
  6
HIDDEN
 62
     3
100
AcDbLine
 10
44.012696
 20
122.75
 30
0.0
 11
63.012696
 21
122.75
 31
0.0
  0
LINE
  5
6C
330
23
100
AcDbEntity
  8
0
  6
HIDDEN
 62
     3
100
AcDbLine
 10
43.012696
 20
84.25
 30
0.0
 11
63.012696
 21
84.25
 31
0.0
  0
LINE
  5
6D
330
23
100
AcDbEntity
  8
0
  6
HIDDEN
 62
     3
100
AcDbLine
 10
43.012696
 20
92.75
 30
0.0
 11
63.012696
 21
92.75
 31
0.0
  0
LINE
  5
6E
330
23
100
AcDbEntity
  8
0
  6
HIDDEN
 62
     3
100
AcDbLine
 10
43.012696
 20
148.5
 30
0.0
 11
44.012696
 21
148.5
 31
0.0
  0
ARC
  5
6F
330
23
100
AcDbEntity
  8
0
 62
     3
100
AcDbCircle
 10
-28.487304
 20
55.200528
 30
0.0
 40
4.0
100
AcDbArc
 50
105.0
 51
180.0
  0
ARC
  5
70
330
23
100
AcDbEntity
  8
0
 62
     3
100
AcDbCircle
 10
39.326932
 20
48.0
 30
0.0
 40
4.0
100
AcDbArc
 50
270.0
 51
327.3080160000001
  0
ARC
  5
71
330
23
100
AcDbEntity
  8
0
 62
     3
100
AcDbCircle
 10
-3.487303999999999
 20
77.464737
 30
0.0
 40
4.0
100
AcDbArc
 50
150.9787269999999
 51
180.0
  0
ARC
  5
72
330
23
100
AcDbEntity
  8
0
 62
     3
100
AcDbCircle
 10
-3.487303999999999
 20
48.0
 30
0.0
 40
4.0
100
AcDbArc
 50
180.0
 51
270.0
  0
ARC
  5
73
330
23
100
AcDbEntity
  8
0
 62
     3
100
AcDbCircle
 10
35.367876
 20
147.5
 30
0.0
 40
4.0
100
AcDbArc
 50
90.0
 51
150.9787269999999
  0
LINE
  5
74
330
23
100
AcDbEntity
  8
0
 62
     3
100
AcDbLine
 10
42.693277
 20
45.83950999999999
 30
0.0
 11
63.012696
 21
77.5
 31
0.0
  0
LINE
  5
75
330
23
100
AcDbEntity
  8
0
 62
     3
100
AcDbLine
 10
-3.487303999999999
 20
44.0
 30
0.0
 11
39.326932
 21
44.0
 31
0.0
  0
LINE
  5
76
330
23
100
AcDbEntity
  8
0
 62
     3
100
AcDbLine
 10
31.870118
 20
149.440537
 30
0.0
 11
-6.985062
 21
79.405275
 31
0.0
  0
LINE
  5
77
330
23
100
AcDbEntity
  8
0
 62
     3
100
AcDbLine
 10
-7.487303999999999
 20
77.464737
 30
0.0
 11
-7.487303999999999
 21
48.0
 31
0.0
  0
LINE
  5
78
330
23
100
AcDbEntity
  8
0
 62
     3
100
AcDbLine
 10
35.367876
 20
151.5
 30
0.0
 11
43.012696
 21
151.5
 31
0.0
  0
LINE
  5
79
330
23
100
AcDbEntity
  8
0
  6
HIDDEN
 62
     3
100
AcDbLine
 10
53.012696
 20
77.5
 30
0.0
 11
63.012696
 21
77.5
 31
0.0
  0
LINE
  5
7A
330
23
100
AcDbEntity
  8
0
  6
HIDDEN
 62
     3
100
AcDbLine
 10
32.512696
 20
58.269836
 30
0.0
 11
53.012696
 21
77.5
 31
0.0
  0
LINE
  5
7B
330
23
100
AcDbEntity
  8
0
  6
HIDDEN
 62
     3
100
AcDbLine
 10
32.512696
 20
58.269836
 30
0.0
 11
32.512696
 21
44.0
 31
0.0
  0
LINE
  5
7C
330
23
100
AcDbEntity
  8
0
 62
     3
100
AcDbLine
 10
43.012696
 20
171.5
 30
0.0
 11
43.012696
 21
151.5
 31
0.0
  0
LINE
  5
7D
330
23
100
AcDbEntity
  8
0
  6
HIDDEN
 62
     3
100
AcDbLine
 10
43.012696
 20
78.5
 30
0.0
 11
-7.487303999999999
 21
64.968566
 31
0.0
  0
LINE
  5
7E
330
23
100
AcDbEntity
  8
0
 62
     3
100
AcDbLine
 10
63.012696
 20
171.5
 30
0.0
 11
63.012696
 21
77.5
 31
0.0
  0
LINE
  5
7F
330
23
100
AcDbEntity
  8
0
 62
     3
100
AcDbLine
 10
43.012696
 20
171.5
 30
0.0
 11
63.012696
 21
171.5
 31
0.0
  0
LINE
  5
80
330
23
100
AcDbEntity
  8
0
 62
     3
100
AcDbLine
 10
-32.487304
 20
-0.5
 30
0.0
 11
-1.987303999999999
 21
-0.5
 31
0.0
  0
LINE
  5
81
330
23
100
AcDbEntity
  8
0
 62
     3
100
AcDbLine
 10
-32.487304
 20
55.200528
 30
0.0
 11
-32.487304
 21
34.350264
 31
0.0
  0
ENDBLK
  5
82
330
23
100
AcDbEntity
  8
0
100
AcDbBlockEnd
  0
BLOCK
  5
83
330
24
100
AcDbEntity
  8
0
100
AcDbBlockBegin
  2
199B
 70
     0
 71
     0
 10
0.0
 20
0.0
 30
0.0
  3
199B
  1

  0
LINE
  5
84
330
24
100
AcDbEntity
  8
0
 62
     3
100
AcDbLine
 10
36.03774899999999
 20
18.870278
 30
0.0
 11
19.687967
 21
17.20052799999999
 31
0.0
  0
LINE
  5
85
330
24
100
AcDbEntity
  8
0
 62
     3
100
AcDbLine
 10
36.03774899999999
 20
36.83025
 30
0.0
 11
19.687967
 21
38.5
 31
0.0
  0
LWPOLYLINE
  5
86
330
24
100
AcDbEntity
  8
0
 62
     3
100
AcDbPolyline
 90
        6
 70
     1
 43
0.0
 10
25.225724
 20
35.850264
 10
20.606922
 20
27.850264
 10
25.225724
 20
19.85026399999999
 10
34.463329
 20
19.85026399999999
 10
39.08213099999999
 20
27.850264
 10
34.463329
 20
35.850264
  0
ARC
  5
8E
330
24
100
AcDbEntity
  8
0
 62
     3
100
AcDbCircle
 10
35.420807
 20
22.82241399999999
 30
0.0
 40
4.0
100
AcDbArc
 50
278.872451
 51
339.250429
  0
ARC
  5
8F
330
24
100
AcDbEntity
  8
0
 62
     3
100
AcDbCircle
 10
35.420807
 20
32.87811399999999
 30
0.0
 40
4.0
100
AcDbArc
 50
20.749571
 51
81.127549
  0
LINE
  5
90
330
24
100
AcDbEntity
  8
0
 62
     3
100
AcDbLine
 10
32.5
 20
18.508979
 30
0.0
 11
32.5
 21
0.0
 31
0.0
  0
ARC
  5
91
330
24
100
AcDbEntity
  8
0
 62
     3
100
AcDbCircle
 10
22.149725
 20
27.850264
 30
0.0
 40
18.191578
100
AcDbArc
 50
339.250429
 51
20.749571
  0
LINE
  5
92
330
24
100
AcDbEntity
  8
0
 62
     3
100
AcDbLine
 10
19.687967
 20
38.5
 30
0.0
 11
19.687967
 21
17.20052799999999
 31
0.0
  0
LINE
  5
93
330
24
100
AcDbEntity
  8
0
  6
HIDDEN
 62
     3
100
AcDbLine
 10
-24.15
 20
61.0
 30
0.0
 11
-24.15
 21
0.0
 31
0.0
  0
LINE
  5
94
330
24
100
AcDbEntity
  8
0
  6
HIDDEN
 62
     3
100
AcDbLine
 10
24.15
 20
61.0
 30
0.0
 11
24.15
 21
0.0
 31
0.0
  0
LINE
  5
95
330
24
100
AcDbEntity
  8
0
  6
HIDDEN
 62
     3
100
AcDbLine
 10
-24.15
 20
61.0
 30
0.0
 11
24.15
 21
61.0
 31
0.0
  0
LINE
  5
96
330
24
100
AcDbEntity
  8
0
 62
     3
100
AcDbLine
 10
25.0
 20
152.9299519999999
 30
0.0
 11
35.0
 21
152.9299519999999
 31
0.0
  0
ARC
  5
97
330
24
100
AcDbEntity
  8
0
 62
     3
100
AcDbCircle
 10
0.0
 20
47.0
 30
0.0
 40
125.0
100
AcDbArc
 50
73.739795
 51
106.2602049999999
  0
LINE
  5
98
330
24
100
AcDbEntity
  8
0
 62
     3
100
AcDbLine
 10
-35.0
 20
152.9299519999999
 30
0.0
 11
-25.0
 21
152.9299519999999
 31
0.0
  0
CIRCLE
  5
99
330
24
100
AcDbEntity
  8
0
 62
     3
100
AcDbCircle
 10
0.0
 20
89.0
 30
0.0
 40
4.25
  0
CIRCLE
  5
9A
330
24
100
AcDbEntity
  8
0
 62
     3
100
AcDbCircle
 10
0.0
 20
119.0
 30
0.0
 40
4.25
  0
LINE
  5
9B
330
24
100
AcDbEntity
  8
0
  6
HIDDEN
 62
     3
100
AcDbLine
 10
4.25
 20
156.75
 30
0.0
 11
4.25
 21
153.2499999999999
 31
0.0
  0
LINE
  5
9C
330
24
100
AcDbEntity
  8
0
  6
HIDDEN
 62
     3
100
AcDbLine
 10
-4.25
 20
156.75
 30
0.0
 11
-4.25
 21
153.2499999999999
 31
0.0
  0
ARC
  5
9D
330
24
100
AcDbEntity
  8
0
  6
HIDDEN
 62
     3
100
AcDbCircle
 10
0.0
 20
156.75
 30
0.0
 40
4.25
100
AcDbArc
 50
0.0
 51
180.0
  0
ARC
  5
9E
330
24
100
AcDbEntity
  8
0
 62
     3
100
AcDbCircle
 10
5.0
 20
149.0
 30
0.0
 40
4.25
100
AcDbArc
 50
270.0
 51
90.0
  0
ARC
  5
9F
330
24
100
AcDbEntity
  8
0
 62
     3
100
AcDbCircle
 10
-5.0
 20
149.0
 30
0.0
 40
4.25
100
AcDbArc
 50
90.0
 51
270.0
  0
LINE
  5
A0
330
24
100
AcDbEntity
  8
0
 62
     3
100
AcDbLine
 10
-5.0
 20
153.2499999999999
 30
0.0
 11
5.0
 21
153.2499999999999
 31
0.0
  0
LINE
  5
A1
330
24
100
AcDbEntity
  8
0
 62
     3
100
AcDbLine
 10
-5.0
 20
144.7499999999999
 30
0.0
 11
5.0
 21
144.7499999999999
 31
0.0
  0
LINE
  5
A2
330
24
100
AcDbEntity
  8
0
 62
     3
100
AcDbLine
 10
32.5
 20
44.5
 30
0.0
 11
35.0
 21
44.5
 31
0.0
  0
LINE
  5
A3
330
24
100
AcDbEntity
  8
0
 62
     3
100
AcDbLine
 10
25.0
 20
152.9299519999999
 30
0.0
 11
25.0
 21
79.0
 31
0.0
  0
ARC
  5
A4
330
24
100
AcDbEntity
  8
0
 62
     3
100
AcDbCircle
 10
0.0
 20
129.7895289999999
 30
0.0
 40
62.0
100
AcDbArc
 50
238.3860309999999
 51
301.613969
  0
ARC
  5
A5
330
24
100
AcDbEntity
  8
0
 62
     3
100
AcDbCircle
 10
0.0
 20
141.699681
 30
0.0
 40
67.5
100
AcDbArc
 50
248.2615389999999
 51
291.7384609999999
  0
LINE
  5
A6
330
24
100
AcDbEntity
  8
0
 62
     3
100
AcDbLine
 10
25.0
 20
79.0
 30
0.0
 11
32.5
 21
76.990381
 31
0.0
  0
LINE
  5
A7
330
24
100
AcDbEntity
  8
0
 62
     3
100
AcDbLine
 10
-25.0
 20
79.0
 30
0.0
 11
-32.5
 21
76.990381
 31
0.0
  0
LINE
  5
A8
330
24
100
AcDbEntity
  8
0
 62
     3
100
AcDbLine
 10
-25.0
 20
152.9299519999999
 30
0.0
 11
-25.0
 21
79.0
 31
0.0
  0
LINE
  5
A9
330
24
100
AcDbEntity
  8
0
 62
     3
100
AcDbLine
 10
-35.0
 20
44.5
 30
0.0
 11
-32.5
 21
44.5
 31
0.0
  0
LINE
  5
AA
330
24
100
AcDbEntity
  8
0
 62
     3
100
AcDbLine
 10
-32.5
 20
76.990381
 30
0.0
 11
-32.5
 21
0.0
 31
0.0
  0
LINE
  5
AB
330
24
100
AcDbEntity
  8
0
 62
     3
100
AcDbLine
 10
32.5
 20
76.990381
 30
0.0
 11
32.5
 21
37.191549
 31
0.0
  0
LINE
  5
AC
330
24
100
AcDbEntity
  8
0
 62
     3
100
AcDbLine
 10
-35.0
 20
44.5
 30
0.0
 11
-35.0
 21
167.0
 31
0.0
  0
LINE
  5
AD
330
24
100
AcDbEntity
  8
0
 62
     3
100
AcDbLine
 10
35.0
 20
44.5
 30
0.0
 11
35.0
 21
167.0
 31
0.0
  0
LINE
  5
AE
330
24
100
AcDbEntity
  8
0
 62
     3
100
AcDbLine
 10
-32.5
 20
0.0
 30
0.0
 11
32.5
 21
0.0
 31
0.0
  0
ENDBLK
  5
AF
330
24
100
AcDbEntity
  8
0
100
AcDbBlockEnd
  0
BLOCK
  5
B0
330
25
100
AcDbEntity
  8
0
100
AcDbBlockBegin
  2
199C
 70
     0
 71
     0
 10
0.0
 20
0.0
 30
0.0
  3
199C
  1

  0
LINE
  5
B1
330
25
100
AcDbEntity
  8
0
 62
     3
100
AcDbLine
 10
38.844527
 20
28.0
 30
0.0
 11
35.0
 21
28.0
 31
0.0
  0
LINE
  5
B2
330
25
100
AcDbEntity
  8
0
 62
     3
100
AcDbLine
 10
37.844527
 20
30.0
 30
0.0
 11
37.844527
 21
33.5
 31
0.0
  0
ARC
  5
B3
330
25
100
AcDbEntity
  8
0
 62
     3
100
AcDbCircle
 10
33.844527
 20
33.0
 30
0.0
 40
5.0
100
AcDbArc
 50
283.361528
 51
323.130102
  0
ARC
  5
B4
330
25
100
AcDbEntity
  8
0
 62
     3
100
AcDbCircle
 10
33.844527
 20
30.5
 30
0.0
 40
5.0
100
AcDbArc
 50
36.869898
 51
76.63847199999999
  0
LINE
  5
B5
330
25
100
AcDbEntity
  8
0
 62
     3
100
AcDbLine
 10
35.84452699999999
 20
28.0
 30
0.0
 11
35.84452699999999
 21
28.417424
 31
0.0
  0
LINE
  5
B6
330
25
100
AcDbEntity
  8
0
 62
     3
100
AcDbLine
 10
35.0
 20
37.844527
 30
0.0
 11
35.84452699999999
 21
37.0
 31
0.0
  0
LINE
  5
B7
330
25
100
AcDbEntity
  8
0
 62
     3
100
AcDbLine
 10
35.84452699999999
 20
35.082576
 30
0.0
 11
35.84452699999999
 21
37.0
 31
0.0
  0
LINE
  5
B8
330
25
100
AcDbEntity
  8
0
 62
     3
100
AcDbLine
 10
38.844527
 20
26.0
 30
0.0
 11
38.844527
 21
28.0
 31
0.0
  0
LINE
  5
B9
330
25
100
AcDbEntity
  8
0
 62
     3
100
AcDbLine
 10
38.844527
 20
-28.0
 30
0.0
 11
20.84452699999999
 21
-28.0
 31
0.0
  0
LINE
  5
BA
330
25
100
AcDbEntity
  8
0
 62
     3
100
AcDbLine
 10
38.844527
 20
-26.0
 30
0.0
 11
38.844527
 21
-28.0
 31
0.0
  0
LINE
  5
BB
330
25
100
AcDbEntity
  8
0
 62
     3
100
AcDbLine
 10
33.844527
 20
-33.5
 30
0.0
 11
25.84452699999999
 21
-33.5
 31
0.0
  0
LINE
  5
BC
330
25
100
AcDbEntity
  8
0
 62
     3
100
AcDbLine
 10
29.844527
 20
-28.0
 30
0.0
 11
29.844527
 21
-31.5
 31
0.0
  0
ARC
  5
BD
330
25
100
AcDbEntity
  8
0
 62
     3
100
AcDbCircle
 10
25.84452699999999
 20
-28.5
 30
0.0
 40
5.0
100
AcDbArc
 50
216.869898
 51
323.130102
  0
ARC
  5
BE
330
25
100
AcDbEntity
  8
0
 62
     3
100
AcDbCircle
 10
33.844527
 20
-28.5
 30
0.0
 40
5.0
100
AcDbArc
 50
216.869898
 51
323.130102
  0
LINE
  5
BF
330
25
100
AcDbEntity
  8
0
 62
     3
100
AcDbLine
 10
37.844527
 20
-28.0
 30
0.0
 11
37.844527
 21
-31.5
 31
0.0
  0
LINE
  5
C0
330
25
100
AcDbEntity
  8
0
 62
     3
100
AcDbLine
 10
21.844527
 20
-28.0
 30
0.0
 11
21.844527
 21
-31.5
 31
0.0
  0
LINE
  5
C1
330
25
100
AcDbEntity
  8
0
 62
     3
100
AcDbLine
 10
20.84452699999999
 20
-26.0
 30
0.0
 11
20.84452699999999
 21
-28.0
 31
0.0
  0
LINE
  5
C2
330
25
100
AcDbEntity
  8
0
 62
     3
100
AcDbLine
 10
40.0
 20
-2.0
 30
0.0
 11
40.0
 21
-26.0
 31
0.0
  0
LINE
  5
C3
330
25
100
AcDbEntity
  8
0
 62
     3
100
AcDbLine
 10
32.438403
 20
-2.0
 30
0.0
 11
40.0
 21
-2.0
 31
0.0
  0
LINE
  5
C4
330
25
100
AcDbEntity
  8
0
 62
     3
100
AcDbLine
 10
35.0
 20
2.0
 30
0.0
 11
40.0
 21
2.0
 31
0.0
  0
LINE
  5
C5
330
25
100
AcDbEntity
  8
0
 62
     3
100
AcDbLine
 10
40.0
 20
26.0
 30
0.0
 11
40.0
 21
2.0
 31
0.0
  0
LINE
  5
C6
330
25
100
AcDbEntity
  8
0
 62
     3
100
AcDbLine
 10
19.5
 20
-26.0
 30
0.0
 11
40.0
 21
-26.0
 31
0.0
  0
LINE
  5
C7
330
25
100
AcDbEntity
  8
0
 62
     3
100
AcDbLine
 10
35.0
 20
26.0
 30
0.0
 11
40.0
 21
26.0
 31
0.0
  0
LINE
  5
C8
330
25
100
AcDbEntity
  8
0
 62
     3
100
AcDbLine
 10
25.0
 20
0.0
 30
0.0
 11
35.0
 21
0.0
 31
0.0
  0
ARC
  5
C9
330
25
100
AcDbEntity
  8
0
 62
     3
100
AcDbCircle
 10
0.0
 20
0.0
 30
0.0
 40
32.5
100
AcDbArc
 50
180.0
 51
0.0
  0
LINE
  5
CA
330
25
100
AcDbEntity
  8
0
 62
     3
100
AcDbLine
 10
-35.0
 20
0.0
 30
0.0
 11
-25.0
 21
0.0
 31
0.0
  0
LINE
  5
CB
330
25
100
AcDbEntity
  8
0
 62
     3
100
AcDbLine
 10
25.0
 20
40.49999999999999
 30
0.0
 11
25.0
 21
0.0
 31
0.0
  0
LINE
  5
CC
330
25
100
AcDbEntity
  8
0
 62
     3
100
AcDbLine
 10
-25.0
 20
40.49999999999999
 30
0.0
 11
-25.0
 21
0.0
 31
0.0
  0
LINE
  5
CD
330
25
100
AcDbEntity
  8
0
 62
     3
100
AcDbLine
 10
-35.0
 20
40.49999999999999
 30
0.0
 11
35.0
 21
40.49999999999999
 31
0.0
  0
LINE
  5
CE
330
25
100
AcDbEntity
  8
0
 62
     3
100
AcDbLine
 10
-35.0
 20
60.5
 30
0.0
 11
35.0
 21
60.5
 31
0.0
  0
LINE
  5
CF
330
25
100
AcDbEntity
  8
0
 62
     3
100
AcDbLine
 10
35.0
 20
60.5
 30
0.0
 11
35.0
 21
0.0
 31
0.0
  0
LINE
  5
D0
330
25
100
AcDbEntity
  8
0
 62
     3
100
AcDbLine
 10
-35.0
 20
60.5
 30
0.0
 11
-35.0
 21
0.0
 31
0.0
  0
ENDBLK
  5
D1
330
25
100
AcDbEntity
  8
0
100
AcDbBlockEnd
  0
ENDSEC
  0
SECTION
  2
ENTITIES
  0
INSERT
  5
D3
330
1E
100
AcDbEntity
  8
0
100
AcDbBlockReference
  2
199B
 10
130.0
 20
0.0
 30
0.0
  0
INSERT
  5
D4
330
1E
100
AcDbEntity
  8
0
100
AcDbBlockReference
  2
199C
 10
5.072795999999996
 20
-100.0
 30
0.0
  0
LINE
  5
D7
330
1E
100
AcDbEntity
  8
0
100
AcDbLine
 10
2.512717108002489
 20
-19.48652450578197
 30
0.0
 11
2.512717108002493
 21
53.01347549421802
 31
0.0
  0
LINE
  5
103
330
1E
100
AcDbEntity
  8
0
 62
     3
100
AcDbLine
 10
-29.927204
 20
20.350264
 30
0.0
 11
-29.927204
 21
-0.5
 31
0.0
  0
LINE
  5
104
330
1E
100
AcDbEntity
  8
0
 62
     3
100
AcDbLine
 10
-23.427204
 20
36.350264
 30
0.0
 11
-25.427204
 21
36.350264
 31
0.0
  0
LINE
  5
105
330
1E
100
AcDbEntity
  8
0
 62
     3
100
AcDbLine
 10
-25.427204
 20
35.350264
 30
0.0
 11
-28.927204
 21
35.350264
 31
0.0
  0
LINE
  5
106
330
1E
100
AcDbEntity
  8
0
 62
     3
100
AcDbLine
 10
-25.427204
 20
19.35026399999999
 30
0.0
 11
-28.927204
 21
19.35026399999999
 31
0.0
  0
ARC
  5
107
330
1E
100
AcDbEntity
  8
0
 62
     3
100
AcDbCircle
 10
-25.927204
 20
23.35026399999999
 30
0.0
 40
5.0
100
AcDbArc
 50
126.869898
 51
233.130102
  0
ARC
  5
108
330
1E
100
AcDbEntity
  8
0
 62
     3
100
AcDbCircle
 10
-25.927204
 20
31.350264
 30
0.0
 40
5.0
100
AcDbArc
 50
126.869898
 51
233.130102
  0
LINE
  5
109
330
1E
100
AcDbEntity
  8
0
 62
     3
100
AcDbLine
 10
-25.427204
 20
27.350264
 30
0.0
 11
-28.927204
 21
27.350264
 31
0.0
  0
LINE
  5
10A
330
1E
100
AcDbEntity
  8
0
 62
     3
100
AcDbLine
 10
-30.927204
 20
23.35026399999999
 30
0.0
 11
-30.927204
 21
31.350264
 31
0.0
  0
LINE
  5
10B
330
1E
100
AcDbEntity
  8
0
 62
     3
100
AcDbLine
 10
-23.427204
 20
18.350264
 30
0.0
 11
-25.427204
 21
18.350264
 31
0.0
  0
LINE
  5
10C
330
1E
100
AcDbEntity
  8
0
 62
     3
100
AcDbLine
 10
-25.427204
 20
18.350264
 30
0.0
 11
-25.427204
 21
36.350264
 31
0.0
  0
LINE
  5
10D
330
1E
100
AcDbEntity
  8
0
 62
     3
100
AcDbLine
 10
35.07279599999999
 20
19.35026399999999
 30
0.0
 11
35.07279599999999
 21
-0.5
 31
0.0
  0
LINE
  5
10E
330
1E
100
AcDbEntity
  8
0
 62
     3
100
AcDbLine
 10
30.57279599999999
 20
18.350264
 30
0.0
 11
30.57279599999999
 21
36.350264
 31
0.0
  0
LINE
  5
10F
330
1E
100
AcDbEntity
  8
0
 62
     3
100
AcDbLine
 10
28.572796
 20
18.350264
 30
0.0
 11
30.57279599999999
 21
18.350264
 31
0.0
  0
LINE
  5
110
330
1E
100
AcDbEntity
  8
0
 62
     3
100
AcDbLine
 10
37.655372
 20
21.350264
 30
0.0
 11
39.57279599999999
 21
21.350264
 31
0.0
  0
LINE
  5
111
330
1E
100
AcDbEntity
  8
0
 62
     3
100
AcDbLine
 10
37.97177599999999
 20
22.350264
 30
0.0
 11
40.572796
 21
22.350264
 31
0.0
  0
LINE
  5
112
330
1E
100
AcDbEntity
  8
0
 62
     3
100
AcDbLine
 10
37.97177599999999
 20
32.350264
 30
0.0
 11
40.572796
 21
32.350264
 31
0.0
  0
LINE
  5
113
330
1E
100
AcDbEntity
  8
0
 62
     3
100
AcDbLine
 10
37.655372
 20
33.350264
 30
0.0
 11
39.57279599999999
 21
33.350264
 31
0.0
  0
LINE
  5
114
330
1E
100
AcDbEntity
  8
0
 62
     3
100
AcDbLine
 10
40.572796
 20
32.350264
 30
0.0
 11
39.57279599999999
 21
33.350264
 31
0.0
  0
LINE
  5
115
330
1E
100
AcDbEntity
  8
0
 62
     3
100
AcDbLine
 10
40.572796
 20
22.350264
 30
0.0
 11
39.57279599999999
 21
21.350264
 31
0.0
  0
LINE
  5
116
330
1E
100
AcDbEntity
  8
0
 62
     3
100
AcDbLine
 10
39.57279599999999
 20
21.350264
 30
0.0
 11
39.57279599999999
 21
33.350264
 31
0.0
  0
LINE
  5
117
330
1E
100
AcDbEntity
  8
0
 62
     3
100
AcDbLine
 10
40.572796
 20
22.350264
 30
0.0
 11
40.572796
 21
32.350264
 31
0.0
  0
LINE
  5
118
330
1E
100
AcDbEntity
  8
0
 62
     3
100
AcDbLine
 10
30.57279599999999
 20
33.350264
 30
0.0
 11
30.990221
 21
33.350264
 31
0.0
  0
LINE
  5
119
330
1E
100
AcDbEntity
  8
0
 62
     3
100
AcDbLine
 10
30.57279599999999
 20
21.350264
 30
0.0
 11
30.990221
 21
21.350264
 31
0.0
  0
LINE
  5
11A
330
1E
100
AcDbEntity
  8
0
 62
     3
100
AcDbLine
 10
30.57279599999999
 20
22.350264
 30
0.0
 11
30.673817
 21
22.350264
 31
0.0
  0
LINE
  5
11B
330
1E
100
AcDbEntity
  8
0
 62
     3
100
AcDbLine
 10
30.57279599999999
 20
32.350264
 30
0.0
 11
30.673817
 21
32.350264
 31
0.0
  0
LINE
  5
11C
330
1E
100
AcDbEntity
  8
0
 62
     3
100
AcDbLine
 10
38.07279599999999
 20
23.35026399999999
 30
0.0
 11
38.07279599999999
 21
31.350264
 31
0.0
  0
LINE
  5
11D
330
1E
100
AcDbEntity
  8
0
 62
     3
100
AcDbLine
 10
32.57279599999999
 20
27.350264
 30
0.0
 11
36.072796
 21
27.350264
 31
0.0
  0
ARC
  5
11E
330
1E
100
AcDbEntity
  8
0
 62
     3
100
AcDbCircle
 10
33.07279599999999
 20
31.350264
 30
0.0
 40
5.0
100
AcDbArc
 50
306.8698979999999
 51
53.13010200000002
  0
ARC
  5
11F
330
1E
100
AcDbEntity
  8
0
 62
     3
100
AcDbCircle
 10
33.07279599999999
 20
23.35026399999999
 30
0.0
 40
5.0
100
AcDbArc
 50
306.8698979999999
 51
53.13010200000002
  0
ARC
  5
120
330
1E
100
AcDbEntity
  8
0
 62
     3
100
AcDbCircle
 10
35.57279599999999
 20
31.350264
 30
0.0
 40
5.0
100
AcDbArc
 50
126.869898
 51
233.130102
  0
ARC
  5
121
330
1E
100
AcDbEntity
  8
0
 62
     3
100
AcDbCircle
 10
35.57279599999999
 20
23.35026399999999
 30
0.0
 40
5.0
100
AcDbArc
 50
126.869898
 51
233.130102
  0
LINE
  5
122
330
1E
100
AcDbEntity
  8
0
 62
     3
100
AcDbLine
 10
32.57279599999999
 20
19.35026399999999
 30
0.0
 11
36.072796
 21
19.35026399999999
 31
0.0
  0
LINE
  5
123
330
1E
100
AcDbEntity
  8
0
 62
     3
100
AcDbLine
 10
32.57279599999999
 20
35.350264
 30
0.0
 11
36.072796
 21
35.350264
 31
0.0
  0
LINE
  5
124
330
1E
100
AcDbEntity
  8
0
 62
     3
100
AcDbLine
 10
28.572796
 20
36.350264
 30
0.0
 11
30.57279599999999
 21
36.350264
 31
0.0
  0
ARC
  5
125
330
1E
100
AcDbEntity
  8
0
 62
     3
100
AcDbCircle
 10
2.572795999999999
 20
-48.39947200000001
 30
0.0
 40
70.09999999999999
100
AcDbArc
 50
68.22894599999999
 51
88.36509100000001
  0
ARC
  5
126
330
1E
100
AcDbEntity
  8
0
 62
     3
100
AcDbCircle
 10
2.572795999999999
 20
-48.39947200000001
 30
0.0
 40
70.09999999999999
100
AcDbArc
 50
91.63490899999997
 51
111.771054
  0
ARC
  5
127
330
1E
100
AcDbEntity
  8
0
 62
     3
100
AcDbCircle
 10
2.572795999999999
 20
103.0999999999999
 30
0.0
 40
70.09999999999999
100
AcDbArc
 50
271.634909
 51
291.7710539999999
  0
ARC
  5
128
330
1E
100
AcDbEntity
  8
0
 62
     3
100
AcDbCircle
 10
2.572795999999999
 20
103.0999999999999
 30
0.0
 40
70.09999999999999
100
AcDbArc
 50
248.228946
 51
268.365091
  0
LINE
  5
129
330
1E
100
AcDbEntity
  8
0
 62
     3
100
AcDbLine
 10
-23.427204
 20
38.0
 30
0.0
 11
-23.427204
 21
16.70052799999999
 31
0.0
  0
LINE
  5
12A
330
1E
100
AcDbEntity
  8
0
 62
     3
100
AcDbLine
 10
28.572796
 20
38.0
 30
0.0
 11
28.572796
 21
16.70052799999999
 31
0.0
  0
LINE
  5
12B
330
1E
100
AcDbEntity
  8
0
 62
     3
100
AcDbLine
 10
4.572796
 20
-0.5
 30
0.0
 11
35.07279599999999
 21
-0.5
 31
0.0
  0
ARC
  5
12C
330
1E
100
AcDbEntity
  8
0
 62
     3
100
AcDbCircle
 10
2.572795999999999
 20
36.0
 30
0.0
 40
2.0
100
AcDbArc
 50
0.0
 51
180.0
  0
LINE
  5
12D
330
1E
100
AcDbEntity
  8
0
 62
     3
100
AcDbLine
 10
0.5727959999999996
 20
-0.5
 30
0.0
 11
0.5727959999999996
 21
36.0
 31
0.0
  0
LINE
  5
12E
330
1E
100
AcDbEntity
  8
0
 62
     3
100
AcDbLine
 10
4.572796
 20
-0.5
 30
0.0
 11
4.572796
 21
36.0
 31
0.0
  0
LINE
  5
12F
330
1E
100
AcDbEntity
  8
0
  6
HIDDEN
 62
     3
100
AcDbLine
 10
43.012696
 20
151.5
 30
0.0
 11
43.012696
 21
78.5
 31
0.0
  0
LINE
  5
130
330
1E
100
AcDbEntity
  8
0
 62
     3
100
AcDbLine
 10
35.07279599999999
 20
44.0
 30
0.0
 11
35.07279599999999
 21
35.350264
 31
0.0
  0
LINE
  5
131
330
1E
100
AcDbEntity
  8
0
 62
     3
100
AcDbLine
 10
-4.927203999999999
 20
64.968566
 30
0.0
 11
-26.96248
 21
59.064231
 31
0.0
  0
LINE
  5
132
330
1E
100
AcDbEntity
  8
0
  6
HIDDEN
 62
     3
100
AcDbLine
 10
44.012696
 20
122.75
 30
0.0
 11
44.012696
 21
114.25
 31
0.0
  0
LINE
  5
133
330
1E
100
AcDbEntity
  8
0
  6
HIDDEN
 62
     3
100
AcDbLine
 10
44.012696
 20
160.4999999999999
 30
0.0
 11
44.012696
 21
148.5
 31
0.0
  0
LINE
  5
134
330
1E
100
AcDbEntity
  8
0
  6
HIDDEN
 62
     3
100
AcDbLine
 10
44.012696
 20
160.4999999999999
 30
0.0
 11
63.012696
 21
160.4999999999999
 31
0.0
  0
LINE
  5
135
330
1E
100
AcDbEntity
  8
0
  6
HIDDEN
 62
     3
100
AcDbLine
 10
43.012696
 20
144.25
 30
0.0
 11
63.012696
 21
144.25
 31
0.0
  0
LINE
  5
136
330
1E
100
AcDbEntity
  8
0
  6
HIDDEN
 62
     3
100
AcDbLine
 10
44.012696
 20
114.25
 30
0.0
 11
63.012696
 21
114.25
 31
0.0
  0
LINE
  5
137
330
1E
100
AcDbEntity
  8
0
  6
HIDDEN
 62
     3
100
AcDbLine
 10
44.012696
 20
122.75
 30
0.0
 11
63.012696
 21
122.75
 31
0.0
  0
LINE
  5
138
330
1E
100
AcDbEntity
  8
0
  6
HIDDEN
 62
     3
100
AcDbLine
 10
43.012696
 20
84.25
 30
0.0
 11
63.012696
 21
84.25
 31
0.0
  0
LINE
  5
139
330
1E
100
AcDbEntity
  8
0
  6
HIDDEN
 62
     3
100
AcDbLine
 10
43.012696
 20
92.75
 30
0.0
 11
63.012696
 21
92.75
 31
0.0
  0
LINE
  5
13A
330
1E
100
AcDbEntity
  8
0
  6
HIDDEN
 62
     3
100
AcDbLine
 10
43.012696
 20
148.5
 30
0.0
 11
44.012696
 21
148.5
 31
0.0
  0
ARC
  5
13B
330
1E
100
AcDbEntity
  8
0
 62
     3
100
AcDbCircle
 10
-25.927204
 20
55.200528
 30
0.0
 40
4.0
100
AcDbArc
 50
104.9999999999999
 51
180.0
  0
ARC
  5
13C
330
1E
100
AcDbEntity
  8
0
 62
     3
100
AcDbCircle
 10
39.326932
 20
48.0
 30
0.0
 40
4.0
100
AcDbArc
 50
270.0
 51
327.3080160000001
  0
ARC
  5
13D
330
1E
100
AcDbEntity
  8
0
 62
     3
100
AcDbCircle
 10
-3.487303999999999
 20
77.464737
 30
0.0
 40
4.0
100
AcDbArc
 50
150.9787269999999
 51
180.0
  0
ARC
  5
13E
330
1E
100
AcDbEntity
  8
0
 62
     3
100
AcDbCircle
 10
-3.487303999999999
 20
48.0
 30
0.0
 40
4.0
100
AcDbArc
 50
180.0
 51
270.0
  0
ARC
  5
13F
330
1E
100
AcDbEntity
  8
0
 62
     3
100
AcDbCircle
 10
35.367876
 20
147.5
 30
0.0
 40
4.0
100
AcDbArc
 50
90.0
 51
150.9787269999999
  0
LINE
  5
140
330
1E
100
AcDbEntity
  8
0
 62
     3
100
AcDbLine
 10
42.693277
 20
45.83950999999999
 30
0.0
 11
63.012696
 21
77.5
 31
0.0
  0
LINE
  5
141
330
1E
100
AcDbEntity
  8
0
 62
     3
100
AcDbLine
 10
-3.487303999999999
 20
44.0
 30
0.0
 11
39.326932
 21
44.0
 31
0.0
  0
LINE
  5
142
330
1E
100
AcDbEntity
  8
0
 62
     3
100
AcDbLine
 10
31.870118
 20
149.440537
 30
0.0
 11
-6.985062
 21
79.405275
 31
0.0
  0
LINE
  5
143
330
1E
100
AcDbEntity
  8
0
 62
     3
100
AcDbLine
 10
-7.487303999999999
 20
77.464737
 30
0.0
 11
-7.487303999999999
 21
48.0
 31
0.0
  0
LINE
  5
144
330
1E
100
AcDbEntity
  8
0
 62
     3
100
AcDbLine
 10
35.367876
 20
151.5
 30
0.0
 11
43.012696
 21
151.5
 31
0.0
  0
LINE
  5
145
330
1E
100
AcDbEntity
  8
0
  6
HIDDEN
 62
     3
100
AcDbLine
 10
53.012696
 20
77.5
 30
0.0
 11
63.012696
 21
77.5
 31
0.0
  0
LINE
  5
146
330
1E
100
AcDbEntity
  8
0
  6
HIDDEN
 62
     3
100
AcDbLine
 10
35.07279599999999
 20
58.269836
 30
0.0
 11
53.012696
 21
77.5
 31
0.0
  0
LINE
  5
147
330
1E
100
AcDbEntity
  8
0
  6
HIDDEN
 62
     3
100
AcDbLine
 10
35.07279599999999
 20
58.269836
 30
0.0
 11
35.07279599999999
 21
44.0
 31
0.0
  0
LINE
  5
148
330
1E
100
AcDbEntity
  8
0
 62
     3
100
AcDbLine
 10
43.012696
 20
171.5
 30
0.0
 11
43.012696
 21
151.5
 31
0.0
  0
LINE
  5
149
330
1E
100
AcDbEntity
  8
0
  6
HIDDEN
 62
     3
100
AcDbLine
 10
43.012696
 20
78.5
 30
0.0
 11
-4.927203999999999
 21
64.968566
 31
0.0
  0
LINE
  5
14A
330
1E
100
AcDbEntity
  8
0
 62
     3
100
AcDbLine
 10
63.012696
 20
171.5
 30
0.0
 11
63.012696
 21
77.5
 31
0.0
  0
LINE
  5
14B
330
1E
100
AcDbEntity
  8
0
 62
     3
100
AcDbLine
 10
43.012696
 20
171.5
 30
0.0
 11
63.012696
 21
171.5
 31
0.0
  0
LINE
  5
14C
330
1E
100
AcDbEntity
  8
0
 62
     3
100
AcDbLine
 10
-29.927204
 20
-0.5
 30
0.0
 11
0.5727959999999996
 21
-0.5
 31
0.0
  0
LINE
  5
14D
330
1E
100
AcDbEntity
  8
0
 62
     3
100
AcDbLine
 10
-29.927204
 20
55.200528
 30
0.0
 11
-29.927204
 21
34.350264
 31
0.0
  0
ENDSEC
  0
SECTION
  2
OBJECTS
  0
DICTIONARY
  5
C
330
0
100
AcDbDictionary
  3
ACAD_GROUP
350
D
  3
ACAD_LAYOUT
350
19
  3
ACAD_MLINESTYLE
350
16
  3
ACAD_PLOTSETTINGS
350
18
  3
ACDBHEADERROUNDTRIPXREC
350
1C6
  0
DICTIONARY
  5
1E6
330
16F
100
AcDbDictionary
280
     1
  3
ACAD_XREC_ROUNDTRIP
360
1E7
  0
DICTIONARY
  5
D
102
{ACAD_REACTORS
330
C
102
}
330
C
100
AcDbDictionary
  0
DICTIONARY
  5
19
102
{ACAD_REACTORS
330
C
102
}
330
C
100
AcDbDictionary
  0
DICTIONARY
  5
16
102
{ACAD_REACTORS
330
C
102
}
330
C
100
AcDbDictionary
  3
STANDARD
350
17
  0
DICTIONARY
  5
18
102
{ACAD_REACTORS
330
C
102
}
330
C
100
AcDbDictionary
  0
DICTIONARY
  5
1C6
102
{ACAD_REACTORS
330
C
102
}
330
C
100
AcDbDictionary
  3
CEPSNTYPE
350
1CF
  3
DIMSTYLEDATA
350
1E5
  3
FINGERPRINTGUID
350
1D0
  3
HYPERLINKBASE
350
1C9
  3
INSUNITS
350
1CE
  3
LAYOUTDICT
350
1CB
  3
LWETCUNION
350
1CD
  3
PLOTSETDICT
350
1CC
  3
PSVPSCALE
350
1D2
  3
PUCSBASE
350
1D5
  3
PUCSORGBACK
350
1DB
  3
PUCSORGBOTTOM
350
1D7
  3
PUCSORGFRONT
350
1DA
  3
PUCSORGLEFT
350
1D8
  3
PUCSORGRIGHT
350
1D9
  3
PUCSORGTOP
350
1D6
  3
PUCSORTHOREF
350
1D3
  3
PUCSORTHOVIEW
350
1D4
  3
STYLESHEET
350
1CA
  3
TSTACKALIGN
350
1C7
  3
TSTACKSIZE
350
1C8
  3
UCSBASE
350
1DE
  3
UCSORGBACK
350
1E4
  3
UCSORGBOTTOM
350
1E0
  3
UCSORGFRONT
350
1E3
  3
UCSORGLEFT
350
1E1
  3
UCSORGRIGHT
350
1E2
  3
UCSORGTOP
350
1DF
  3
UCSORTHOREF
350
1DC
  3
UCSORTHOVIEW
350
1DD
  3
VERSIONGUID
350
1D1
  0
XRECORD
  5
1E7
102
{ACAD_REACTORS
330
1E6
102
}
330
1E6
100
AcDbXrecord
102
UCS
 74
     0
 71
     1
 10
0.0
 20
0.0
 30
0.0
 10
1.0
 20
0.0
 30
0.0
 10
0.0
 20
1.0
 30
0.0
146
0.0
 79
     0
102
VIEW
281
     0
  0
MLINESTYLE
  5
17
102
{ACAD_REACTORS
330
16
102
}
330
16
100
AcDbMlineStyle
  2
STANDARD
 70
     0
  3

 62
   256
 51
90.0
 52
90.0
 71
     2
 49
0.5
 62
   256
  6
BYLAYER
 49
-0.5
 62
   256
  6
BYLAYER
  0
XRECORD
  5
1CF
102
{ACAD_REACTORS
330
1C6
102
}
330
1C6
100
AcDbXrecord
 90
        0
  0
XRECORD
  5
1E5
102
{ACAD_REACTORS
330
1C6
102
}
330
1C6
100
AcDbXrecord
1000
DSTYLE
1002
{
1070
   279
 70
     2
1070
   340
340
11
1070
   140
 40
10.0
1002
}
  0
XRECORD
  5
1D0
102
{ACAD_REACTORS
330
1C6
102
}
330
1C6
100
AcDbXrecord
  1
{56903884-A524-4696-99DA-45940B3FAF87}
  0
XRECORD
  5
1C9
102
{ACAD_REACTORS
330
1C6
102
}
330
1C6
100
AcDbXrecord
  1

  0
XRECORD
  5
1CE
102
{ACAD_REACTORS
330
1C6
102
}
330
1C6
100
AcDbXrecord
 90
        0
  0
XRECORD
  5
1CB
102
{ACAD_REACTORS
330
1C6
102
}
330
1C6
100
AcDbXrecord
340
19
  0
XRECORD
  5
1CD
102
{ACAD_REACTORS
330
1C6
102
}
330
1C6
100
AcDbXrecord
 90
    10781
  0
XRECORD
  5
1CC
102
{ACAD_REACTORS
330
1C6
102
}
330
1C6
100
AcDbXrecord
340
18
  0
XRECORD
  5
1D2
102
{ACAD_REACTORS
330
1C6
102
}
330
1C6
100
AcDbXrecord
 40
0.0
  0
XRECORD
  5
1D5
102
{ACAD_REACTORS
330
1C6
102
}
330
1C6
100
AcDbXrecord
340
0
  0
XRECORD
  5
1DB
102
{ACAD_REACTORS
330
1C6
102
}
330
1C6
100
AcDbXrecord
 10
0.0
 20
0.0
 30
0.0
  0
XRECORD
  5
1D7
102
{ACAD_REACTORS
330
1C6
102
}
330
1C6
100
AcDbXrecord
 10
0.0
 20
0.0
 30
0.0
  0
XRECORD
  5
1DA
102
{ACAD_REACTORS
330
1C6
102
}
330
1C6
100
AcDbXrecord
 10
0.0
 20
0.0
 30
0.0
  0
XRECORD
  5
1D8
102
{ACAD_REACTORS
330
1C6
102
}
330
1C6
100
AcDbXrecord
 10
0.0
 20
0.0
 30
0.0
  0
XRECORD
  5
1D9
102
{ACAD_REACTORS
330
1C6
102
}
330
1C6
100
AcDbXrecord
 10
0.0
 20
0.0
 30
0.0
  0
XRECORD
  5
1D6
102
{ACAD_REACTORS
330
1C6
102
}
330
1C6
100
AcDbXrecord
 10
0.0
 20
0.0
 30
0.0
  0
XRECORD
  5
1D3
102
{ACAD_REACTORS
330
1C6
102
}
330
1C6
100
AcDbXrecord
340
0
  0
XRECORD
  5
1D4
102
{ACAD_REACTORS
330
1C6
102
}
330
1C6
100
AcDbXrecord
 70
     0
  0
XRECORD
  5
1CA
102
{ACAD_REACTORS
330
1C6
102
}
330
1C6
100
AcDbXrecord
  1

  0
XRECORD
  5
1C7
102
{ACAD_REACTORS
330
1C6
102
}
330
1C6
100
AcDbXrecord
 90
        1
  0
XRECORD
  5
1C8
102
{ACAD_REACTORS
330
1C6
102
}
330
1C6
100
AcDbXrecord
 90
       70
  0
XRECORD
  5
1DE
102
{ACAD_REACTORS
330
1C6
102
}
330
1C6
100
AcDbXrecord
340
0
  0
XRECORD
  5
1E4
102
{ACAD_REACTORS
330
1C6
102
}
330
1C6
100
AcDbXrecord
 10
0.0
 20
0.0
 30
0.0
  0
XRECORD
  5
1E0
102
{ACAD_REACTORS
330
1C6
102
}
330
1C6
100
AcDbXrecord
 10
0.0
 20
0.0
 30
0.0
  0
XRECORD
  5
1E3
102
{ACAD_REACTORS
330
1C6
102
}
330
1C6
100
AcDbXrecord
 10
0.0
 20
0.0
 30
0.0
  0
XRECORD
  5
1E1
102
{ACAD_REACTORS
330
1C6
102
}
330
1C6
100
AcDbXrecord
 10
0.0
 20
0.0
 30
0.0
  0
XRECORD
  5
1E2
102
{ACAD_REACTORS
330
1C6
102
}
330
1C6
100
AcDbXrecord
 10
0.0
 20
0.0
 30
0.0
  0
XRECORD
  5
1DF
102
{ACAD_REACTORS
330
1C6
102
}
330
1C6
100
AcDbXrecord
 10
0.0
 20
0.0
 30
0.0
  0
XRECORD
  5
1DC
102
{ACAD_REACTORS
330
1C6
102
}
330
1C6
100
AcDbXrecord
340
0
  0
XRECORD
  5
1DD
102
{ACAD_REACTORS
330
1C6
102
}
330
1C6
100
AcDbXrecord
 70
     0
  0
XRECORD
  5
1D1
102
{ACAD_REACTORS
330
1C6
102
}
330
1C6
100
AcDbXrecord
  1
{CC45EA20-AF13-4D53-B3C0-EFF83D1EE30E}
  0
ENDSEC
  0
EOF
