  0
SECTION
  2
HEADER
  9
$ACADVER
  1
AC1014
  9
$ACADMAINTVER
 70
     9
  9
$DWGCODEPAGE
  3
ANSI_1252
  9
$INSBASE
 10
0.0
 20
0.0
 30
0.0
  9
$EXTMIN
 10
-25.0
 20
-295.0
 30
0.0
  9
$EXTMAX
 10
151.5
 20
69.0
 30
0.0
  9
$LIMMIN
 10
0.0
 20
0.0
  9
$LIMMAX
 10
297.0
 20
210.0
  9
$ORTHOMODE
 70
     0
  9
$REGENMODE
 70
     1
  9
$FILLMODE
 70
     1
  9
$QTEXTMODE
 70
     0
  9
$MIRRTEXT
 70
     1
  9
$DRAGMODE
 70
     2
  9
$LTSCALE
 40
10.0
  9
$OSMODE
 70
    37
  9
$ATTMODE
 70
     1
  9
$TEXTSIZE
 40
0.2
  9
$TRACEWID
 40
0.05
  9
$TEXTSTYLE
  7
STANDARD
  9
$CLAYER
  8
0
  9
$CELTYPE
  6
BYLAYER
  9
$CECOLOR
 62
   256
  9
$CELTSCALE
 40
1.0
  9
$DELOBJ
 70
     1
  9
$DISPSILH
 70
     0
  9
$DIMSCALE
 40
1.0
  9
$DIMASZ
 40
0.18
  9
$DIMEXO
 40
0.0625
  9
$DIMDLI
 40
0.38
  9
$DIMRND
 40
0.0
  9
$DIMDLE
 40
0.0
  9
$DIMEXE
 40
0.18
  9
$DIMTP
 40
0.0
  9
$DIMTM
 40
0.0
  9
$DIMTXT
 40
0.18
  9
$DIMCEN
 40
0.09
  9
$DIMTSZ
 40
0.0
  9
$DIMTOL
 70
     0
  9
$DIMLIM
 70
     0
  9
$DIMTIH
 70
     1
  9
$DIMTOH
 70
     1
  9
$DIMSE1
 70
     0
  9
$DIMSE2
 70
     0
  9
$DIMTAD
 70
     0
  9
$DIMZIN
 70
     0
  9
$DIMBLK
  1

  9
$DIMASO
 70
     1
  9
$DIMSHO
 70
     0
  9
$DIMPOST
  1

  9
$DIMAPOST
  1

  9
$DIMALT
 70
     0
  9
$DIMALTD
 70
     2
  9
$DIMALTF
 40
25.4
  9
$DIMLFAC
 40
1.0
  9
$DIMTOFL
 70
     0
  9
$DIMTVP
 40
0.0
  9
$DIMTIX
 70
     0
  9
$DIMSOXD
 70
     0
  9
$DIMSAH
 70
     0
  9
$DIMBLK1
  1

  9
$DIMBLK2
  1

  9
$DIMSTYLE
  2
STANDARD
  9
$DIMCLRD
 70
     0
  9
$DIMCLRE
 70
     0
  9
$DIMCLRT
 70
     0
  9
$DIMTFAC
 40
1.0
  9
$DIMGAP
 40
0.09
  9
$DIMJUST
 70
     0
  9
$DIMSD1
 70
     0
  9
$DIMSD2
 70
     0
  9
$DIMTOLJ
 70
     1
  9
$DIMTZIN
 70
     0
  9
$DIMALTZ
 70
     0
  9
$DIMALTTZ
 70
     0
  9
$DIMFIT
 70
     3
  9
$DIMUPT
 70
     0
  9
$DIMUNIT
 70
     2
  9
$DIMDEC
 70
     4
  9
$DIMTDEC
 70
     4
  9
$DIMALTU
 70
     2
  9
$DIMALTTD
 70
     2
  9
$DIMTXSTY
  7
STANDARD
  9
$DIMAUNIT
 70
     0
  9
$LUNITS
 70
     2
  9
$LUPREC
 70
     4
  9
$SKETCHINC
 40
0.1
  9
$FILLETRAD
 40
0.0
  9
$AUNITS
 70
     0
  9
$AUPREC
 70
     0
  9
$MENU
  1
sitopluk
  9
$ELEVATION
 40
0.0
  9
$PELEVATION
 40
0.0
  9
$THICKNESS
 40
0.0
  9
$LIMCHECK
 70
     0
  9
$CHAMFERA
 40
0.0
  9
$CHAMFERB
 40
0.0
  9
$CHAMFERC
 40
0.0
  9
$CHAMFERD
 40
0.0
  9
$SKPOLY
 70
     0
  9
$TDCREATE
 40
2450497.990899537
  9
$TDUPDATE
 40
2453594.523731898
  9
$TDINDWG
 40
0.0001111574
  9
$TDUSRTIMER
 40
0.0001111574
  9
$USRTIMER
 70
     1
  9
$ANGBASE
 50
0.0
  9
$ANGDIR
 70
     0
  9
$PDMODE
 70
     0
  9
$PDSIZE
 40
0.0
  9
$PLINEWID
 40
0.0
  9
$COORDS
 70
     1
  9
$SPLFRAME
 70
     0
  9
$SPLINETYPE
 70
     6
  9
$SPLINESEGS
 70
     8
  9
$ATTDIA
 70
     0
  9
$ATTREQ
 70
     1
  9
$HANDLING
 70
     1
  9
$HANDSEED
  5
10F
  9
$SURFTAB1
 70
     6
  9
$SURFTAB2
 70
     6
  9
$SURFTYPE
 70
     6
  9
$SURFU
 70
     6
  9
$SURFV
 70
     6
  9
$UCSNAME
  2

  9
$UCSORG
 10
0.0
 20
0.0
 30
0.0
  9
$UCSXDIR
 10
1.0
 20
0.0
 30
0.0
  9
$UCSYDIR
 10
0.0
 20
1.0
 30
0.0
  9
$PUCSNAME
  2

  9
$PUCSORG
 10
0.0
 20
0.0
 30
0.0
  9
$PUCSXDIR
 10
1.0
 20
0.0
 30
0.0
  9
$PUCSYDIR
 10
0.0
 20
1.0
 30
0.0
  9
$USERI1
 70
     0
  9
$USERI2
 70
     0
  9
$USERI3
 70
     0
  9
$USERI4
 70
     0
  9
$USERI5
 70
     0
  9
$USERR1
 40
0.0
  9
$USERR2
 40
0.0
  9
$USERR3
 40
0.0
  9
$USERR4
 40
0.0
  9
$USERR5
 40
0.0
  9
$WORLDVIEW
 70
     1
  9
$SHADEDGE
 70
     3
  9
$SHADEDIF
 70
    70
  9
$TILEMODE
 70
     1
  9
$MAXACTVP
 70
    48
  9
$PINSBASE
 10
0.0
 20
0.0
 30
0.0
  9
$PLIMCHECK
 70
     0
  9
$PEXTMIN
 10
1.000000000000000E+20
 20
1.000000000000000E+20
 30
1.000000000000000E+20
  9
$PEXTMAX
 10
-1.000000000000000E+20
 20
-1.000000000000000E+20
 30
-1.000000000000000E+20
  9
$PLIMMIN
 10
0.0
 20
0.0
  9
$PLIMMAX
 10
12.0
 20
9.0
  9
$UNITMODE
 70
     0
  9
$VISRETAIN
 70
     1
  9
$PLINEGEN
 70
     0
  9
$PSLTSCALE
 70
     1
  9
$TREEDEPTH
 70
  3020
  9
$PICKSTYLE
 70
     1
  9
$CMLSTYLE
  2
STANDARD
  9
$CMLJUST
 70
     0
  9
$CMLSCALE
 40
1.0
  9
$PROXYGRAPHICS
 70
     1
  9
$MEASUREMENT
 70
     0
  0
ENDSEC
  0
SECTION
  2
CLASSES
  0
CLASS
  1
XRECORD
  2
AcDbXrecord
  3
AutoCAD 2000
 90
        0
280
     0
281
     0
  0
CLASS
  1
LWPOLYLINE
  2
AcDbPolyline
  3
AutoCAD 2000
 90
        0
280
     0
281
     1
  0
CLASS
  1
HATCH
  2
AcDbHatch
  3
AutoCAD 2000
 90
        0
280
     0
281
     1
  0
CLASS
  1
ACDBPLACEHOLDER
  2
AcDbPlaceHolder
  3
ObjectDBX Classes
 90
        0
280
     0
281
     0
  0
CLASS
  1
LAYOUT
  2
AcDbLayout
  3
ObjectDBX Classes
 90
        0
280
     0
281
     0
  0
ENDSEC
  0
SECTION
  2
TABLES
  0
TABLE
  2
VPORT
  5
8
330
0
100
AcDbSymbolTable
 70
     2
  0
VPORT
  5
EA
102
{ACAD_XDICTIONARY
360
10D
102
}
330
8
100
AcDbSymbolTableRecord
100
AcDbViewportTableRecord
  2
*ACTIVE
 70
     0
 10
0.0
 20
0.0
 11
1.0
 21
1.0
 12
136.0
 22
-42.5
 13
0.0
 23
0.0
 14
0.5
 24
0.5
 15
0.0
 25
0.0
 16
0.0
 26
0.0
 36
1.0
 17
0.0
 27
0.0
 37
0.0
 40
510.7169811320755
 41
1.748582230623819
 42
50.0
 43
0.0
 44
0.0
 50
0.0
 51
0.0
 71
     0
 72
   100
 73
     1
 74
     1
 75
     1
 76
     0
 77
     0
 78
     0
  0
ENDTAB
  0
TABLE
  2
LTYPE
  5
5
330
0
100
AcDbSymbolTable
 70
     2
  0
LTYPE
  5
12
330
5
100
AcDbSymbolTableRecord
100
AcDbLinetypeTableRecord
  2
BYBLOCK
 70
     0
  3

 72
    65
 73
     0
 40
0.0
  0
LTYPE
  5
13
330
5
100
AcDbSymbolTableRecord
100
AcDbLinetypeTableRecord
  2
BYLAYER
 70
     0
  3

 72
    65
 73
     0
 40
0.0
  0
LTYPE
  5
14
330
5
100
AcDbSymbolTableRecord
100
AcDbLinetypeTableRecord
  2
CONTINUOUS
 70
     0
  3
Solid line
 72
    65
 73
     0
 40
0.0
  0
LTYPE
  5
1F
330
5
100
AcDbSymbolTableRecord
100
AcDbLinetypeTableRecord
  2
HIDDEN
 70
     0
  3
_ _ _ _ _ _ _ _ _ _ _ _ _ _ _ _ _ _ _ _ _ _ _
 72
    65
 73
     2
 40
0.375
 49
0.25
 74
     0
 49
-0.125
 74
     0
  0
ENDTAB
  0
TABLE
  2
LAYER
  5
2
330
0
100
AcDbSymbolTable
 70
     4
  0
LAYER
  5
E
330
2
100
AcDbSymbolTableRecord
100
AcDbLayerTableRecord
  2
0
 70
     0
 62
     7
  6
CONTINUOUS
  0
LAYER
  5
20
330
2
100
AcDbSymbolTableRecord
100
AcDbLayerTableRecord
  2
PROFILI
 70
     0
 62
     7
  6
CONTINUOUS
  0
LAYER
  5
21
330
2
100
AcDbSymbolTableRecord
100
AcDbLayerTableRecord
  2
FISSAGGI
 70
     0
 62
     2
  6
CONTINUOUS
  0
LAYER
  5
22
330
2
100
AcDbSymbolTableRecord
100
AcDbLayerTableRecord
  2
PANNELLI
 70
     0
 62
     6
  6
CONTINUOUS
  0
ENDTAB
  0
TABLE
  2
STYLE
  5
3
330
0
100
AcDbSymbolTable
 70
     1
  0
STYLE
  5
F
330
3
100
AcDbSymbolTableRecord
100
AcDbTextStyleTableRecord
  2
STANDARD
 70
     0
 40
0.0
 41
1.0
 50
0.0
 71
     0
 42
0.2
  3
txt
  4

  0
ENDTAB
  0
TABLE
  2
VIEW
  5
6
330
0
100
AcDbSymbolTable
 70
     0
  0
ENDTAB
  0
TABLE
  2
UCS
  5
7
330
0
100
AcDbSymbolTable
 70
     0
  0
ENDTAB
  0
TABLE
  2
APPID
  5
9
330
0
100
AcDbSymbolTable
 70
     1
  0
APPID
  5
10
330
9
100
AcDbSymbolTableRecord
100
AcDbRegAppTableRecord
  2
ACAD
 70
     0
  0
ENDTAB
  0
TABLE
  2
DIMSTYLE
  5
A
330
0
100
AcDbSymbolTable
 70
     1
  0
DIMSTYLE
105
E9
330
A
100
AcDbSymbolTableRecord
100
AcDbDimStyleTableRecord
  2
STANDARD
 70
     0
  3

  4

  5

  6

  7

 40
1.0
 41
0.18
 42
0.0625
 43
0.38
 44
0.18
 45
0.0
 46
0.0
 47
0.0
 48
0.0
140
0.18
141
0.09
142
0.0
143
25.4
144
1.0
145
0.0
146
1.0
147
0.09
 71
     0
 72
     0
 73
     1
 74
     1
 75
     0
 76
     0
 77
     0
 78
     0
170
     0
171
     2
172
     0
173
     0
174
     0
175
     0
176
     0
177
     0
178
     0
270
     2
271
     4
272
     4
273
     2
274
     2
340
F
275
     0
280
     0
281
     0
282
     0
283
     1
284
     0
285
     0
286
     0
287
     3
288
     0
  0
ENDTAB
  0
TABLE
  2
BLOCK_RECORD
  5
1
330
0
100
AcDbSymbolTable
 70
     4
  0
BLOCK_RECORD
  5
18
330
1
100
AcDbSymbolTableRecord
100
AcDbBlockTableRecord
  2
*MODEL_SPACE
  0
BLOCK_RECORD
  5
15
330
1
100
AcDbSymbolTableRecord
100
AcDbBlockTableRecord
  2
*PAPER_SPACE
  0
BLOCK_RECORD
  5
23
330
1
100
AcDbSymbolTableRecord
100
AcDbBlockTableRecord
  2
BORDER
  0
BLOCK_RECORD
  5
2A
330
1
100
AcDbSymbolTableRecord
100
AcDbBlockTableRecord
  2
178A
  0
BLOCK_RECORD
  5
7C
330
1
100
AcDbSymbolTableRecord
100
AcDbBlockTableRecord
  2
178B
  0
BLOCK_RECORD
  5
B8
330
1
100
AcDbSymbolTableRecord
100
AcDbBlockTableRecord
  2
178C
  0
ENDTAB
  0
ENDSEC
  0
SECTION
  2
BLOCKS
  0
BLOCK
  5
19
330
18
100
AcDbEntity
  8
0
100
AcDbBlockBegin
  2
*MODEL_SPACE
 70
     0
 71
     0
 10
0.0
 20
0.0
 30
0.0
  3
*MODEL_SPACE
  1

  0
ENDBLK
  5
1A
330
18
100
AcDbEntity
  8
0
100
AcDbBlockEnd
  0
BLOCK
  5
16
330
15
100
AcDbEntity
 67
     1
  8
0
100
AcDbBlockBegin
  2
*PAPER_SPACE
 70
     0
 71
     0
 10
0.0
 20
0.0
 30
0.0
  3
*PAPER_SPACE
  1

  0
ENDBLK
  5
17
330
15
100
AcDbEntity
 67
     1
  8
0
100
AcDbBlockEnd
  0
BLOCK
  5
24
330
23
100
AcDbEntity
  8
0
100
AcDbBlockBegin
  2
BORDER
 70
     0
 71
     0
 10
0.0
 20
0.0
 30
0.0
  3
BORDER
  1

  0
LINE
  5
25
330
23
100
AcDbEntity
  8
0
100
AcDbLine
 10
0.0
 20
0.0
 30
0.0
 11
1.0
 21
0.0
 31
0.0
  0
LINE
  5
26
330
23
100
AcDbEntity
  8
0
100
AcDbLine
 10
1.0
 20
0.0
 30
0.0
 11
1.0
 21
1.0
 31
0.0
  0
LINE
  5
27
330
23
100
AcDbEntity
  8
0
100
AcDbLine
 10
1.0
 20
1.0
 30
0.0
 11
0.0
 21
1.0
 31
0.0
  0
LINE
  5
28
330
23
100
AcDbEntity
  8
0
100
AcDbLine
 10
0.0
 20
1.0
 30
0.0
 11
0.0
 21
0.0
 31
0.0
  0
ENDBLK
  5
29
330
23
100
AcDbEntity
  8
0
100
AcDbBlockEnd
  0
BLOCK
  5
2B
330
2A
100
AcDbEntity
  8
0
100
AcDbBlockBegin
  2
178A
 70
     0
 71
     0
 10
0.0
 20
0.0
 30
0.0
  3
178A
  1

  0
LINE
  5
2C
330
2A
100
AcDbEntity
  8
0
 62
     2
100
AcDbLine
 10
0.0
 20
28.0
 30
0.0
 11
0.0
 21
20.0
 31
0.0
  0
ARC
  5
2D
330
2A
100
AcDbEntity
  8
0
 62
     2
100
AcDbCircle
 10
4.75
 20
24.640625
 30
0.0
 40
6.640625
100
AcDbArc
 50
224.332692
 51
315.667308
  0
ARC
  5
2E
330
2A
100
AcDbEntity
  8
0
 62
     2
100
AcDbCircle
 10
-4.75
 20
24.640625
 30
0.0
 40
6.640625
100
AcDbArc
 50
224.332692
 51
315.667308
  0
ARC
  5
2F
330
2A
100
AcDbEntity
  8
0
 62
     2
100
AcDbCircle
 10
4.75
 20
23.359375
 30
0.0
 40
6.640625
100
AcDbArc
 50
44.33269200000001
 51
135.667308
  0
ARC
  5
30
330
2A
100
AcDbEntity
  8
0
 62
     2
100
AcDbCircle
 10
-4.75
 20
23.359375
 30
0.0
 40
6.640625
100
AcDbArc
 50
44.33269200000001
 51
135.667308
  0
LINE
  5
31
330
2A
100
AcDbEntity
  8
0
 62
     2
100
AcDbLine
 10
0.0
 20
30.0
 30
0.0
 11
-4.75
 21
30.0
 31
0.0
  0
LINE
  5
32
330
2A
100
AcDbEntity
  8
0
 62
     2
100
AcDbLine
 10
4.75
 20
30.0
 30
0.0
 11
0.0
 21
30.0
 31
0.0
  0
LINE
  5
33
330
2A
100
AcDbEntity
  8
0
 62
     2
100
AcDbLine
 10
9.5
 20
20.0
 30
0.0
 11
9.5
 21
28.0
 31
0.0
  0
LINE
  5
34
330
2A
100
AcDbEntity
  8
0
 62
     2
100
AcDbLine
 10
-9.5
 20
28.0
 30
0.0
 11
-9.5
 21
20.0
 31
0.0
  0
LINE
  5
35
330
2A
100
AcDbEntity
  8
0
 62
     2
100
AcDbLine
 10
-4.75
 20
18.0
 30
0.0
 11
4.75
 21
18.0
 31
0.0
  0
LINE
  5
36
330
2A
100
AcDbEntity
  8
0
 62
     2
100
AcDbLine
 10
-25.0
 20
63.5
 30
0.0
 11
-25.0
 21
60.0
 31
0.0
  0
LINE
  5
37
330
2A
100
AcDbEntity
  8
0
 62
     2
100
AcDbLine
 10
-5.0
 20
69.0
 30
0.0
 11
0.0
 21
69.0
 31
0.0
  0
LINE
  5
38
330
2A
100
AcDbEntity
  8
0
 62
     2
100
AcDbLine
 10
-6.0
 20
63.5
 30
0.0
 11
0.0
 21
63.5
 31
0.0
  0
LINE
  5
39
330
2A
100
AcDbEntity
  8
0
 62
     2
100
AcDbLine
 10
-16.5
 20
30.0
 30
0.0
 11
0.0
 21
30.0
 31
0.0
  0
LINE
  5
3A
330
2A
100
AcDbEntity
  8
0
 62
     2
100
AcDbLine
 10
-16.5
 20
51.112302
 30
0.0
 11
-16.5
 21
30.0
 31
0.0
  0
LINE
  5
3B
330
2A
100
AcDbEntity
  8
0
 62
     2
100
AcDbLine
 10
-24.407732
 20
65.276804
 30
0.0
 11
-25.0
 21
63.5
 31
0.0
  0
LINE
  5
3C
330
2A
100
AcDbEntity
  8
0
 62
     2
100
AcDbLine
 10
-25.0
 20
60.0
 30
0.0
 11
-17.957171
 21
54.200023
 31
0.0
  0
ARC
  5
3D
330
2A
100
AcDbEntity
  8
0
 62
     2
100
AcDbCircle
 10
-22.510365
 20
64.64434900000001
 30
0.0
 40
2.0
100
AcDbArc
 50
95.94686300000001
 51
161.565051
  0
ARC
  5
3E
330
2A
100
AcDbEntity
  8
0
 62
     2
100
AcDbCircle
 10
-20.5
 20
51.112302
 30
0.0
 40
4.0
100
AcDbArc
 50
0.0
 51
50.52754
  0
LINE
  5
3F
330
2A
100
AcDbEntity
  8
0
 62
     2
100
AcDbLine
 10
-5.0
 20
69.0
 30
0.0
 11
-22.717577
 21
66.63358599999999
 31
0.0
  0
ARC
  5
40
330
2A
100
AcDbEntity
  8
0
 62
     2
100
AcDbCircle
 10
-18.045108
 20
45.400401
 30
0.0
 40
21.741208
100
AcDbArc
 50
56.35661999999999
 51
102.410427
  0
ARC
  5
41
330
2A
100
AcDbEntity
  8
0
 62
     2
100
AcDbCircle
 10
-14.857513
 20
65.626296
 30
0.0
 40
14.221463
100
AcDbArc
 50
263.367908
 51
308.522884
  0
LINE
  5
42
330
2A
100
AcDbEntity
  8
0
 62
     2
100
AcDbLine
 10
-6.0
 20
63.5
 30
0.0
 11
-6.0
 21
54.5
 31
0.0
  0
LINE
  5
43
330
2A
100
AcDbEntity
  8
0
 62
     2
100
AcDbLine
 10
-6.0
 20
54.5
 30
0.0
 11
0.0
 21
54.5
 31
0.0
  0
LINE
  5
44
330
2A
100
AcDbEntity
  8
0
 62
     2
100
AcDbLine
 10
6.0
 20
54.5
 30
0.0
 11
0.0
 21
54.5
 31
0.0
  0
LINE
  5
45
330
2A
100
AcDbEntity
  8
0
 62
     2
100
AcDbLine
 10
6.0
 20
63.5
 30
0.0
 11
6.0
 21
54.5
 31
0.0
  0
ARC
  5
46
330
2A
100
AcDbEntity
  8
0
 62
     2
100
AcDbCircle
 10
14.857513
 20
65.626296
 30
0.0
 40
14.221463
100
AcDbArc
 50
231.4771160000001
 51
276.632092
  0
ARC
  5
47
330
2A
100
AcDbEntity
  8
0
 62
     2
100
AcDbCircle
 10
18.045108
 20
45.400401
 30
0.0
 40
21.741208
100
AcDbArc
 50
77.589573
 51
123.64338
  0
LINE
  5
48
330
2A
100
AcDbEntity
  8
0
 62
     2
100
AcDbLine
 10
5.0
 20
69.0
 30
0.0
 11
22.717577
 21
66.63358599999999
 31
0.0
  0
ARC
  5
49
330
2A
100
AcDbEntity
  8
0
 62
     2
100
AcDbCircle
 10
20.5
 20
51.112302
 30
0.0
 40
4.0
100
AcDbArc
 50
129.47246
 51
180.0
  0
ARC
  5
4A
330
2A
100
AcDbEntity
  8
0
 62
     2
100
AcDbCircle
 10
22.510365
 20
64.64434900000001
 30
0.0
 40
2.0
100
AcDbArc
 50
18.434949
 51
84.05313699999999
  0
LINE
  5
4B
330
2A
100
AcDbEntity
  8
0
 62
     2
100
AcDbLine
 10
25.0
 20
60.0
 30
0.0
 11
17.957171
 21
54.200023
 31
0.0
  0
LINE
  5
4C
330
2A
100
AcDbEntity
  8
0
 62
     2
100
AcDbLine
 10
24.407732
 20
65.276804
 30
0.0
 11
25.0
 21
63.5
 31
0.0
  0
LINE
  5
4D
330
2A
100
AcDbEntity
  8
0
 62
     2
100
AcDbLine
 10
16.5
 20
51.112302
 30
0.0
 11
16.5
 21
30.0
 31
0.0
  0
LINE
  5
4E
330
2A
100
AcDbEntity
  8
0
 62
     2
100
AcDbLine
 10
16.5
 20
30.0
 30
0.0
 11
0.0
 21
30.0
 31
0.0
  0
LINE
  5
4F
330
2A
100
AcDbEntity
  8
0
 62
     2
100
AcDbLine
 10
6.0
 20
63.5
 30
0.0
 11
0.0
 21
63.5
 31
0.0
  0
LINE
  5
50
330
2A
100
AcDbEntity
  8
0
 62
     2
100
AcDbLine
 10
5.0
 20
69.0
 30
0.0
 11
0.0
 21
69.0
 31
0.0
  0
LINE
  5
51
330
2A
100
AcDbEntity
  8
0
 62
     2
100
AcDbLine
 10
25.0
 20
63.5
 30
0.0
 11
25.0
 21
60.0
 31
0.0
  0
LINE
  5
52
330
2A
100
AcDbEntity
  8
0
 62
     2
100
AcDbLine
 10
-16.5
 20
51.5
 30
0.0
 11
16.5
 21
51.5
 31
0.0
  0
CIRCLE
  5
53
330
2A
100
AcDbEntity
  8
0
 62
     5
100
AcDbCircle
 10
0.0
 20
0.0
 30
0.0
 40
8.0
  0
LINE
  5
54
330
2A
100
AcDbEntity
  8
0
 62
     5
100
AcDbLine
 10
17.336708
 20
18.0
 30
0.0
 11
18.0
 21
-20.0
 31
0.0
  0
LINE
  5
55
330
2A
100
AcDbEntity
  8
0
 62
     5
100
AcDbLine
 10
-17.336708
 20
18.0
 30
0.0
 11
-18.0
 21
-20.0
 31
0.0
  0
LINE
  5
56
330
2A
100
AcDbEntity
  8
0
 62
     5
100
AcDbLine
 10
-15.0
 20
-20.0
 30
0.0
 11
15.0
 21
-20.0
 31
0.0
  0
LINE
  5
57
330
2A
100
AcDbEntity
  8
0
 62
     5
100
AcDbLine
 10
-17.336708
 20
18.0
 30
0.0
 11
17.336708
 21
18.0
 31
0.0
  0
LINE
  5
58
330
2A
100
AcDbEntity
  8
0
 62
     5
100
AcDbLine
 10
-12.0
 20
-26.0
 30
0.0
 11
12.0
 21
-26.0
 31
0.0
  0
LINE
  5
59
330
2A
100
AcDbEntity
  8
0
 62
     5
100
AcDbLine
 10
-12.0
 20
-26.0
 30
0.0
 11
-12.0
 21
-28.0
 31
0.0
  0
LINE
  5
5A
330
2A
100
AcDbEntity
  8
0
 62
     5
100
AcDbLine
 10
12.0
 20
-26.0
 30
0.0
 11
12.0
 21
-28.0
 31
0.0
  0
LINE
  5
5B
330
2A
100
AcDbEntity
  8
0
 62
     5
100
AcDbLine
 10
-12.0
 20
-28.0
 30
0.0
 11
12.0
 21
-28.0
 31
0.0
  0
LINE
  5
5C
330
2A
100
AcDbEntity
  8
0
 62
     5
100
AcDbLine
 10
8.0
 20
-28.0
 30
0.0
 11
8.0
 21
-34.0
 31
0.0
  0
LINE
  5
5D
330
2A
100
AcDbEntity
  8
0
 62
     5
100
AcDbLine
 10
-8.0
 20
-28.0
 30
0.0
 11
-8.0
 21
-34.0
 31
0.0
  0
ARC
  5
5E
330
2A
100
AcDbEntity
  8
0
 62
     5
100
AcDbCircle
 10
-4.0
 20
-31.0
 30
0.0
 40
5.0
100
AcDbArc
 50
216.869898
 51
323.130102
  0
ARC
  5
5F
330
2A
100
AcDbEntity
  8
0
 62
     5
100
AcDbCircle
 10
4.0
 20
-31.0
 30
0.0
 40
5.0
100
AcDbArc
 50
216.869898
 51
323.130102
  0
LINE
  5
60
330
2A
100
AcDbEntity
  8
0
 62
     5
100
AcDbLine
 10
0.0
 20
-28.0
 30
0.0
 11
0.0
 21
-34.0
 31
0.0
  0
LINE
  5
61
330
2A
100
AcDbEntity
  8
0
 62
     5
100
AcDbLine
 10
-4.0
 20
-36.0
 30
0.0
 11
4.0
 21
-36.0
 31
0.0
  0
LINE
  5
62
330
2A
100
AcDbEntity
  8
0
 62
     5
100
AcDbLine
 10
14.5
 20
-44.0
 30
0.0
 11
-14.5
 21
-44.0
 31
0.0
  0
ARC
  5
63
330
2A
100
AcDbEntity
  8
0
 62
     5
100
AcDbCircle
 10
0.0
 20
-160.0
 30
0.0
 40
5.25
100
AcDbArc
 50
180.0
 51
0.0
  0
ARC
  5
64
330
2A
100
AcDbEntity
  8
0
 62
     5
100
AcDbCircle
 10
0.0
 20
-80.0
 30
0.0
 40
5.25
100
AcDbArc
 50
0.0
 51
180.0
  0
LINE
  5
65
330
2A
100
AcDbEntity
  8
0
 62
     5
100
AcDbLine
 10
-5.25
 20
-80.0
 30
0.0
 11
-5.25
 21
-160.0
 31
0.0
  0
LINE
  5
66
330
2A
100
AcDbEntity
  8
0
 62
     5
100
AcDbLine
 10
5.25
 20
-80.0
 30
0.0
 11
5.25
 21
-160.0
 31
0.0
  0
LINE
  5
67
330
2A
100
AcDbEntity
  8
0
 62
     5
100
AcDbLine
 10
-14.5
 20
-158.0
 30
0.0
 11
-20.5
 21
-158.0
 31
0.0
  0
LINE
  5
68
330
2A
100
AcDbEntity
  8
0
 62
     5
100
AcDbLine
 10
-14.5
 20
-170.0
 30
0.0
 11
-20.5
 21
-170.0
 31
0.0
  0
LINE
  5
69
330
2A
100
AcDbEntity
  8
0
 62
     5
100
AcDbLine
 10
20.5
 20
-158.0
 30
0.0
 11
14.5
 21
-158.0
 31
0.0
  0
LINE
  5
6A
330
2A
100
AcDbEntity
  8
0
 62
     5
100
AcDbLine
 10
20.5
 20
-170.0
 30
0.0
 11
14.5
 21
-170.0
 31
0.0
  0
LINE
  5
6B
330
2A
100
AcDbEntity
  8
0
 62
     5
100
AcDbLine
 10
21.5
 20
-67.0
 30
0.0
 11
22.5
 21
-68.0
 31
0.0
  0
LINE
  5
6C
330
2A
100
AcDbEntity
  8
0
 62
     5
100
AcDbLine
 10
-21.5
 20
-67.0
 30
0.0
 11
-22.5
 21
-68.0
 31
0.0
  0
LINE
  5
6D
330
2A
100
AcDbEntity
  8
0
 62
     5
100
AcDbLine
 10
20.5
 20
-23.0
 30
0.0
 11
18.5
 21
-20.0
 31
0.0
  0
LINE
  5
6E
330
2A
100
AcDbEntity
  8
0
 62
     5
100
AcDbLine
 10
-20.5
 20
-23.0
 30
0.0
 11
-18.5
 21
-20.0
 31
0.0
  0
LINE
  5
6F
330
2A
100
AcDbEntity
  8
0
 62
     5
100
AcDbLine
 10
14.5
 20
-67.0
 30
0.0
 11
-14.5
 21
-67.0
 31
0.0
  0
LINE
  5
70
330
2A
100
AcDbEntity
  8
0
 62
     5
100
AcDbLine
 10
-20.5
 20
-67.0
 30
0.0
 11
-21.5
 21
-67.0
 31
0.0
  0
LINE
  5
71
330
2A
100
AcDbEntity
  8
0
 62
     5
100
AcDbLine
 10
14.5
 20
-26.0
 30
0.0
 11
-14.5
 21
-26.0
 31
0.0
  0
LINE
  5
72
330
2A
100
AcDbEntity
  8
0
 62
     5
100
AcDbLine
 10
14.5
 20
-170.0
 30
0.0
 11
14.5
 21
-26.0
 31
0.0
  0
LINE
  5
73
330
2A
100
AcDbEntity
  8
0
 62
     5
100
AcDbLine
 10
-14.5
 20
-170.0
 30
0.0
 11
-14.5
 21
-26.0
 31
0.0
  0
LINE
  5
74
330
2A
100
AcDbEntity
  8
0
 62
     5
100
AcDbLine
 10
20.5
 20
-170.0
 30
0.0
 11
20.5
 21
-23.0
 31
0.0
  0
LINE
  5
75
330
2A
100
AcDbEntity
  8
0
 62
     5
100
AcDbLine
 10
-20.5
 20
-170.0
 30
0.0
 11
-20.5
 21
-23.0
 31
0.0
  0
LINE
  5
76
330
2A
100
AcDbEntity
  8
0
 62
     5
100
AcDbLine
 10
21.5
 20
-67.0
 30
0.0
 11
20.5
 21
-67.0
 31
0.0
  0
LINE
  5
77
330
2A
100
AcDbEntity
  8
0
 62
     5
100
AcDbLine
 10
22.5
 20
-176.0
 30
0.0
 11
22.5
 21
-68.0
 31
0.0
  0
LINE
  5
78
330
2A
100
AcDbEntity
  8
0
 62
     5
100
AcDbLine
 10
18.5
 20
-20.0
 30
0.0
 11
-18.5
 21
-20.0
 31
0.0
  0
LINE
  5
79
330
2A
100
AcDbEntity
  8
0
 62
     5
100
AcDbLine
 10
-22.5
 20
-176.0
 30
0.0
 11
-22.5
 21
-68.0
 31
0.0
  0
LINE
  5
7A
330
2A
100
AcDbEntity
  8
0
 62
     5
100
AcDbLine
 10
22.5
 20
-176.0
 30
0.0
 11
-22.5
 21
-176.0
 31
0.0
  0
ENDBLK
  5
7B
330
2A
100
AcDbEntity
  8
0
100
AcDbBlockEnd
  0
BLOCK
  5
7D
330
7C
100
AcDbEntity
  8
0
100
AcDbBlockBegin
  2
178B
 70
     0
 71
     0
 10
0.0
 20
0.0
 30
0.0
  3
178B
  1

  0
LINE
  5
7E
330
7C
100
AcDbEntity
  8
0
  6
HIDDEN
 62
     5
100
AcDbLine
 10
46.209461
 20
113.5
 30
0.0
 11
81.790539
 21
113.5
 31
0.0
  0
LINE
  5
7F
330
7C
100
AcDbEntity
  8
0
  6
HIDDEN
 62
     5
100
AcDbLine
 10
46.488742
 20
129.5
 30
0.0
 11
81.511258
 21
129.5
 31
0.0
  0
LINE
  5
80
330
7C
100
AcDbEntity
  8
0
 62
     2
100
AcDbLine
 10
59.25
 20
139.5
 30
0.0
 11
68.75
 21
139.5
 31
0.0
  0
ARC
  5
81
330
7C
100
AcDbEntity
  8
0
 62
     2
100
AcDbCircle
 10
59.25
 20
146.140625
 30
0.0
 40
6.640625
100
AcDbArc
 50
224.332692
 51
315.667308
  0
ARC
  5
82
330
7C
100
AcDbEntity
  8
0
 62
     2
100
AcDbCircle
 10
68.75
 20
146.140625
 30
0.0
 40
6.640625
100
AcDbArc
 50
224.332692
 51
315.667308
  0
LINE
  5
83
330
7C
100
AcDbEntity
  8
0
 62
     2
100
AcDbLine
 10
47.5
 20
173.0
 30
0.0
 11
80.5
 21
173.0
 31
0.0
  0
LINE
  5
84
330
7C
100
AcDbEntity
  8
0
 62
     2
100
AcDbLine
 10
89.0
 20
185.0
 30
0.0
 11
89.0
 21
181.5
 31
0.0
  0
LINE
  5
85
330
7C
100
AcDbEntity
  8
0
 62
     2
100
AcDbLine
 10
69.0
 20
190.5
 30
0.0
 11
64.0
 21
190.5
 31
0.0
  0
LINE
  5
86
330
7C
100
AcDbEntity
  8
0
 62
     2
100
AcDbLine
 10
70.0
 20
185.0
 30
0.0
 11
64.0
 21
185.0
 31
0.0
  0
LINE
  5
87
330
7C
100
AcDbEntity
  8
0
 62
     2
100
AcDbLine
 10
80.5
 20
151.5
 30
0.0
 11
64.0
 21
151.5
 31
0.0
  0
LINE
  5
88
330
7C
100
AcDbEntity
  8
0
 62
     2
100
AcDbLine
 10
80.5
 20
172.612302
 30
0.0
 11
80.5
 21
151.5
 31
0.0
  0
LINE
  5
89
330
7C
100
AcDbEntity
  8
0
 62
     2
100
AcDbLine
 10
88.407732
 20
186.776804
 30
0.0
 11
89.0
 21
185.0
 31
0.0
  0
LINE
  5
8A
330
7C
100
AcDbEntity
  8
0
 62
     2
100
AcDbLine
 10
89.0
 20
181.5
 30
0.0
 11
81.957171
 21
175.700023
 31
0.0
  0
ARC
  5
8B
330
7C
100
AcDbEntity
  8
0
 62
     2
100
AcDbCircle
 10
86.51036500000001
 20
186.144349
 30
0.0
 40
2.0
100
AcDbArc
 50
18.434949
 51
84.05313699999999
  0
ARC
  5
8C
330
7C
100
AcDbEntity
  8
0
 62
     2
100
AcDbCircle
 10
84.5
 20
172.612302
 30
0.0
 40
4.0
100
AcDbArc
 50
129.47246
 51
180.0
  0
LINE
  5
8D
330
7C
100
AcDbEntity
  8
0
 62
     2
100
AcDbLine
 10
69.0
 20
190.5
 30
0.0
 11
86.71757700000001
 21
188.133586
 31
0.0
  0
ARC
  5
8E
330
7C
100
AcDbEntity
  8
0
 62
     2
100
AcDbCircle
 10
82.045108
 20
166.900401
 30
0.0
 40
21.741208
100
AcDbArc
 50
77.589573
 51
123.64338
  0
ARC
  5
8F
330
7C
100
AcDbEntity
  8
0
 62
     2
100
AcDbCircle
 10
78.857513
 20
187.126296
 30
0.0
 40
14.221463
100
AcDbArc
 50
231.4771160000001
 51
276.632092
  0
LINE
  5
90
330
7C
100
AcDbEntity
  8
0
 62
     2
100
AcDbLine
 10
70.0
 20
185.0
 30
0.0
 11
70.0
 21
176.0
 31
0.0
  0
LINE
  5
91
330
7C
100
AcDbEntity
  8
0
 62
     2
100
AcDbLine
 10
70.0
 20
176.0
 30
0.0
 11
64.0
 21
176.0
 31
0.0
  0
LINE
  5
92
330
7C
100
AcDbEntity
  8
0
 62
     2
100
AcDbLine
 10
58.0
 20
176.0
 30
0.0
 11
64.0
 21
176.0
 31
0.0
  0
LINE
  5
93
330
7C
100
AcDbEntity
  8
0
 62
     2
100
AcDbLine
 10
58.0
 20
185.0
 30
0.0
 11
58.0
 21
176.0
 31
0.0
  0
ARC
  5
94
330
7C
100
AcDbEntity
  8
0
 62
     2
100
AcDbCircle
 10
49.142487
 20
187.126296
 30
0.0
 40
14.221463
100
AcDbArc
 50
263.367908
 51
308.522884
  0
ARC
  5
95
330
7C
100
AcDbEntity
  8
0
 62
     2
100
AcDbCircle
 10
45.954892
 20
166.900401
 30
0.0
 40
21.741208
100
AcDbArc
 50
56.35661999999999
 51
102.410427
  0
LINE
  5
96
330
7C
100
AcDbEntity
  8
0
 62
     2
100
AcDbLine
 10
59.0
 20
190.5
 30
0.0
 11
41.282423
 21
188.133586
 31
0.0
  0
ARC
  5
97
330
7C
100
AcDbEntity
  8
0
 62
     2
100
AcDbCircle
 10
43.5
 20
172.612302
 30
0.0
 40
4.0
100
AcDbArc
 50
0.0
 51
50.52754
  0
ARC
  5
98
330
7C
100
AcDbEntity
  8
0
 62
     2
100
AcDbCircle
 10
41.489635
 20
186.144349
 30
0.0
 40
2.0
100
AcDbArc
 50
95.94686300000001
 51
161.565051
  0
LINE
  5
99
330
7C
100
AcDbEntity
  8
0
 62
     2
100
AcDbLine
 10
39.0
 20
181.5
 30
0.0
 11
46.042829
 21
175.700023
 31
0.0
  0
LINE
  5
9A
330
7C
100
AcDbEntity
  8
0
 62
     2
100
AcDbLine
 10
39.592268
 20
186.776804
 30
0.0
 11
39.0
 21
185.0
 31
0.0
  0
LINE
  5
9B
330
7C
100
AcDbEntity
  8
0
 62
     2
100
AcDbLine
 10
47.5
 20
172.612302
 30
0.0
 11
47.5
 21
151.5
 31
0.0
  0
LINE
  5
9C
330
7C
100
AcDbEntity
  8
0
 62
     2
100
AcDbLine
 10
47.5
 20
151.5
 30
0.0
 11
64.0
 21
151.5
 31
0.0
  0
LINE
  5
9D
330
7C
100
AcDbEntity
  8
0
 62
     2
100
AcDbLine
 10
58.0
 20
185.0
 30
0.0
 11
64.0
 21
185.0
 31
0.0
  0
LINE
  5
9E
330
7C
100
AcDbEntity
  8
0
 62
     2
100
AcDbLine
 10
59.0
 20
190.5
 30
0.0
 11
64.0
 21
190.5
 31
0.0
  0
LINE
  5
9F
330
7C
100
AcDbEntity
  8
0
 62
     2
100
AcDbLine
 10
39.0
 20
185.0
 30
0.0
 11
39.0
 21
181.5
 31
0.0
  0
LINE
  5
A0
330
7C
100
AcDbEntity
  8
0
 62
     2
100
AcDbLine
 10
54.5
 20
149.5
 30
0.0
 11
54.5
 21
141.5
 31
0.0
  0
LINE
  5
A1
330
7C
100
AcDbEntity
  8
0
 62
     2
100
AcDbLine
 10
73.5
 20
141.5
 30
0.0
 11
73.5
 21
149.5
 31
0.0
  0
LINE
  5
A2
330
7C
100
AcDbEntity
  8
0
 62
     2
100
AcDbLine
 10
68.75
 20
151.5
 30
0.0
 11
64.0
 21
151.5
 31
0.0
  0
LINE
  5
A3
330
7C
100
AcDbEntity
  8
0
 62
     2
100
AcDbLine
 10
64.0
 20
151.5
 30
0.0
 11
59.25
 21
151.5
 31
0.0
  0
ARC
  5
A4
330
7C
100
AcDbEntity
  8
0
 62
     2
100
AcDbCircle
 10
59.25
 20
144.859375
 30
0.0
 40
6.640625
100
AcDbArc
 50
44.33269200000001
 51
135.667308
  0
ARC
  5
A5
330
7C
100
AcDbEntity
  8
0
 62
     2
100
AcDbCircle
 10
68.75
 20
144.859375
 30
0.0
 40
6.640625
100
AcDbArc
 50
44.33269200000001
 51
135.667308
  0
LINE
  5
A6
330
7C
100
AcDbEntity
  8
0
 62
     2
100
AcDbLine
 10
64.0
 20
149.5
 30
0.0
 11
64.0
 21
141.5
 31
0.0
  0
LINE
  5
A7
330
7C
100
AcDbEntity
  8
0
 62
     5
100
AcDbLine
 10
46.663292
 20
139.5
 30
0.0
 11
46.0
 21
101.5
 31
0.0
  0
LINE
  5
A8
330
7C
100
AcDbEntity
  8
0
 62
     5
100
AcDbLine
 10
81.336708
 20
139.5
 30
0.0
 11
46.663292
 21
139.5
 31
0.0
  0
LINE
  5
A9
330
7C
100
AcDbEntity
  8
0
 62
     5
100
AcDbLine
 10
81.336708
 20
139.5
 30
0.0
 11
82.0
 21
101.5
 31
0.0
  0
LINE
  5
AA
330
7C
100
AcDbEntity
  8
0
  6
HIDDEN
 62
     5
100
AcDbLine
 10
0.0
 20
-43.75
 30
0.0
 11
32.0
 21
-43.75
 31
0.0
  0
LINE
  5
AB
330
7C
100
AcDbEntity
  8
0
  6
HIDDEN
 62
     5
100
AcDbLine
 10
0.0
 20
46.75
 30
0.0
 11
32.0
 21
46.75
 31
0.0
  0
LINE
  5
AC
330
7C
100
AcDbEntity
  8
0
 62
     5
100
AcDbLine
 10
16.0
 20
54.5
 30
0.0
 11
16.0
 21
-54.5
 31
0.0
  0
LINE
  5
AD
330
7C
100
AcDbEntity
  8
0
 62
     5
100
AcDbLine
 10
32.0
 20
-54.5
 30
0.0
 11
32.0
 21
67.3
 31
0.0
  0
LINE
  5
AE
330
7C
100
AcDbEntity
  8
0
 62
     5
100
AcDbLine
 10
16.0
 20
54.5
 30
0.0
 11
44.75
 21
77.5
 31
0.0
  0
LINE
  5
AF
330
7C
100
AcDbEntity
  8
0
 62
     5
100
AcDbLine
 10
44.75
 20
101.5
 30
0.0
 11
44.75
 21
77.5
 31
0.0
  0
LINE
  5
B0
330
7C
100
AcDbEntity
  8
0
 62
     5
100
AcDbLine
 10
44.75
 20
101.5
 30
0.0
 11
83.25
 21
101.5
 31
0.0
  0
LINE
  5
B1
330
7C
100
AcDbEntity
  8
0
 62
     5
100
AcDbLine
 10
83.25
 20
77.5
 30
0.0
 11
83.25
 21
101.5
 31
0.0
  0
LINE
  5
B2
330
7C
100
AcDbEntity
  8
0
 62
     5
100
AcDbLine
 10
0.0
 20
54.5
 30
0.0
 11
16.0
 21
54.5
 31
0.0
  0
LINE
  5
B3
330
7C
100
AcDbEntity
  8
0
 62
     5
100
AcDbLine
 10
58.25
 20
-36.5
 30
0.0
 11
32.0
 21
-48.5
 31
0.0
  0
LINE
  5
B4
330
7C
100
AcDbEntity
  8
0
 62
     5
100
AcDbLine
 10
83.25
 20
77.5
 30
0.0
 11
58.25
 21
-36.5
 31
0.0
  0
LINE
  5
B5
330
7C
100
AcDbEntity
  8
0
 62
     5
100
AcDbLine
 10
0.0
 20
-54.5
 30
0.0
 11
0.0
 21
54.5
 31
0.0
  0
LINE
  5
B6
330
7C
100
AcDbEntity
  8
0
 62
     5
100
AcDbLine
 10
0.0
 20
-54.5
 30
0.0
 11
32.0
 21
-54.5
 31
0.0
  0
ENDBLK
  5
B7
330
7C
100
AcDbEntity
  8
0
100
AcDbBlockEnd
  0
BLOCK
  5
B9
330
B8
100
AcDbEntity
  8
0
100
AcDbBlockBegin
  2
178C
 70
     0
 71
     0
 10
0.0
 20
0.0
 30
0.0
  3
178C
  1

  0
LWPOLYLINE
  5
BA
330
B8
100
AcDbEntity
  8
0
 62
     5
100
AcDbPolyline
 90
        2
 70
     1
 43
0.0
 10
-8.053753
 20
16.097735
 42
4.265537999999999
 10
7.946247000000001
 20
16.151073
 42
0.234437
  0
LINE
  5
BE
330
B8
100
AcDbEntity
  8
0
 62
     2
100
AcDbLine
 10
-2.763456
 20
25.0
 30
0.0
 11
2.763456
 21
25.0
 31
0.0
  0
CIRCLE
  5
BF
330
B8
100
AcDbEntity
  8
0
  6
HIDDEN
 62
     2
100
AcDbCircle
 10
0.0
 20
0.0
 30
0.0
 40
11.5
  0
ARC
  5
C0
330
B8
100
AcDbEntity
  8
0
 62
     2
100
AcDbCircle
 10
-16.263456
 20
16.263456
 30
0.0
 40
11.5
100
AcDbArc
 50
270.0
 51
0.0
  0
LINE
  5
C1
330
B8
100
AcDbEntity
  8
0
 62
     2
100
AcDbLine
 10
-4.763456
 20
16.263456
 30
0.0
 11
-4.763456
 21
23.0
 31
0.0
  0
LINE
  5
C2
330
B8
100
AcDbEntity
  8
0
 62
     2
100
AcDbLine
 10
4.763456
 20
16.263456
 30
0.0
 11
4.763456
 21
23.0
 31
0.0
  0
ARC
  5
C3
330
B8
100
AcDbEntity
  8
0
 62
     2
100
AcDbCircle
 10
16.263456
 20
16.263456
 30
0.0
 40
11.5
100
AcDbArc
 50
180.0
 51
270.0
  0
ARC
  5
C4
330
B8
100
AcDbEntity
  8
0
 62
     2
100
AcDbCircle
 10
-2.763456
 20
23.0
 30
0.0
 40
2.0
100
AcDbArc
 50
90.0
 51
180.0
  0
ARC
  5
C5
330
B8
100
AcDbEntity
  8
0
 62
     2
100
AcDbCircle
 10
2.763456
 20
23.0
 30
0.0
 40
2.0
100
AcDbArc
 50
0.0
 51
90.0
  0
ARC
  5
C6
330
B8
100
AcDbEntity
  8
0
 62
     2
100
AcDbCircle
 10
23.0
 20
2.763456
 30
0.0
 40
2.0
100
AcDbArc
 50
0.0
 51
90.0
  0
ARC
  5
C7
330
B8
100
AcDbEntity
  8
0
 62
     2
100
AcDbCircle
 10
23.0
 20
-2.763456
 30
0.0
 40
2.0
100
AcDbArc
 50
270.0
 51
0.0
  0
LINE
  5
C8
330
B8
100
AcDbEntity
  8
0
 62
     2
100
AcDbLine
 10
16.263456
 20
4.763456
 30
0.0
 11
23.0
 21
4.763456
 31
0.0
  0
LINE
  5
C9
330
B8
100
AcDbEntity
  8
0
 62
     2
100
AcDbLine
 10
16.263456
 20
-4.763456
 30
0.0
 11
23.0
 21
-4.763456
 31
0.0
  0
LINE
  5
CA
330
B8
100
AcDbEntity
  8
0
 62
     2
100
AcDbLine
 10
25.0
 20
-2.763456
 30
0.0
 11
25.0
 21
2.763456
 31
0.0
  0
ARC
  5
CB
330
B8
100
AcDbEntity
  8
0
 62
     2
100
AcDbCircle
 10
16.263456
 20
-16.263456
 30
0.0
 40
11.5
100
AcDbArc
 50
90.0
 51
180.0
  0
LINE
  5
CC
330
B8
100
AcDbEntity
  8
0
 62
     2
100
AcDbLine
 10
2.763456
 20
-25.0
 30
0.0
 11
-2.763456
 21
-25.0
 31
0.0
  0
LINE
  5
CD
330
B8
100
AcDbEntity
  8
0
 62
     2
100
AcDbLine
 10
4.763456
 20
-16.263456
 30
0.0
 11
4.763456
 21
-23.0
 31
0.0
  0
LINE
  5
CE
330
B8
100
AcDbEntity
  8
0
 62
     2
100
AcDbLine
 10
-4.763456
 20
-16.263456
 30
0.0
 11
-4.763456
 21
-23.0
 31
0.0
  0
ARC
  5
CF
330
B8
100
AcDbEntity
  8
0
 62
     2
100
AcDbCircle
 10
2.763456
 20
-23.0
 30
0.0
 40
2.0
100
AcDbArc
 50
270.0
 51
0.0
  0
ARC
  5
D0
330
B8
100
AcDbEntity
  8
0
 62
     2
100
AcDbCircle
 10
-2.763456
 20
-23.0
 30
0.0
 40
2.0
100
AcDbArc
 50
180.0
 51
270.0
  0
ARC
  5
D1
330
B8
100
AcDbEntity
  8
0
 62
     2
100
AcDbCircle
 10
-23.0
 20
-2.763456
 30
0.0
 40
2.0
100
AcDbArc
 50
180.0
 51
270.0
  0
ARC
  5
D2
330
B8
100
AcDbEntity
  8
0
 62
     2
100
AcDbCircle
 10
-23.0
 20
2.763456
 30
0.0
 40
2.0
100
AcDbArc
 50
90.0
 51
180.0
  0
LINE
  5
D3
330
B8
100
AcDbEntity
  8
0
 62
     2
100
AcDbLine
 10
-16.263456
 20
-4.763456
 30
0.0
 11
-23.0
 21
-4.763456
 31
0.0
  0
LINE
  5
D4
330
B8
100
AcDbEntity
  8
0
 62
     2
100
AcDbLine
 10
-16.263456
 20
4.763456
 30
0.0
 11
-23.0
 21
4.763456
 31
0.0
  0
LINE
  5
D5
330
B8
100
AcDbEntity
  8
0
 62
     2
100
AcDbLine
 10
-25.0
 20
2.763456
 30
0.0
 11
-25.0
 21
-2.763456
 31
0.0
  0
ARC
  5
D6
330
B8
100
AcDbEntity
  8
0
 62
     2
100
AcDbCircle
 10
-16.263456
 20
-16.263456
 30
0.0
 40
11.5
100
AcDbArc
 50
0.0
 51
90.0
  0
CIRCLE
  5
D7
330
B8
100
AcDbEntity
  8
0
  6
HIDDEN
 62
     2
100
AcDbCircle
 10
0.0
 20
0.0
 30
0.0
 40
6.0
  0
CIRCLE
  5
D8
330
B8
100
AcDbEntity
  8
0
 62
     5
100
AcDbCircle
 10
0.0
 20
0.0
 30
0.0
 40
17.3367
  0
LINE
  5
D9
330
B8
100
AcDbEntity
  8
0
 62
     5
100
AcDbLine
 10
19.083648
 20
19.25
 30
0.0
 11
19.083648
 21
-19.25
 31
0.0
  0
LINE
  5
DA
330
B8
100
AcDbEntity
  8
0
 62
     5
100
AcDbLine
 10
22.5
 20
32.0
 30
0.0
 11
19.083648
 21
19.25
 31
0.0
  0
LINE
  5
DB
330
B8
100
AcDbEntity
  8
0
 62
     5
100
AcDbLine
 10
-19.083648
 20
19.25
 30
0.0
 11
-19.083648
 21
-19.25
 31
0.0
  0
LINE
  5
DC
330
B8
100
AcDbEntity
  8
0
 62
     5
100
AcDbLine
 10
-22.5
 20
32.0
 30
0.0
 11
-19.083648
 21
19.25
 31
0.0
  0
LINE
  5
DD
330
B8
100
AcDbEntity
  8
0
 62
     5
100
AcDbLine
 10
-22.5
 20
32.0
 30
0.0
 11
22.5
 21
32.0
 31
0.0
  0
LINE
  5
DE
330
B8
100
AcDbEntity
  8
0
 62
     5
100
AcDbLine
 10
-19.083648
 20
19.25
 30
0.0
 11
19.083648
 21
19.25
 31
0.0
  0
CIRCLE
  5
DF
330
B8
100
AcDbEntity
  8
0
  6
HIDDEN
 62
     5
100
AcDbCircle
 10
0.0
 20
0.0
 30
0.0
 40
5.25
  0
CIRCLE
  5
E0
330
B8
100
AcDbEntity
  8
0
  6
HIDDEN
 62
     5
100
AcDbCircle
 10
0.0
 20
0.0
 30
0.0
 40
15.0
  0
LINE
  5
E1
330
B8
100
AcDbEntity
  8
0
 62
     5
100
AcDbLine
 10
-22.5
 20
64.0
 30
0.0
 11
22.5
 21
64.0
 31
0.0
  0
LINE
  5
E2
330
B8
100
AcDbEntity
  8
0
 62
     5
100
AcDbLine
 10
22.5
 20
64.0
 30
0.0
 11
22.5
 21
32.0
 31
0.0
  0
LINE
  5
E3
330
B8
100
AcDbEntity
  8
0
 62
     5
100
AcDbLine
 10
-19.083648
 20
-19.25
 30
0.0
 11
19.083648
 21
-19.25
 31
0.0
  0
LINE
  5
E4
330
B8
100
AcDbEntity
  8
0
 62
     5
100
AcDbLine
 10
-22.5
 20
64.0
 30
0.0
 11
-22.5
 21
32.0
 31
0.0
  0
ENDBLK
  5
E5
330
B8
100
AcDbEntity
  8
0
100
AcDbBlockEnd
  0
ENDSEC
  0
SECTION
  2
ENTITIES
  0
INSERT
  5
E6
330
18
100
AcDbEntity
  8
0
100
AcDbBlockReference
  2
178A
 10
0.0
 20
0.0
 30
0.0
  0
INSERT
  5
E7
330
18
100
AcDbEntity
  8
0
100
AcDbBlockReference
  2
178B
 10
62.5
 20
-122.0
 30
0.0
  0
INSERT
  5
E8
330
18
100
AcDbEntity
  8
0
100
AcDbBlockReference
  2
178C
 10
0.0
 20
-270.0
 30
0.0
  0
ENDSEC
  0
SECTION
  2
OBJECTS
  0
DICTIONARY
  5
C
330
0
100
AcDbDictionary
  3
ACAD_GROUP
350
D
  3
ACAD_LAYOUT
350
EB
  3
ACAD_MLINESTYLE
350
1B
  3
ACDBHEADERROUNDTRIPXREC
350
EE
  0
DICTIONARY
  5
10D
330
EA
100
AcDbDictionary
280
     1
  3
ACAD_XREC_ROUNDTRIP
360
10E
  0
DICTIONARY
  5
D
102
{ACAD_REACTORS
330
C
102
}
330
C
100
AcDbDictionary
  0
DICTIONARY
  5
EB
102
{ACAD_REACTORS
330
C
102
}
330
C
100
AcDbDictionary
  0
DICTIONARY
  5
1B
102
{ACAD_REACTORS
330
C
102
}
330
C
100
AcDbDictionary
  3
STANDARD
350
1C
  0
DICTIONARY
  5
EE
102
{ACAD_REACTORS
330
C
102
}
330
C
100
AcDbDictionary
  3
CEPSNTYPE
350
F6
  3
DIMSTYLEDATA
350
10C
  3
FINGERPRINTGUID
350
F7
  3
HYPERLINKBASE
350
F1
  3
INSUNITS
350
F5
  3
LAYOUTDICT
350
F3
  3
LWETCUNION
350
F4
  3
PSVPSCALE
350
F9
  3
PUCSBASE
350
FC
  3
PUCSORGBACK
350
102
  3
PUCSORGBOTTOM
350
FE
  3
PUCSORGFRONT
350
101
  3
PUCSORGLEFT
350
FF
  3
PUCSORGRIGHT
350
100
  3
PUCSORGTOP
350
FD
  3
PUCSORTHOREF
350
FA
  3
PUCSORTHOVIEW
350
FB
  3
STYLESHEET
350
F2
  3
TSTACKALIGN
350
EF
  3
TSTACKSIZE
350
F0
  3
UCSBASE
350
105
  3
UCSORGBACK
350
10B
  3
UCSORGBOTTOM
350
107
  3
UCSORGFRONT
350
10A
  3
UCSORGLEFT
350
108
  3
UCSORGRIGHT
350
109
  3
UCSORGTOP
350
106
  3
UCSORTHOREF
350
103
  3
UCSORTHOVIEW
350
104
  3
VERSIONGUID
350
F8
  0
XRECORD
  5
10E
102
{ACAD_REACTORS
330
10D
102
}
330
10D
100
AcDbXrecord
102
UCS
 74
     0
 71
     1
 10
0.0
 20
0.0
 30
0.0
 10
1.0
 20
0.0
 30
0.0
 10
0.0
 20
1.0
 30
0.0
146
0.0
 79
     0
102
VIEW
281
     0
  0
MLINESTYLE
  5
1C
102
{ACAD_REACTORS
330
1B
102
}
330
1B
100
AcDbMlineStyle
  2
STANDARD
 70
     0
  3

 62
   256
 51
90.0
 52
90.0
 71
     2
 49
0.5
 62
   256
  6
BYLAYER
 49
-0.5
 62
   256
  6
BYLAYER
  0
XRECORD
  5
F6
102
{ACAD_REACTORS
330
EE
102
}
330
EE
100
AcDbXrecord
 90
        0
  0
XRECORD
  5
10C
102
{ACAD_REACTORS
330
EE
102
}
330
EE
100
AcDbXrecord
1000
DSTYLE
1002
{
1070
   340
340
F
1002
}
  0
XRECORD
  5
F7
102
{ACAD_REACTORS
330
EE
102
}
330
EE
100
AcDbXrecord
  1
{FAEB1C30-E019-11D5-929B-00C0DF256EC4}
  0
XRECORD
  5
F1
102
{ACAD_REACTORS
330
EE
102
}
330
EE
100
AcDbXrecord
  1

  0
XRECORD
  5
F5
102
{ACAD_REACTORS
330
EE
102
}
330
EE
100
AcDbXrecord
 90
        0
  0
XRECORD
  5
F3
102
{ACAD_REACTORS
330
EE
102
}
330
EE
100
AcDbXrecord
340
EB
  0
XRECORD
  5
F4
102
{ACAD_REACTORS
330
EE
102
}
330
EE
100
AcDbXrecord
 90
    10781
  0
XRECORD
  5
F9
102
{ACAD_REACTORS
330
EE
102
}
330
EE
100
AcDbXrecord
 40
0.0
  0
XRECORD
  5
FC
102
{ACAD_REACTORS
330
EE
102
}
330
EE
100
AcDbXrecord
340
0
  0
XRECORD
  5
102
102
{ACAD_REACTORS
330
EE
102
}
330
EE
100
AcDbXrecord
 10
0.0
 20
0.0
 30
0.0
  0
XRECORD
  5
FE
102
{ACAD_REACTORS
330
EE
102
}
330
EE
100
AcDbXrecord
 10
0.0
 20
0.0
 30
0.0
  0
XRECORD
  5
101
102
{ACAD_REACTORS
330
EE
102
}
330
EE
100
AcDbXrecord
 10
0.0
 20
0.0
 30
0.0
  0
XRECORD
  5
FF
102
{ACAD_REACTORS
330
EE
102
}
330
EE
100
AcDbXrecord
 10
0.0
 20
0.0
 30
0.0
  0
XRECORD
  5
100
102
{ACAD_REACTORS
330
EE
102
}
330
EE
100
AcDbXrecord
 10
0.0
 20
0.0
 30
0.0
  0
XRECORD
  5
FD
102
{ACAD_REACTORS
330
EE
102
}
330
EE
100
AcDbXrecord
 10
0.0
 20
0.0
 30
0.0
  0
XRECORD
  5
FA
102
{ACAD_REACTORS
330
EE
102
}
330
EE
100
AcDbXrecord
340
0
  0
XRECORD
  5
FB
102
{ACAD_REACTORS
330
EE
102
}
330
EE
100
AcDbXrecord
 70
     0
  0
XRECORD
  5
F2
102
{ACAD_REACTORS
330
EE
102
}
330
EE
100
AcDbXrecord
  1

  0
XRECORD
  5
EF
102
{ACAD_REACTORS
330
EE
102
}
330
EE
100
AcDbXrecord
 90
        1
  0
XRECORD
  5
F0
102
{ACAD_REACTORS
330
EE
102
}
330
EE
100
AcDbXrecord
 90
       70
  0
XRECORD
  5
105
102
{ACAD_REACTORS
330
EE
102
}
330
EE
100
AcDbXrecord
340
0
  0
XRECORD
  5
10B
102
{ACAD_REACTORS
330
EE
102
}
330
EE
100
AcDbXrecord
 10
0.0
 20
0.0
 30
0.0
  0
XRECORD
  5
107
102
{ACAD_REACTORS
330
EE
102
}
330
EE
100
AcDbXrecord
 10
0.0
 20
0.0
 30
0.0
  0
XRECORD
  5
10A
102
{ACAD_REACTORS
330
EE
102
}
330
EE
100
AcDbXrecord
 10
0.0
 20
0.0
 30
0.0
  0
XRECORD
  5
108
102
{ACAD_REACTORS
330
EE
102
}
330
EE
100
AcDbXrecord
 10
0.0
 20
0.0
 30
0.0
  0
XRECORD
  5
109
102
{ACAD_REACTORS
330
EE
102
}
330
EE
100
AcDbXrecord
 10
0.0
 20
0.0
 30
0.0
  0
XRECORD
  5
106
102
{ACAD_REACTORS
330
EE
102
}
330
EE
100
AcDbXrecord
 10
0.0
 20
0.0
 30
0.0
  0
XRECORD
  5
103
102
{ACAD_REACTORS
330
EE
102
}
330
EE
100
AcDbXrecord
340
0
  0
XRECORD
  5
104
102
{ACAD_REACTORS
330
EE
102
}
330
EE
100
AcDbXrecord
 70
     0
  0
XRECORD
  5
F8
102
{ACAD_REACTORS
330
EE
102
}
330
EE
100
AcDbXrecord
  1
{FAEB1C32-E019-11D5-929B-00C0DF256EC4}
  0
ENDSEC
  0
EOF
