  0
SECTION
  2
HEADER
  9
$ACADVER
  1
AC1014
  9
$ACADMAINTVER
 70
     9
  9
$DWGCODEPAGE
  3
ANSI_1252
  9
$INSBASE
 10
0.0
 20
0.0
 30
0.0
  9
$EXTMIN
 10
-49.00000000000001
 20
-65.5
 30
0.0
  9
$EXTMAX
 10
69.5
 20
14.75
 30
0.0
  9
$LIMMIN
 10
0.0
 20
0.0
  9
$LIMMAX
 10
297.0
 20
210.0
  9
$ORTHOMODE
 70
     0
  9
$REGENMODE
 70
     1
  9
$FILLMODE
 70
     1
  9
$QTEXTMODE
 70
     0
  9
$MIRRTEXT
 70
     1
  9
$DRAGMODE
 70
     2
  9
$LTSCALE
 40
10.0
  9
$OSMODE
 70
    37
  9
$ATTMODE
 70
     1
  9
$TEXTSIZE
 40
0.2
  9
$TRACEWID
 40
0.05
  9
$TEXTSTYLE
  7
STANDARD
  9
$CLAYER
  8
0
  9
$CELTYPE
  6
BYLAYER
  9
$CECOLOR
 62
   256
  9
$CELTSCALE
 40
1.0
  9
$DELOBJ
 70
     1
  9
$DISPSILH
 70
     0
  9
$DIMSCALE
 40
1.0
  9
$DIMASZ
 40
0.18
  9
$DIMEXO
 40
0.0625
  9
$DIMDLI
 40
0.38
  9
$DIMRND
 40
0.0
  9
$DIMDLE
 40
0.0
  9
$DIMEXE
 40
0.18
  9
$DIMTP
 40
0.0
  9
$DIMTM
 40
0.0
  9
$DIMTXT
 40
0.18
  9
$DIMCEN
 40
0.09
  9
$DIMTSZ
 40
0.0
  9
$DIMTOL
 70
     0
  9
$DIMLIM
 70
     0
  9
$DIMTIH
 70
     1
  9
$DIMTOH
 70
     1
  9
$DIMSE1
 70
     0
  9
$DIMSE2
 70
     0
  9
$DIMTAD
 70
     0
  9
$DIMZIN
 70
     0
  9
$DIMBLK
  1

  9
$DIMASO
 70
     1
  9
$DIMSHO
 70
     0
  9
$DIMPOST
  1

  9
$DIMAPOST
  1

  9
$DIMALT
 70
     0
  9
$DIMALTD
 70
     2
  9
$DIMALTF
 40
25.4
  9
$DIMLFAC
 40
1.0
  9
$DIMTOFL
 70
     0
  9
$DIMTVP
 40
0.0
  9
$DIMTIX
 70
     0
  9
$DIMSOXD
 70
     0
  9
$DIMSAH
 70
     0
  9
$DIMBLK1
  1

  9
$DIMBLK2
  1

  9
$DIMSTYLE
  2
STANDARD
  9
$DIMCLRD
 70
     0
  9
$DIMCLRE
 70
     0
  9
$DIMCLRT
 70
     0
  9
$DIMTFAC
 40
1.0
  9
$DIMGAP
 40
0.09
  9
$DIMJUST
 70
     0
  9
$DIMSD1
 70
     0
  9
$DIMSD2
 70
     0
  9
$DIMTOLJ
 70
     1
  9
$DIMTZIN
 70
     0
  9
$DIMALTZ
 70
     0
  9
$DIMALTTZ
 70
     0
  9
$DIMFIT
 70
     3
  9
$DIMUPT
 70
     0
  9
$DIMUNIT
 70
     2
  9
$DIMDEC
 70
     4
  9
$DIMTDEC
 70
     4
  9
$DIMALTU
 70
     2
  9
$DIMALTTD
 70
     2
  9
$DIMTXSTY
  7
STANDARD
  9
$DIMAUNIT
 70
     0
  9
$LUNITS
 70
     2
  9
$LUPREC
 70
     4
  9
$SKETCHINC
 40
0.1
  9
$FILLETRAD
 40
0.0
  9
$AUNITS
 70
     0
  9
$AUPREC
 70
     0
  9
$MENU
  1
sitopluk
  9
$ELEVATION
 40
0.0
  9
$PELEVATION
 40
0.0
  9
$THICKNESS
 40
0.0
  9
$LIMCHECK
 70
     0
  9
$CHAMFERA
 40
0.0
  9
$CHAMFERB
 40
0.0
  9
$CHAMFERC
 40
0.0
  9
$CHAMFERD
 40
0.0
  9
$SKPOLY
 70
     0
  9
$TDCREATE
 40
2450498.379459838
  9
$TDUPDATE
 40
2453594.522018785
  9
$TDINDWG
 40
0.0000955093
  9
$TDUSRTIMER
 40
0.0000955093
  9
$USRTIMER
 70
     1
  9
$ANGBASE
 50
0.0
  9
$ANGDIR
 70
     0
  9
$PDMODE
 70
     0
  9
$PDSIZE
 40
0.0
  9
$PLINEWID
 40
0.0
  9
$COORDS
 70
     1
  9
$SPLFRAME
 70
     0
  9
$SPLINETYPE
 70
     6
  9
$SPLINESEGS
 70
     8
  9
$ATTDIA
 70
     0
  9
$ATTREQ
 70
     1
  9
$HANDLING
 70
     1
  9
$HANDSEED
  5
92
  9
$SURFTAB1
 70
     6
  9
$SURFTAB2
 70
     6
  9
$SURFTYPE
 70
     6
  9
$SURFU
 70
     6
  9
$SURFV
 70
     6
  9
$UCSNAME
  2

  9
$UCSORG
 10
0.0
 20
0.0
 30
0.0
  9
$UCSXDIR
 10
1.0
 20
0.0
 30
0.0
  9
$UCSYDIR
 10
0.0
 20
1.0
 30
0.0
  9
$PUCSNAME
  2

  9
$PUCSORG
 10
0.0
 20
0.0
 30
0.0
  9
$PUCSXDIR
 10
1.0
 20
0.0
 30
0.0
  9
$PUCSYDIR
 10
0.0
 20
1.0
 30
0.0
  9
$USERI1
 70
     0
  9
$USERI2
 70
     0
  9
$USERI3
 70
     0
  9
$USERI4
 70
     0
  9
$USERI5
 70
     0
  9
$USERR1
 40
0.0
  9
$USERR2
 40
0.0
  9
$USERR3
 40
0.0
  9
$USERR4
 40
0.0
  9
$USERR5
 40
0.0
  9
$WORLDVIEW
 70
     1
  9
$SHADEDGE
 70
     3
  9
$SHADEDIF
 70
    70
  9
$TILEMODE
 70
     1
  9
$MAXACTVP
 70
    48
  9
$PINSBASE
 10
0.0
 20
0.0
 30
0.0
  9
$PLIMCHECK
 70
     0
  9
$PEXTMIN
 10
1.000000000000000E+20
 20
1.000000000000000E+20
 30
1.000000000000000E+20
  9
$PEXTMAX
 10
-1.000000000000000E+20
 20
-1.000000000000000E+20
 30
-1.000000000000000E+20
  9
$PLIMMIN
 10
0.0
 20
0.0
  9
$PLIMMAX
 10
12.0
 20
9.0
  9
$UNITMODE
 70
     0
  9
$VISRETAIN
 70
     1
  9
$PLINEGEN
 70
     0
  9
$PSLTSCALE
 70
     1
  9
$TREEDEPTH
 70
  3020
  9
$PICKSTYLE
 70
     1
  9
$CMLSTYLE
  2
STANDARD
  9
$CMLJUST
 70
     0
  9
$CMLSCALE
 40
1.0
  9
$PROXYGRAPHICS
 70
     1
  9
$MEASUREMENT
 70
     0
  0
ENDSEC
  0
SECTION
  2
CLASSES
  0
CLASS
  1
XRECORD
  2
AcDbXrecord
  3
AutoCAD 2000
 90
        0
280
     0
281
     0
  0
CLASS
  1
LWPOLYLINE
  2
AcDbPolyline
  3
AutoCAD 2000
 90
        0
280
     0
281
     1
  0
CLASS
  1
HATCH
  2
AcDbHatch
  3
AutoCAD 2000
 90
        0
280
     0
281
     1
  0
CLASS
  1
ACDBPLACEHOLDER
  2
AcDbPlaceHolder
  3
ObjectDBX Classes
 90
        0
280
     0
281
     0
  0
CLASS
  1
LAYOUT
  2
AcDbLayout
  3
ObjectDBX Classes
 90
        0
280
     0
281
     0
  0
ENDSEC
  0
SECTION
  2
TABLES
  0
TABLE
  2
VPORT
  5
8
330
0
100
AcDbSymbolTable
 70
     2
  0
VPORT
  5
6D
102
{ACAD_XDICTIONARY
360
90
102
}
330
8
100
AcDbSymbolTableRecord
100
AcDbViewportTableRecord
  2
*ACTIVE
 70
     0
 10
0.0
 20
0.0
 11
1.0
 21
1.0
 12
124.0
 22
72.24999999999999
 13
0.0
 23
0.0
 14
0.5
 24
0.5
 15
0.0
 25
0.0
 16
0.0
 26
0.0
 36
1.0
 17
0.0
 27
0.0
 37
0.0
 40
278.6188679245283
 41
1.748582230623819
 42
50.0
 43
0.0
 44
0.0
 50
0.0
 51
0.0
 71
     0
 72
   100
 73
     1
 74
     1
 75
     1
 76
     0
 77
     0
 78
     0
  0
ENDTAB
  0
TABLE
  2
LTYPE
  5
5
330
0
100
AcDbSymbolTable
 70
     2
  0
LTYPE
  5
12
330
5
100
AcDbSymbolTableRecord
100
AcDbLinetypeTableRecord
  2
BYBLOCK
 70
     0
  3

 72
    65
 73
     0
 40
0.0
  0
LTYPE
  5
13
330
5
100
AcDbSymbolTableRecord
100
AcDbLinetypeTableRecord
  2
BYLAYER
 70
     0
  3

 72
    65
 73
     0
 40
0.0
  0
LTYPE
  5
14
330
5
100
AcDbSymbolTableRecord
100
AcDbLinetypeTableRecord
  2
CONTINUOUS
 70
     0
  3
Solid line
 72
    65
 73
     0
 40
0.0
  0
LTYPE
  5
1F
330
5
100
AcDbSymbolTableRecord
100
AcDbLinetypeTableRecord
  2
HIDDEN
 70
     0
  3
_ _ _ _ _ _ _ _ _ _ _ _ _ _ _ _ _ _ _ _ _ _ _
 72
    65
 73
     2
 40
0.375
 49
0.25
 74
     0
 49
-0.125
 74
     0
  0
ENDTAB
  0
TABLE
  2
LAYER
  5
2
330
0
100
AcDbSymbolTable
 70
     4
  0
LAYER
  5
E
330
2
100
AcDbSymbolTableRecord
100
AcDbLayerTableRecord
  2
0
 70
     0
 62
     7
  6
CONTINUOUS
  0
LAYER
  5
20
330
2
100
AcDbSymbolTableRecord
100
AcDbLayerTableRecord
  2
PROFILI
 70
     0
 62
     7
  6
CONTINUOUS
  0
LAYER
  5
21
330
2
100
AcDbSymbolTableRecord
100
AcDbLayerTableRecord
  2
FISSAGGI
 70
     0
 62
     2
  6
CONTINUOUS
  0
LAYER
  5
22
330
2
100
AcDbSymbolTableRecord
100
AcDbLayerTableRecord
  2
PANNELLI
 70
     0
 62
     6
  6
CONTINUOUS
  0
ENDTAB
  0
TABLE
  2
STYLE
  5
3
330
0
100
AcDbSymbolTable
 70
     1
  0
STYLE
  5
F
330
3
100
AcDbSymbolTableRecord
100
AcDbTextStyleTableRecord
  2
STANDARD
 70
     0
 40
0.0
 41
1.0
 50
0.0
 71
     0
 42
0.2
  3
txt
  4

  0
ENDTAB
  0
TABLE
  2
VIEW
  5
6
330
0
100
AcDbSymbolTable
 70
     0
  0
ENDTAB
  0
TABLE
  2
UCS
  5
7
330
0
100
AcDbSymbolTable
 70
     0
  0
ENDTAB
  0
TABLE
  2
APPID
  5
9
330
0
100
AcDbSymbolTable
 70
     1
  0
APPID
  5
10
330
9
100
AcDbSymbolTableRecord
100
AcDbRegAppTableRecord
  2
ACAD
 70
     0
  0
ENDTAB
  0
TABLE
  2
DIMSTYLE
  5
A
330
0
100
AcDbSymbolTable
 70
     1
  0
DIMSTYLE
105
6C
330
A
100
AcDbSymbolTableRecord
100
AcDbDimStyleTableRecord
  2
STANDARD
 70
     0
  3

  4

  5

  6

  7

 40
1.0
 41
0.18
 42
0.0625
 43
0.38
 44
0.18
 45
0.0
 46
0.0
 47
0.0
 48
0.0
140
0.18
141
0.09
142
0.0
143
25.4
144
1.0
145
0.0
146
1.0
147
0.09
 71
     0
 72
     0
 73
     1
 74
     1
 75
     0
 76
     0
 77
     0
 78
     0
170
     0
171
     2
172
     0
173
     0
174
     0
175
     0
176
     0
177
     0
178
     0
270
     2
271
     4
272
     4
273
     2
274
     2
340
F
275
     0
280
     0
281
     0
282
     0
283
     1
284
     0
285
     0
286
     0
287
     3
288
     0
  0
ENDTAB
  0
TABLE
  2
BLOCK_RECORD
  5
1
330
0
100
AcDbSymbolTable
 70
     4
  0
BLOCK_RECORD
  5
18
330
1
100
AcDbSymbolTableRecord
100
AcDbBlockTableRecord
  2
*MODEL_SPACE
  0
BLOCK_RECORD
  5
15
330
1
100
AcDbSymbolTableRecord
100
AcDbBlockTableRecord
  2
*PAPER_SPACE
  0
BLOCK_RECORD
  5
23
330
1
100
AcDbSymbolTableRecord
100
AcDbBlockTableRecord
  2
BORDER
  0
BLOCK_RECORD
  5
2A
330
1
100
AcDbSymbolTableRecord
100
AcDbBlockTableRecord
  2
174RD
  0
BLOCK_RECORD
  5
43
330
1
100
AcDbSymbolTableRecord
100
AcDbBlockTableRecord
  2
174RC
  0
BLOCK_RECORD
  5
50
330
1
100
AcDbSymbolTableRecord
100
AcDbBlockTableRecord
  2
174RE
  0
ENDTAB
  0
ENDSEC
  0
SECTION
  2
BLOCKS
  0
BLOCK
  5
19
330
18
100
AcDbEntity
  8
0
100
AcDbBlockBegin
  2
*MODEL_SPACE
 70
     0
 71
     0
 10
0.0
 20
0.0
 30
0.0
  3
*MODEL_SPACE
  1

  0
ENDBLK
  5
1A
330
18
100
AcDbEntity
  8
0
100
AcDbBlockEnd
  0
BLOCK
  5
16
330
15
100
AcDbEntity
 67
     1
  8
0
100
AcDbBlockBegin
  2
*PAPER_SPACE
 70
     0
 71
     0
 10
0.0
 20
0.0
 30
0.0
  3
*PAPER_SPACE
  1

  0
ENDBLK
  5
17
330
15
100
AcDbEntity
 67
     1
  8
0
100
AcDbBlockEnd
  0
BLOCK
  5
24
330
23
100
AcDbEntity
  8
0
100
AcDbBlockBegin
  2
BORDER
 70
     0
 71
     0
 10
0.0
 20
0.0
 30
0.0
  3
BORDER
  1

  0
LINE
  5
25
330
23
100
AcDbEntity
  8
0
100
AcDbLine
 10
0.0
 20
0.0
 30
0.0
 11
1.0
 21
0.0
 31
0.0
  0
LINE
  5
26
330
23
100
AcDbEntity
  8
0
100
AcDbLine
 10
1.0
 20
0.0
 30
0.0
 11
1.0
 21
1.0
 31
0.0
  0
LINE
  5
27
330
23
100
AcDbEntity
  8
0
100
AcDbLine
 10
1.0
 20
1.0
 30
0.0
 11
0.0
 21
1.0
 31
0.0
  0
LINE
  5
28
330
23
100
AcDbEntity
  8
0
100
AcDbLine
 10
0.0
 20
1.0
 30
0.0
 11
0.0
 21
0.0
 31
0.0
  0
ENDBLK
  5
29
330
23
100
AcDbEntity
  8
0
100
AcDbBlockEnd
  0
BLOCK
  5
2B
330
2A
100
AcDbEntity
  8
0
100
AcDbBlockBegin
  2
174RD
 70
     0
 71
     0
 10
0.0
 20
0.0
 30
0.0
  3
174RD
  1

  0
ARC
  5
2C
330
2A
100
AcDbEntity
  8
0
100
AcDbCircle
 10
0.0
 20
0.0
 30
0.0
 40
9.0
100
AcDbArc
 50
9.594068
 51
350.405932
  0
LINE
  5
2D
330
2A
100
AcDbEntity
  8
0
100
AcDbLine
 10
24.0
 20
-1.5
 30
0.0
 11
24.0
 21
-10.75
 31
0.0
  0
LINE
  5
2E
330
2A
100
AcDbEntity
  8
0
100
AcDbLine
 10
8.87412
 20
-1.5
 30
0.0
 11
24.0
 21
-1.5
 31
0.0
  0
LINE
  5
2F
330
2A
100
AcDbEntity
  8
0
100
AcDbLine
 10
8.87412
 20
1.5
 30
0.0
 11
24.0
 21
1.5
 31
0.0
  0
LINE
  5
30
330
2A
100
AcDbEntity
  8
0
  6
HIDDEN
100
AcDbLine
 10
-34.0
 20
-14.75
 30
0.0
 11
-34.0
 21
14.75
 31
0.0
  0
LINE
  5
31
330
2A
100
AcDbEntity
  8
0
  6
HIDDEN
100
AcDbLine
 10
-16.0
 20
-14.75
 30
0.0
 11
-16.0
 21
14.75
 31
0.0
  0
LWPOLYLINE
  5
32
330
2A
100
AcDbEntity
  8
0
100
AcDbPolyline
 90
        6
 70
     1
 43
0.0
 10
-37.5
 20
2.020726
 10
-41.0
 20
4.041452
 10
-44.5
 20
2.020726
 10
-44.5
 20
-2.020726
 10
-41.0
 20
-4.041452
 10
-37.5
 20
-2.020726
  0
ARC
  5
3A
330
2A
100
AcDbEntity
  8
0
100
AcDbCircle
 10
-41.0
 20
0.0
 30
0.0
 40
2.0
100
AcDbArc
 50
180.0
 51
90.0
  0
CIRCLE
  5
3B
330
2A
100
AcDbEntity
  8
0
100
AcDbCircle
 10
-41.0
 20
0.0
 30
0.0
 40
1.5
  0
LINE
  5
3C
330
2A
100
AcDbEntity
  8
0
100
AcDbLine
 10
0.0
 20
-14.75
 30
0.0
 11
24.0
 21
-10.75
 31
0.0
  0
LINE
  5
3D
330
2A
100
AcDbEntity
  8
0
100
AcDbLine
 10
0.0
 20
14.75
 30
0.0
 11
24.0
 21
10.75
 31
0.0
  0
ARC
  5
3E
330
2A
100
AcDbEntity
  8
0
100
AcDbCircle
 10
-34.25
 20
0.0
 30
0.0
 40
14.75
100
AcDbArc
 50
90.0
 51
270.0
  0
LINE
  5
3F
330
2A
100
AcDbEntity
  8
0
100
AcDbLine
 10
24.0
 20
10.75
 30
0.0
 11
24.0
 21
1.5
 31
0.0
  0
LINE
  5
40
330
2A
100
AcDbEntity
  8
0
100
AcDbLine
 10
-34.25
 20
14.75
 30
0.0
 11
0.0
 21
14.75
 31
0.0
  0
LINE
  5
41
330
2A
100
AcDbEntity
  8
0
100
AcDbLine
 10
-34.25
 20
-14.75
 30
0.0
 11
0.0
 21
-14.75
 31
0.0
  0
ENDBLK
  5
42
330
2A
100
AcDbEntity
  8
0
100
AcDbBlockEnd
  0
BLOCK
  5
44
330
43
100
AcDbEntity
  8
0
100
AcDbBlockBegin
  2
174RC
 70
     0
 71
     0
 10
0.0
 20
0.0
 30
0.0
  3
174RC
  1

  0
LINE
  5
45
330
43
100
AcDbEntity
  8
0
  6
HIDDEN
100
AcDbLine
 10
-9.0
 20
0.0
 30
0.0
 11
-9.0
 21
29.5
 31
0.0
  0
LINE
  5
46
330
43
100
AcDbEntity
  8
0
  6
HIDDEN
100
AcDbLine
 10
9.0
 20
0.0
 30
0.0
 11
9.0
 21
29.5
 31
0.0
  0
LINE
  5
47
330
43
100
AcDbEntity
  8
0
100
AcDbLine
 10
14.75
 20
0.0
 30
0.0
 11
14.75
 21
29.5
 31
0.0
  0
LINE
  5
48
330
43
100
AcDbEntity
  8
0
100
AcDbLine
 10
-14.75
 20
16.25
 30
0.0
 11
14.75
 21
16.25
 31
0.0
  0
LINE
  5
49
330
43
100
AcDbEntity
  8
0
100
AcDbLine
 10
-14.75
 20
13.25
 30
0.0
 11
14.75
 21
13.25
 31
0.0
  0
LINE
  5
4A
330
43
100
AcDbEntity
  8
0
100
AcDbLine
 10
-14.75
 20
4.0
 30
0.0
 11
14.75
 21
4.0
 31
0.0
  0
LINE
  5
4B
330
43
100
AcDbEntity
  8
0
100
AcDbLine
 10
-14.75
 20
25.5
 30
0.0
 11
14.75
 21
25.5
 31
0.0
  0
LINE
  5
4C
330
43
100
AcDbEntity
  8
0
100
AcDbLine
 10
-14.75
 20
29.5
 30
0.0
 11
14.75
 21
29.5
 31
0.0
  0
LINE
  5
4D
330
43
100
AcDbEntity
  8
0
100
AcDbLine
 10
-14.75
 20
0.0
 30
0.0
 11
-14.75
 21
29.5
 31
0.0
  0
LINE
  5
4E
330
43
100
AcDbEntity
  8
0
100
AcDbLine
 10
-14.75
 20
0.0
 30
0.0
 11
14.75
 21
0.0
 31
0.0
  0
ENDBLK
  5
4F
330
43
100
AcDbEntity
  8
0
100
AcDbBlockEnd
  0
BLOCK
  5
51
330
50
100
AcDbEntity
  8
0
100
AcDbBlockBegin
  2
174RE
 70
     0
 71
     0
 10
0.0
 20
0.0
 30
0.0
  3
174RE
  1

  0
ARC
  5
52
330
50
100
AcDbEntity
  8
0
100
AcDbCircle
 10
0.0
 20
0.0
 30
0.0
 40
9.0
100
AcDbArc
 50
189.594068
 51
170.405932
  0
LINE
  5
53
330
50
100
AcDbEntity
  8
0
100
AcDbLine
 10
-24.0
 20
-1.5
 30
0.0
 11
-24.0
 21
-10.75
 31
0.0
  0
LINE
  5
54
330
50
100
AcDbEntity
  8
0
100
AcDbLine
 10
-8.87412
 20
-1.5
 30
0.0
 11
-24.0
 21
-1.5
 31
0.0
  0
LINE
  5
55
330
50
100
AcDbEntity
  8
0
100
AcDbLine
 10
-8.87412
 20
1.5
 30
0.0
 11
-24.0
 21
1.5
 31
0.0
  0
LINE
  5
56
330
50
100
AcDbEntity
  8
0
  6
HIDDEN
100
AcDbLine
 10
34.0
 20
-14.75
 30
0.0
 11
34.0
 21
14.75
 31
0.0
  0
LINE
  5
57
330
50
100
AcDbEntity
  8
0
  6
HIDDEN
100
AcDbLine
 10
16.0
 20
-14.75
 30
0.0
 11
16.0
 21
14.75
 31
0.0
  0
LWPOLYLINE
  5
58
330
50
100
AcDbEntity
  8
0
100
AcDbPolyline
 90
        6
 70
     1
 43
0.0
 10
37.5
 20
2.020726
 10
41.0
 20
4.041452
 10
44.5
 20
2.020726
 10
44.5
 20
-2.020726
 10
41.0
 20
-4.041452
 10
37.5
 20
-2.020726
  0
ARC
  5
60
330
50
100
AcDbEntity
  8
0
100
AcDbCircle
 10
41.0
 20
0.0
 30
0.0
 40
2.0
100
AcDbArc
 50
90.0
 51
0.0
  0
CIRCLE
  5
61
330
50
100
AcDbEntity
  8
0
100
AcDbCircle
 10
41.0
 20
0.0
 30
0.0
 40
1.5
  0
LINE
  5
62
330
50
100
AcDbEntity
  8
0
100
AcDbLine
 10
0.0
 20
-14.75
 30
0.0
 11
-24.0
 21
-10.75
 31
0.0
  0
LINE
  5
63
330
50
100
AcDbEntity
  8
0
100
AcDbLine
 10
0.0
 20
14.75
 30
0.0
 11
-24.0
 21
10.75
 31
0.0
  0
ARC
  5
64
330
50
100
AcDbEntity
  8
0
100
AcDbCircle
 10
34.25
 20
0.0
 30
0.0
 40
14.75
100
AcDbArc
 50
270.0
 51
90.0
  0
LINE
  5
65
330
50
100
AcDbEntity
  8
0
100
AcDbLine
 10
-24.0
 20
10.75
 30
0.0
 11
-24.0
 21
1.5
 31
0.0
  0
LINE
  5
66
330
50
100
AcDbEntity
  8
0
100
AcDbLine
 10
34.25
 20
14.75
 30
0.0
 11
0.0
 21
14.75
 31
0.0
  0
LINE
  5
67
330
50
100
AcDbEntity
  8
0
100
AcDbLine
 10
34.25
 20
-14.75
 30
0.0
 11
0.0
 21
-14.75
 31
0.0
  0
ENDBLK
  5
68
330
50
100
AcDbEntity
  8
0
100
AcDbBlockEnd
  0
ENDSEC
  0
SECTION
  2
ENTITIES
  0
INSERT
  5
69
330
18
100
AcDbEntity
  8
0
100
AcDbBlockReference
  2
174RD
 10
0.0
 20
0.0
 30
0.0
  0
INSERT
  5
6A
330
18
100
AcDbEntity
  8
0
100
AcDbBlockReference
  2
174RC
 10
54.75
 20
-14.75
 30
0.0
  0
INSERT
  5
6B
330
18
100
AcDbEntity
  8
0
100
AcDbBlockReference
  2
174RE
 10
-25.0
 20
-50.75
 30
0.0
  0
ENDSEC
  0
SECTION
  2
OBJECTS
  0
DICTIONARY
  5
C
330
0
100
AcDbDictionary
  3
ACAD_GROUP
350
D
  3
ACAD_LAYOUT
350
6E
  3
ACAD_MLINESTYLE
350
1B
  3
ACDBHEADERROUNDTRIPXREC
350
71
  0
DICTIONARY
  5
90
330
6D
100
AcDbDictionary
280
     1
  3
ACAD_XREC_ROUNDTRIP
360
91
  0
DICTIONARY
  5
D
102
{ACAD_REACTORS
330
C
102
}
330
C
100
AcDbDictionary
  0
DICTIONARY
  5
6E
102
{ACAD_REACTORS
330
C
102
}
330
C
100
AcDbDictionary
  0
DICTIONARY
  5
1B
102
{ACAD_REACTORS
330
C
102
}
330
C
100
AcDbDictionary
  3
STANDARD
350
1C
  0
DICTIONARY
  5
71
102
{ACAD_REACTORS
330
C
102
}
330
C
100
AcDbDictionary
  3
CEPSNTYPE
350
79
  3
DIMSTYLEDATA
350
8F
  3
FINGERPRINTGUID
350
7A
  3
HYPERLINKBASE
350
74
  3
INSUNITS
350
78
  3
LAYOUTDICT
350
76
  3
LWETCUNION
350
77
  3
PSVPSCALE
350
7C
  3
PUCSBASE
350
7F
  3
PUCSORGBACK
350
85
  3
PUCSORGBOTTOM
350
81
  3
PUCSORGFRONT
350
84
  3
PUCSORGLEFT
350
82
  3
PUCSORGRIGHT
350
83
  3
PUCSORGTOP
350
80
  3
PUCSORTHOREF
350
7D
  3
PUCSORTHOVIEW
350
7E
  3
STYLESHEET
350
75
  3
TSTACKALIGN
350
72
  3
TSTACKSIZE
350
73
  3
UCSBASE
350
88
  3
UCSORGBACK
350
8E
  3
UCSORGBOTTOM
350
8A
  3
UCSORGFRONT
350
8D
  3
UCSORGLEFT
350
8B
  3
UCSORGRIGHT
350
8C
  3
UCSORGTOP
350
89
  3
UCSORTHOREF
350
86
  3
UCSORTHOVIEW
350
87
  3
VERSIONGUID
350
7B
  0
XRECORD
  5
91
102
{ACAD_REACTORS
330
90
102
}
330
90
100
AcDbXrecord
102
UCS
 74
     0
 71
     1
 10
0.0
 20
0.0
 30
0.0
 10
1.0
 20
0.0
 30
0.0
 10
0.0
 20
1.0
 30
0.0
146
0.0
 79
     0
102
VIEW
281
     0
  0
MLINESTYLE
  5
1C
102
{ACAD_REACTORS
330
1B
102
}
330
1B
100
AcDbMlineStyle
  2
STANDARD
 70
     0
  3

 62
   256
 51
90.0
 52
90.0
 71
     2
 49
0.5
 62
   256
  6
BYLAYER
 49
-0.5
 62
   256
  6
BYLAYER
  0
XRECORD
  5
79
102
{ACAD_REACTORS
330
71
102
}
330
71
100
AcDbXrecord
 90
        0
  0
XRECORD
  5
8F
102
{ACAD_REACTORS
330
71
102
}
330
71
100
AcDbXrecord
1000
DSTYLE
1002
{
1070
   340
340
F
1002
}
  0
XRECORD
  5
7A
102
{ACAD_REACTORS
330
71
102
}
330
71
100
AcDbXrecord
  1
{FAEB1C30-E019-11D5-929B-00C0DF256EC4}
  0
XRECORD
  5
74
102
{ACAD_REACTORS
330
71
102
}
330
71
100
AcDbXrecord
  1

  0
XRECORD
  5
78
102
{ACAD_REACTORS
330
71
102
}
330
71
100
AcDbXrecord
 90
        0
  0
XRECORD
  5
76
102
{ACAD_REACTORS
330
71
102
}
330
71
100
AcDbXrecord
340
6E
  0
XRECORD
  5
77
102
{ACAD_REACTORS
330
71
102
}
330
71
100
AcDbXrecord
 90
    10781
  0
XRECORD
  5
7C
102
{ACAD_REACTORS
330
71
102
}
330
71
100
AcDbXrecord
 40
0.0
  0
XRECORD
  5
7F
102
{ACAD_REACTORS
330
71
102
}
330
71
100
AcDbXrecord
340
0
  0
XRECORD
  5
85
102
{ACAD_REACTORS
330
71
102
}
330
71
100
AcDbXrecord
 10
0.0
 20
0.0
 30
0.0
  0
XRECORD
  5
81
102
{ACAD_REACTORS
330
71
102
}
330
71
100
AcDbXrecord
 10
0.0
 20
0.0
 30
0.0
  0
XRECORD
  5
84
102
{ACAD_REACTORS
330
71
102
}
330
71
100
AcDbXrecord
 10
0.0
 20
0.0
 30
0.0
  0
XRECORD
  5
82
102
{ACAD_REACTORS
330
71
102
}
330
71
100
AcDbXrecord
 10
0.0
 20
0.0
 30
0.0
  0
XRECORD
  5
83
102
{ACAD_REACTORS
330
71
102
}
330
71
100
AcDbXrecord
 10
0.0
 20
0.0
 30
0.0
  0
XRECORD
  5
80
102
{ACAD_REACTORS
330
71
102
}
330
71
100
AcDbXrecord
 10
0.0
 20
0.0
 30
0.0
  0
XRECORD
  5
7D
102
{ACAD_REACTORS
330
71
102
}
330
71
100
AcDbXrecord
340
0
  0
XRECORD
  5
7E
102
{ACAD_REACTORS
330
71
102
}
330
71
100
AcDbXrecord
 70
     0
  0
XRECORD
  5
75
102
{ACAD_REACTORS
330
71
102
}
330
71
100
AcDbXrecord
  1

  0
XRECORD
  5
72
102
{ACAD_REACTORS
330
71
102
}
330
71
100
AcDbXrecord
 90
        1
  0
XRECORD
  5
73
102
{ACAD_REACTORS
330
71
102
}
330
71
100
AcDbXrecord
 90
       70
  0
XRECORD
  5
88
102
{ACAD_REACTORS
330
71
102
}
330
71
100
AcDbXrecord
340
0
  0
XRECORD
  5
8E
102
{ACAD_REACTORS
330
71
102
}
330
71
100
AcDbXrecord
 10
0.0
 20
0.0
 30
0.0
  0
XRECORD
  5
8A
102
{ACAD_REACTORS
330
71
102
}
330
71
100
AcDbXrecord
 10
0.0
 20
0.0
 30
0.0
  0
XRECORD
  5
8D
102
{ACAD_REACTORS
330
71
102
}
330
71
100
AcDbXrecord
 10
0.0
 20
0.0
 30
0.0
  0
XRECORD
  5
8B
102
{ACAD_REACTORS
330
71
102
}
330
71
100
AcDbXrecord
 10
0.0
 20
0.0
 30
0.0
  0
XRECORD
  5
8C
102
{ACAD_REACTORS
330
71
102
}
330
71
100
AcDbXrecord
 10
0.0
 20
0.0
 30
0.0
  0
XRECORD
  5
89
102
{ACAD_REACTORS
330
71
102
}
330
71
100
AcDbXrecord
 10
0.0
 20
0.0
 30
0.0
  0
XRECORD
  5
86
102
{ACAD_REACTORS
330
71
102
}
330
71
100
AcDbXrecord
340
0
  0
XRECORD
  5
87
102
{ACAD_REACTORS
330
71
102
}
330
71
100
AcDbXrecord
 70
     0
  0
XRECORD
  5
7B
102
{ACAD_REACTORS
330
71
102
}
330
71
100
AcDbXrecord
  1
{FAEB1C32-E019-11D5-929B-00C0DF256EC4}
  0
ENDSEC
  0
EOF
