  0
SECTION
  2
HEADER
  9
$ACADVER
  1
AC1009
  9
$INSBASE
 10
0
 20
0
  9
$EXTMIN
 10
-121.25
 20
-123.50001
  9
$EXTMAX
 10
121.25
 20
123.5
  9
$LIMMIN
 10
-121.25
 20
-123.50001
  9
$LIMMAX
 10
121.25
 20
123.5
  9
$VIEWCTR
 10
10
 20
10
  9
$VIEWSIZE
 40
10
  9
$SNAPMODE
 70
0
  9
$SNAPUNIT
 10
1
 20
1
  9
$SNAPBASE
 10
0
 20
0
  9
$SNAPANG
 50
0
  9
$SNAPSTYLE
 70
0
  9
$SNAPISOPAIR
 70
0
  9
$GRIDMODE
 70
0
  9
$GRIDUNIT
 10
0
 20
0
  9
$ORTHOMODE
 70
0
  9
$REGENMODE
 70
1
  9
$FILLMODE
 70
1
  9
$QTEXTMODE
 70
0
  9
$DRAGMODE
 70
2
  9
$LTSCALE
 40
1
  9
$OSMODE
 70
0
  9
$ATTMODE
 70
1
  9
$TEXTSIZE
 40
3.5
  9
$TRACEWID
 40
0.5
  9
$TEXTSTYLE
  7
STANDARD
  9
$CLAYER
  8
0
  9
$CELTYPE
  6
BYLAYER
  9
$CECOLOR
 62
256
  9
$DIMSCALE
 40
1
  9
$DIMASZ
 40
0.18
  9
$DIMEXO
 40
0.0625
  9
$DIMDLI
 40
0.38
  9
$DIMRND
 40
0
  9
$DIMDLE
 40
0
  9
$DIMEXE
 40
0.18
  9
$DIMTP
 40
0
  9
$DIMTM
 40
0
  9
$DIMTXT
 40
0.18
  9
$DIMCEN
 40
0.09
  9
$DIMTSZ
 40
0
  9
$DIMTOL
 70
0
  9
$DIMLIM
 70
0
  9
$DIMTIH
 70
1
  9
$DIMTOH
 70
1
  9
$DIMSE1
 70
0
  9
$DIMSE2
 70
0
  9
$DIMTAD
 70
0
  9
$DIMZIN
 70
0
  9
$DIMBLK
  1

  9
$DIMASO
 70
1
  9
$DIMSHO
 70
1
  9
$DIMPOST
  1

  9
$DIMAPOST
  1

  9
$DIMALT
 70
0
  9
$DIMALTD
 70
2
  9
$DIMALTF
 40
25.4
  9
$DIMLFAC
 40
1
  9
$DIMTOFL
 70
0
  9
$DIMTVP
 40
0
  9
$DIMTIX
 70
0
  9
$DIMSOXD
 70
0
  9
$DIMSAH
 70
0
  9
$DIMBLK1
  1

  9
$DIMBLK2
  1

  9
$DIMSTYLE
  2
*UNNAMED
  9
$DIMCLRD
 70
0
  9
$DIMCLRE
 70
0
  9
$DIMCLRT
 70
0
  9
$DIMTFAC
 40
1
  9
$DIMGAP
 40
0.09
  9
$LUNITS
 70
2
  9
$LUPREC
 70
4
  9
$AXISMODE
 70
0
  9
$AXISUNIT
 10
0
 20
0
  9
$SKETCHINC
 40
0.1
  9
$FILLETRAD
 40
2
  9
$AUNITS
 70
0
  9
$AUPREC
 70
0
  9
$MENU
  1
ACAD
  9
$ELEVATION
 40
0
  9
$THICKNESS
 40
0
  9
$VIEWDIR
 10
0
 20
0
 30
1
  9
$LIMCHECK
 70
0
  9
$BLIPMODE
 70
1
  9
$CHAMFERA
 40
0
  9
$CHAMFERB
 40
0
  9
$FASTZOOM
 70
1
  9
$SKPOLY
 70
0
  9
$ANGBASE
 50
0
  9
$ANGDIR
 70
0
  9
$PDMODE
 70
0
  9
$PDSIZE
 40
0
  9
$PLINEWID
 40
0
  9
$COORDS
 70
2
  0
ENDSEC
  0
SECTION
  2
TABLES
  0
TABLE
  2
DIMSTYLE
 70
0
  0
ENDTAB
  0
TABLE
  2
LTYPE
 70
9
  0
LTYPE
  2
CONTINUOUS
 70
64
  3
Solid line
 72
65
 73
0
 40
0
  0
LTYPE
  2
BORDER
 70
64
  3
__ __ . __ __ .
 72
65
 73
6
 40
11.37500046052632
 49
3.250000131578947
 49
-1.625000065789474
 49
3.250000131578947
 49
-1.625000065789474
 49
0
 49
-1.625000065789474
  0
LTYPE
  2
CENTER
 70
64
  3
____ _ ____ _
 72
65
 73
4
 40
13.00000052631579
 49
8.125000328947369
 49
-1.625000065789474
 49
1.625000065789474
 49
-1.625000065789474
  0
LTYPE
  2
DASHDOT
 70
64
  3
__ . __ . __ .
 72
65
 73
4
 40
6.500000263157895
 49
3.250000131578947
 49
-1.625000065789474
 49
0
 49
-1.625000065789474
  0
LTYPE
  2
DASHED
 70
64
  3
__ __ __ __ __
 72
65
 73
2
 40
4.875000197368421
 49
3.250000131578947
 49
-1.625000065789474
  0
LTYPE
  2
DIVIDE
 70
64
  3
__ . . __ . . 
 72
65
 73
6
 40
8.125000328947369
 49
3.250000131578947
 49
-1.625000065789474
 49
0
 49
-1.625000065789474
 49
0
 49
-1.625000065789474
  0
LTYPE
  2
DOT
 70
64
  3
..............
 72
65
 73
4
 40
3.250000131578947
 49
0
 49
-1.625000065789474
 49
0
 49
-1.625000065789474
  0
LTYPE
  2
HIDDEN
 70
64
  3
_ _ _ _ _ _ _
 72
65
 73
2
 40
2.437500098684211
 49
1.625000065789474
 49
-0.8125000328947368
  0
LTYPE
  2
PHANTOM
 70
64
  3
_____ _ _ _____ _ _ 
 72
65
 73
6
 40
16.25000065789474
 49
8.125000328947369
 49
-1.625000065789474
 49
1.625000065789474
 49
-1.625000065789474
 49
1.625000065789474
 49
-1.625000065789474
  0
ENDTAB
  0
TABLE
  2
LAYER
 70
3
  0
LAYER
  2
0
 70
0
 62
7
  6
CONTINUOUS
  0
LAYER
  2
1
 70
0
 62
7
  6
CONTINUOUS
  0
ENDTAB
  0
TABLE
  2
STYLE
 70
4
  0
STYLE
  2
STANDARD
 70
0
 40
0
 41
1
 50
0
 71
0
 42
3.5
  3
txt
  4

  0
STYLE
  2
SIMPLEX
 70
0
 40
0
 41
1
 50
0
 71
0
 42
3.5
  3
simplex
  4

  0
STYLE
  2
COMPLEX
 70
0
 40
0
 41
1
 50
0
 71
0
 42
3.5
  3
complex
  4

  0
STYLE
  2
ITALIC
 70
0
 40
0
 41
1
 50
0
 71
0
 42
3.5
  3
italic
  4

  0
ENDTAB
  0
TABLE
  2
VIEW
 70
0
  0
ENDTAB
  0
ENDSEC
  0
SECTION
  2
BLOCKS
  0
BLOCK
  8
0
  2
168C__S
 70
0
 10
0
 20
0
 30
0
  0
POLYLINE
  8
0
 62
7
 66
1
 70
1
  0
VERTEX
  8
0
 10
-20
 20
-30
 30
0
  0
VERTEX
  8
0
 10
-20
 20
-70
 30
0
  0
VERTEX
  8
0
 10
20
 20
-70
 30
0
  0
VERTEX
  8
0
 10
20
 20
-30
 30
0
  0
VERTEX
  8
0
 10
-20
 20
-30
 30
0
  0
SEQEND
  8
0
  0
LINE
  8
1
 62
2
  6
DASHDOT
 10
0
 20
-24.8207794253707
 30
0
 11
0
 21
-77.604839785282
 31
0
  0
LINE
  8
1
 62
2
  6
DASHDOT
 10
-28.00316493820149
 20
-50
 30
0
 11
30.3371123017002
 21
-50
 31
0
  0
LINE
  8
0
 62
3
 10
-57.5
 20
0
 30
0
 11
-57.5
 21
-10
 31
0
  0
LINE
  8
0
 62
3
 10
57.5
 20
0
 30
0
 11
57.5
 21
-10
 31
0
  0
LINE
  8
0
 62
3
 10
-57.5
 20
0
 30
0
 11
57.5
 21
0
 31
0
  0
LINE
  8
0
 62
3
 10
-57.5
 20
-12
 30
0
 11
57.5
 21
-12
 31
0
  0
LINE
  8
0
 62
3
 10
-57.5
 20
-10
 30
0
 11
57.5
 21
-10
 31
0
  0
LINE
  8
0
 62
3
 10
-53.5
 20
-10
 30
0
 11
-53.5
 21
-12
 31
0
  0
LINE
  8
0
 62
3
 10
53.5
 20
-10
 30
0
 11
53.5
 21
-12
 31
0
  0
LINE
  8
0
 62
3
 10
-57.5
 20
-12
 30
0
 11
-57.5
 21
-44.77404
 31
0
  0
LINE
  8
0
 62
3
 10
57.5
 20
-12
 30
0
 11
57.5
 21
-44.77404
 31
0
  0
ARC
  8
0
 62
3
 10
0
 20
-17.46796
 30
0
 40
64.53205
 50
208.882797
 51
331.117203
  0
ARC
  8
0
 62
3
 10
-49.5
 20
-44.77404
 30
0
 40
8
 50
180
 51
208.882797
  0
ARC
  8
0
 62
3
 10
49.5
 20
-44.77404
 30
0
 40
8
 50
331.117203
 51
0
  0
ENDBLK
  8
0
  0
BLOCK
  8
0
  2
168B__S
 70
0
 10
0
 20
0
 30
0
  0
POLYLINE
  8
0
 62
3
 66
1
  0
VERTEX
  8
0
 10
-17
 20
119.5
 30
0
  0
VERTEX
  8
0
 10
-11.89818
 20
119.26991
 30
0
  0
VERTEX
  8
0
 10
-6.83779
 20
118.58151
 30
0
  0
VERTEX
  8
0
 10
-3.01255
 20
117.65014
 30
0
  0
VERTEX
  8
0
 10
-3.01254
 20
117.65014
 30
0
  0
VERTEX
  8
0
 10
0.67767
 20
116.27818
 30
0
  0
VERTEX
  8
0
 10
2.29863
 20
115.4657
 30
0
  0
VERTEX
  8
0
 10
3.83019
 20
114.49498
 30
0
  0
VERTEX
  8
0
 10
3.83011
 20
114.49504
 30
0
  0
VERTEX
  8
0
 10
5.25674
 20
113.37595
 30
0
  0
VERTEX
  8
0
 10
6.56433
 20
112.11955
 30
0
  0
VERTEX
  8
0
 10
6.98832
 20
111.60822
 30
0
  0
VERTEX
  8
0
 10
7.34474
 20
111.04775
 30
0
  0
VERTEX
  8
0
 10
7.62798
 20
110.44694
 30
0
  0
VERTEX
  8
0
 10
7.83356
 20
109.81534
 30
0
  0
VERTEX
  8
0
 10
7.95822
 20
109.16291
 30
0
  0
VERTEX
  8
0
 10
8
 20
108.5
 30
0
  0
VERTEX
  8
0
 10
7.95823
 20
107.8371
 30
0
  0
VERTEX
  8
0
 10
7.83356
 20
107.18468
 30
0
  0
VERTEX
  8
0
 10
7.62798
 20
106.55307
 30
0
  0
VERTEX
  8
0
 10
7.34474
 20
105.95226
 30
0
  0
VERTEX
  8
0
 10
6.98832
 20
105.39179
 30
0
  0
VERTEX
  8
0
 10
6.56433
 20
104.88046
 30
0
  0
VERTEX
  8
0
 10
6.56434
 20
104.88047
 30
0
  0
VERTEX
  8
0
 10
5.25695
 20
103.62424
 30
0
  0
VERTEX
  8
0
 10
3.83019
 20
102.50503
 30
0
  0
VERTEX
  8
0
 10
3.83011
 20
102.50497
 30
0
  0
VERTEX
  8
0
 10
2.29863
 20
101.53431
 30
0
  0
VERTEX
  8
0
 10
0.67767
 20
100.72183
 30
0
  0
VERTEX
  8
0
 10
-3.01254
 20
99.34986000000001
 30
0
  0
VERTEX
  8
0
 10
-3.01255
 20
99.34986000000001
 30
0
  0
VERTEX
  8
0
 10
-6.83779
 20
98.41849000000001
 30
0
  0
VERTEX
  8
0
 10
-11.89818
 20
97.73009
 30
0
  0
VERTEX
  8
0
 10
-17
 20
97.5
 30
0
  0
SEQEND
  8
0
  0
POLYLINE
  8
0
 62
3
 66
1
  0
VERTEX
  8
0
 10
-17
 20
25.5
 30
0
  0
VERTEX
  8
0
 10
-11.89818
 20
25.73009
 30
0
  0
VERTEX
  8
0
 10
-6.83779
 20
26.41849
 30
0
  0
VERTEX
  8
0
 10
-3.01255
 20
27.34986
 30
0
  0
VERTEX
  8
0
 10
-3.01254
 20
27.34986
 30
0
  0
VERTEX
  8
0
 10
0.67767
 20
28.72183
 30
0
  0
VERTEX
  8
0
 10
2.29863
 20
29.53431
 30
0
  0
VERTEX
  8
0
 10
3.83019
 20
30.50503
 30
0
  0
VERTEX
  8
0
 10
5.25695
 20
31.62424
 30
0
  0
VERTEX
  8
0
 10
6.56433
 20
32.88046
 30
0
  0
VERTEX
  8
0
 10
6.98832
 20
33.39179
 30
0
  0
VERTEX
  8
0
 10
7.34474
 20
33.95226
 30
0
  0
VERTEX
  8
0
 10
7.62798
 20
34.55307
 30
0
  0
VERTEX
  8
0
 10
7.83356
 20
35.18468
 30
0
  0
VERTEX
  8
0
 10
7.95823
 20
35.8371
 30
0
  0
VERTEX
  8
0
 10
8
 20
36.5
 30
0
  0
VERTEX
  8
0
 10
7.95822
 20
37.16291
 30
0
  0
VERTEX
  8
0
 10
7.83356
 20
37.81534
 30
0
  0
VERTEX
  8
0
 10
7.62798
 20
38.44694
 30
0
  0
VERTEX
  8
0
 10
7.34474
 20
39.04775
 30
0
  0
VERTEX
  8
0
 10
6.98832
 20
39.60822
 30
0
  0
VERTEX
  8
0
 10
6.56433
 20
40.11955
 30
0
  0
VERTEX
  8
0
 10
5.25674
 20
41.37595
 30
0
  0
VERTEX
  8
0
 10
3.83019
 20
42.49498
 30
0
  0
VERTEX
  8
0
 10
2.29863
 20
43.4657
 30
0
  0
VERTEX
  8
0
 10
0.67767
 20
44.27818
 30
0
  0
VERTEX
  8
0
 10
-3.01254
 20
45.65014
 30
0
  0
VERTEX
  8
0
 10
-3.01255
 20
45.65014
 30
0
  0
VERTEX
  8
0
 10
-6.83779
 20
46.58151
 30
0
  0
VERTEX
  8
0
 10
-11.89818
 20
47.26991
 30
0
  0
VERTEX
  8
0
 10
-17
 20
47.5
 30
0
  0
SEQEND
  8
0
  0
LINE
  8
0
 62
7
 10
19
 20
115
 30
0
 11
-21
 21
115
 31
0
  0
LINE
  8
0
 62
7
 10
19
 20
0
 30
0
 11
19
 21
115
 31
0
  0
LINE
  8
0
 62
7
 10
-21
 20
0
 30
0
 11
-21
 21
115
 31
0
  0
LINE
  8
0
 62
3
 10
-35
 20
0
 30
0
 11
35
 21
0
 31
0
  0
LINE
  8
0
 62
3
 10
35
 20
0
 30
0
 11
35
 21
117
 31
0
  0
LINE
  8
0
 62
3
 10
-47
 20
125
 30
0
 11
-37
 21
125
 31
0
  0
LINE
  8
0
 62
3
 10
-47
 20
20
 30
0
 11
-47
 21
125
 31
0
  0
LINE
  8
0
 62
3
 10
-35
 20
0
 30
0
 11
-35
 21
125
 31
0
  0
LINE
  8
0
 62
3
 10
-47
 20
20
 30
0
 11
-37
 21
20
 31
0
  0
LINE
  8
0
 62
3
 10
-37
 20
20
 30
0
 11
-37
 21
125
 31
0
  0
LINE
  8
0
 62
3
 10
-35
 20
125
 30
0
 11
27
 21
125
 31
0
  0
LINE
  8
0
 62
3
 10
-35
 20
20
 30
0
 11
3
 21
20
 31
0
  0
LINE
  8
0
 62
3
 10
-37
 20
119.5
 30
0
 11
-35
 21
119.5
 31
0
  0
LINE
  8
0
 62
3
 10
-37
 20
26
 30
0
 11
-35
 21
26
 31
0
  0
ARC
  8
0
 62
3
 10
27
 20
117
 30
0
 40
8
 50
0
 51
90
  0
ARC
  8
0
 62
3
 10
-12.20417
 20
108.5
 30
0
 40
11.99999999999997
 50
113.5564730000001
 51
246.443542
  0
ARC
  8
0
 62
3
 10
-12.20417
 20
36.5
 30
0
 40
12.00000000000001
 50
113.556473
 51
246.443542
  0
ENDBLK
  8
0
  0
BLOCK
  8
0
  2
168A__S
 70
0
 10
0
 20
0
 30
0
  0
LINE
  8
0
 62
7
 10
20
 20
115
 30
0
 11
-20
 21
115
 31
0
  0
LINE
  8
0
 62
7
 10
20
 20
0
 30
0
 11
20
 21
115
 31
0
  0
LINE
  8
0
 62
7
 10
-20
 20
0
 30
0
 11
-20
 21
115
 31
0
  0
LINE
  8
0
 62
3
 10
-57.5
 20
117
 30
0
 11
-57.5
 21
28
 31
0
  0
LINE
  8
0
 62
3
 10
-35
 20
0
 30
0
 11
35
 21
0
 31
0
  0
LINE
  8
0
 62
3
 10
-49.5
 20
125
 30
0
 11
49.5
 21
125
 31
0
  0
LINE
  8
0
 62
3
 10
57.5
 20
117
 30
0
 11
57.5
 21
28
 31
0
  0
LINE
  8
0
 62
3
 10
-49.5
 20
20
 30
0
 11
-35
 21
20
 31
0
  0
LINE
  8
0
 62
3
 10
35
 20
0
 30
0
 11
35
 21
20
 31
0
  0
LINE
  8
0
 62
3
 10
-35
 20
0
 30
0
 11
-35
 21
20
 31
0
  0
LINE
  8
0
 62
3
 10
35
 20
20
 30
0
 11
49.5
 21
20
 31
0
  0
LINE
  8
0
 62
3
 10
-42
 20
114.86396
 30
0
 11
-48.36396
 21
108.5
 31
0
  0
LINE
  8
0
 62
3
 10
-35.63604
 20
108.5
 30
0
 11
-42
 21
102.13604
 31
0
  0
LINE
  8
0
 62
3
 10
35.63604
 20
108.5
 30
0
 11
42
 21
102.13604
 31
0
  0
LINE
  8
0
 62
3
 10
42
 20
114.86396
 30
0
 11
48.36396
 21
108.5
 31
0
  0
LINE
  8
0
 62
3
 10
42
 20
30.13604
 30
0
 11
48.36396
 21
36.5
 31
0
  0
LINE
  8
0
 62
3
 10
35.63604
 20
36.5
 30
0
 11
42
 21
42.86396
 31
0
  0
LINE
  8
0
 62
3
 10
-35.63604
 20
36.5
 30
0
 11
-42
 21
42.86396
 31
0
  0
LINE
  8
0
 62
3
 10
-42
 20
30.13604
 30
0
 11
-48.36396
 21
36.5
 31
0
  0
ARC
  8
0
 62
3
 10
-17.5
 20
0.10025
 30
0
 40
26.5
 50
95.413315
 51
131.328659
  0
ARC
  8
0
 62
3
 10
17.5
 20
0.10025
 30
0
 40
26.5
 50
48.67134100000001
 51
84.586685
  0
ARC
  8
0
 62
3
 10
-38.81802
 20
111.68198
 30
0
 40
4.500000000000012
 50
314.9999999999997
 51
134.9999999999996
  0
ARC
  8
0
 62
3
 10
-45.18198
 20
105.31802
 30
0
 40
4.500000000000012
 50
134.9999999999997
 51
314.9999999999997
  0
ARC
  8
0
 62
3
 10
45.18198
 20
105.31802
 30
0
 40
4.500000000000027
 50
225.0000000000004
 51
45.00000000000032
  0
ARC
  8
0
 62
3
 10
38.81802
 20
111.68198
 30
0
 40
4.500000000000027
 50
45.00000000000038
 51
225.0000000000003
  0
ARC
  8
0
 62
3
 10
38.81802
 20
33.31802
 30
0
 40
4.499999999999991
 50
134.9999999999999
 51
314.9999999999999
  0
ARC
  8
0
 62
3
 10
45.18198
 20
39.68198
 30
0
 40
4.499999999999991
 50
314.9999999999999
 51
135.0000000000001
  0
ARC
  8
0
 62
3
 10
-45.18198
 20
39.68198
 30
0
 40
4.499999999999991
 50
44.99999999999994
 51
225.0000000000001
  0
ARC
  8
0
 62
3
 10
-38.81802
 20
33.31802
 30
0
 40
4.500000000000001
 50
225.0000000000001
 51
45.00000000000006
  0
ARC
  8
0
 62
3
 10
49.5
 20
28
 30
0
 40
8
 50
270
 51
0
  0
ARC
  8
0
 62
3
 10
49.5
 20
117
 30
0
 40
8
 50
0
 51
90
  0
ARC
  8
0
 62
3
 10
-49.5
 20
117
 30
0
 40
8
 50
90
 51
180
  0
ARC
  8
0
 62
3
 10
-49.5
 20
28
 30
0
 40
8
 50
180
 51
270
  0
CIRCLE
  8
0
 62
3
 10
-42
 20
108.5
 30
0
 40
11
  0
CIRCLE
  8
0
 62
3
 10
42
 20
108.5
 30
0
 40
11
  0
CIRCLE
  8
0
 62
3
 10
42
 20
36.5
 30
0
 40
11
  0
CIRCLE
  8
0
 62
3
 10
-42
 20
36.5
 30
0
 40
11
  0
ENDBLK
  8
0
  0
ENDSEC
  0
SECTION
  2
ENTITIES
  0
INSERT
  8
0
  2
168C__S
 10
-63.75
 20
-41.5
 30
0
  0
INSERT
  8
0
  2
168B__S
 10
86.25
 20
-1.5
 30
0
  0
INSERT
  8
0
  2
168A__S
 10
-63.75
 20
-1.5
 30
0
  0
ENDSEC
  0
EOF
