  0
SECTION
  2
HEADER
  9
$ACADVER
  1
AC1009
  9
$DWGCODEPAGE
  3
ansi_1252
  9
$INSBASE
 10
0.0
 20
0.0
 30
0.0
  9
$EXTMIN
 10
-121.25
 20
-176.01533
 30
0.0
  9
$EXTMAX
 10
121.25
 20
176.01533
 30
0.0
  9
$LIMMIN
 10
0.0
 20
0.0
  9
$LIMMAX
 10
12.0
 20
9.0
  9
$ORTHOMODE
 70
     0
  9
$REGENMODE
 70
     1
  9
$FILLMODE
 70
     1
  9
$QTEXTMODE
 70
     0
  9
$MIRRTEXT
 70
     1
  9
$DRAGMODE
 70
     2
  9
$LTSCALE
 40
1.277698
  9
$OSMODE
 70
    37
  9
$ATTMODE
 70
     1
  9
$TEXTSIZE
 40
0.2
  9
$TRACEWID
 40
0.05
  9
$TEXTSTYLE
  7
STANDARD
  9
$CLAYER
  8
0
  9
$CELTYPE
  6
BYBLOCK
  9
$CECOLOR
 62
   256
  9
$DIMSCALE
 40
1.0
  9
$DIMASZ
 40
0.18
  9
$DIMEXO
 40
0.0625
  9
$DIMDLI
 40
0.38
  9
$DIMRND
 40
0.0
  9
$DIMDLE
 40
0.0
  9
$DIMEXE
 40
0.18
  9
$DIMTP
 40
0.0
  9
$DIMTM
 40
0.0
  9
$DIMTXT
 40
0.18
  9
$DIMCEN
 40
0.09
  9
$DIMTSZ
 40
0.0
  9
$DIMTOL
 70
     0
  9
$DIMLIM
 70
     0
  9
$DIMTIH
 70
     1
  9
$DIMTOH
 70
     1
  9
$DIMSE1
 70
     0
  9
$DIMSE2
 70
     0
  9
$DIMTAD
 70
     0
  9
$DIMZIN
 70
     0
  9
$DIMBLK
  1

  9
$DIMASO
 70
     1
  9
$DIMSHO
 70
     1
  9
$DIMPOST
  1

  9
$DIMAPOST
  1

  9
$DIMALT
 70
     0
  9
$DIMALTD
 70
     2
  9
$DIMALTF
 40
25.4
  9
$DIMLFAC
 40
1.0
  9
$DIMTOFL
 70
     0
  9
$DIMTVP
 40
0.0
  9
$DIMTIX
 70
     0
  9
$DIMSOXD
 70
     0
  9
$DIMSAH
 70
     0
  9
$DIMBLK1
  1

  9
$DIMBLK2
  1

  9
$DIMSTYLE
  2
STANDARD
  9
$DIMCLRD
 70
     0
  9
$DIMCLRE
 70
     0
  9
$DIMCLRT
 70
     0
  9
$DIMTFAC
 40
1.0
  9
$DIMGAP
 40
0.09
  9
$LUNITS
 70
     2
  9
$LUPREC
 70
     4
  9
$SKETCHINC
 40
0.1
  9
$FILLETRAD
 40
0.5
  9
$AUNITS
 70
     0
  9
$AUPREC
 70
     0
  9
$MENU
  1
.
  9
$ELEVATION
 40
0.0
  9
$PELEVATION
 40
0.0
  9
$THICKNESS
 40
0.0
  9
$LIMCHECK
 70
     0
  9
$CHAMFERA
 40
0.5
  9
$CHAMFERB
 40
0.5
  9
$SKPOLY
 70
     0
  9
$TDCREATE
 40
2453619.495849896
  9
$TDUPDATE
 40
2453619.495849907
  9
$TDINDWG
 40
0.0000000116
  9
$TDUSRTIMER
 40
0.0000000116
  9
$USRTIMER
 70
     1
  9
$ANGBASE
 50
0.0
  9
$ANGDIR
 70
     0
  9
$PDMODE
 70
     0
  9
$PDSIZE
 40
0.0
  9
$PLINEWID
 40
0.0
  9
$COORDS
 70
     1
  9
$SPLFRAME
 70
     0
  9
$SPLINETYPE
 70
     6
  9
$SPLINESEGS
 70
     8
  9
$ATTDIA
 70
     0
  9
$ATTREQ
 70
     1
  9
$HANDLING
 70
     1
  9
$HANDSEED
  5
189
  9
$SURFTAB1
 70
     6
  9
$SURFTAB2
 70
     6
  9
$SURFTYPE
 70
     6
  9
$SURFU
 70
     6
  9
$SURFV
 70
     6
  9
$UCSNAME
  2

  9
$UCSORG
 10
0.0
 20
0.0
 30
0.0
  9
$UCSXDIR
 10
1.0
 20
0.0
 30
0.0
  9
$UCSYDIR
 10
0.0
 20
1.0
 30
0.0
  9
$PUCSNAME
  2

  9
$PUCSORG
 10
0.0
 20
0.0
 30
0.0
  9
$PUCSXDIR
 10
1.0
 20
0.0
 30
0.0
  9
$PUCSYDIR
 10
0.0
 20
1.0
 30
0.0
  9
$USERI1
 70
     0
  9
$USERI2
 70
     0
  9
$USERI3
 70
     0
  9
$USERI4
 70
     0
  9
$USERI5
 70
     0
  9
$USERR1
 40
0.0
  9
$USERR2
 40
0.0
  9
$USERR3
 40
0.0
  9
$USERR4
 40
0.0
  9
$USERR5
 40
0.0
  9
$WORLDVIEW
 70
     1
  9
$SHADEDGE
 70
     3
  9
$SHADEDIF
 70
    70
  9
$TILEMODE
 70
     1
  9
$MAXACTVP
 70
    64
  9
$PLIMCHECK
 70
     0
  9
$PEXTMIN
 10
1.000000000000000E+20
 20
1.000000000000000E+20
 30
1.000000000000000E+20
  9
$PEXTMAX
 10
-1.000000000000000E+20
 20
-1.000000000000000E+20
 30
-1.000000000000000E+20
  9
$PLIMMIN
 10
0.0
 20
0.0
  9
$PLIMMAX
 10
12.0
 20
9.0
  9
$UNITMODE
 70
     0
  9
$VISRETAIN
 70
     1
  9
$PLINEGEN
 70
     0
  9
$PSLTSCALE
 70
     1
  0
ENDSEC
  0
SECTION
  2
TABLES
  0
TABLE
  2
VPORT
 70
     1
  0
VPORT
  2
*ACTIVE
 70
     0
 10
0.0
 20
0.0
 11
1.0
 21
1.0
 12
10.42990654205607
 22
4.5
 13
0.0
 23
0.0
 14
0.5
 24
0.5
 15
0.5
 25
0.5
 16
0.0
 26
0.0
 36
1.0
 17
0.0
 27
0.0
 37
0.0
 40
9.0
 41
1.972972972850329
 42
50.0
 43
0.0
 44
0.0
 50
0.0
 51
0.0
 71
     0
 72
   100
 73
     1
 74
     3
 75
     0
 76
     0
 77
     0
 78
     0
  0
ENDTAB
  0
TABLE
  2
LTYPE
 70
     9
  0
LTYPE
  2
CONTINUOUS
 70
     0
  3
Solid Line
 72
    65
 73
     0
 40
0.0
  0
LTYPE
  2
MCDASH1
 70
     0
  3
MiniCad+ Generated
 72
    65
 73
     2
 40
2.116538
 49
1.058075
 49
-1.058463
  0
LTYPE
  2
MCDASH2
 70
     0
  3
MiniCad+ Generated
 72
    65
 73
     2
 40
3.527692
 49
2.469229
 49
-1.058463
  0
LTYPE
  2
MCDASH3
 70
     0
  3
MiniCad+ Generated
 72
    65
 73
     2
 40
6.35
 49
5.291537
 49
-1.058463
  0
LTYPE
  2
MCDASH4
 70
     0
  3
MiniCad+ Generated
 72
    65
 73
     2
 40
7.760767
 49
6.702692
 49
-1.058075
  0
LTYPE
  2
MCDASH5
 70
     0
  3
MiniCad+ Generated
 72
    65
 73
     2
 40
1.058075
 49
0.352692
 49
-0.705383
  0
LTYPE
  2
MCDASH6
 70
     0
  3
MiniCad+ Generated
 72
    65
 73
     4
 40
5.291538
 49
3.175
 49
-1.058075
 49
0.352692
 49
-0.705771
  0
LTYPE
  2
MCDASH7
 70
     0
  3
MiniCad+ Generated
 72
    65
 73
     6
 40
9.525001
 49
3.175
 49
-1.058075
 49
3.175
 49
-1.058463
 49
0.352692
 49
-0.705771
  0
LTYPE
  2
MCDASH8
 70
     0
  3
MiniCad+ Generated
 72
    65
 73
     6
 40
6.350001000000001
 49
3.175
 49
-1.058075
 49
0.352692
 49
-0.705771
 49
0.352692
 49
-0.705771
  0
ENDTAB
  0
TABLE
  2
LAYER
 70
     4
  0
LAYER
  2
0
 70
     0
 62
     7
  6
CONTINUOUS
  0
LAYER
  2
PROFILI
 70
     0
 62
     7
  6
CONTINUOUS
  0
LAYER
  2
FISSAGGI
 70
     0
 62
     2
  6
CONTINUOUS
  0
LAYER
  2
PANNELLI
 70
     0
 62
     6
  6
CONTINUOUS
  0
ENDTAB
  0
TABLE
  2
STYLE
 70
     1
  0
STYLE
  2
STANDARD
 70
     0
 40
0.0
 41
1.0
 50
0.0
 71
     0
 42
0.2
  3
txt
  4

  0
ENDTAB
  0
TABLE
  2
VIEW
 70
     0
  0
ENDTAB
  0
TABLE
  2
UCS
 70
     0
  0
ENDTAB
  0
TABLE
  2
APPID
 70
     1
  0
APPID
  2
ACAD
 70
     0
  0
ENDTAB
  0
TABLE
  2
DIMSTYLE
 70
     1
  0
DIMSTYLE
  2
STANDARD
 70
     0
  3

  4

  5

  6

  7

 40
1.0
 41
0.18
 42
0.0625
 43
0.38
 44
0.18
 45
0.0
 46
0.0
 47
0.0
 48
0.0
140
0.18
141
0.09
142
0.0
143
25.4
144
1.0
145
0.0
146
1.0
147
0.09
 71
     0
 72
     0
 73
     1
 74
     1
 75
     0
 76
     0
 77
     0
 78
     0
170
     0
171
     2
172
     0
173
     0
174
     0
175
     0
176
     0
177
     0
178
     0
  0
ENDTAB
  0
ENDSEC
  0
SECTION
  2
BLOCKS
  0
BLOCK
  8
0
  2
$MODEL_SPACE
 70
     0
 10
0.0
 20
0.0
 30
0.0
  3
$MODEL_SPACE
  1

  0
ENDBLK
  5
184
  8
0
  0
BLOCK
 67
     1
  8
0
  2
$PAPER_SPACE
 70
     0
 10
0.0
 20
0.0
 30
0.0
  3
$PAPER_SPACE
  1

  0
ENDBLK
  5
182
 67
     1
  8
0
  0
BLOCK
  8
0
  2
$ARROW1$
 70
     0
 10
0.0
 20
0.0
 30
0.0
  3
$ARROW1$
  1

  0
SOLID
  5
30
  8
0
 62
     0
 10
-25.4
 20
4.318
 30
0.0
 11
-25.4
 21
-4.318
 31
0.0
 12
0.0
 22
0.0
 32
0.0
 13
0.0
 23
0.0
 33
0.0
  0
ENDBLK
  5
16D
  8
0
  0
BLOCK
  8
0
  2
$ARROW2$
 70
     0
 10
0.0
 20
0.0
 30
0.0
  3
$ARROW2$
  1

  0
SOLID
  5
34
  8
0
 62
     0
 10
-25.4
 20
12.7
 30
0.0
 11
-25.4
 21
-12.7
 31
0.0
 12
0.0
 22
0.0
 32
0.0
 13
0.0
 23
0.0
 33
0.0
  0
ENDBLK
  5
16F
  8
0
  0
BLOCK
  8
0
  2
$ARROW3$
 70
     0
 10
0.0
 20
0.0
 30
0.0
  3
$ARROW3$
  1

  0
POLYLINE
  5
38
  8
0
  6
BYBLOCK
 62
     0
 66
     1
 10
0.0
 20
0.0
 30
0.0
 70
     1
 40
0.5
 41
0.5
  0
VERTEX
  5
F2
  8
0
  6
BYBLOCK
 62
     0
 10
-6.35
 20
0.0
 30
0.0
 42
1.0
  0
VERTEX
  5
F3
  8
0
  6
BYBLOCK
 62
     0
 10
6.35
 20
0.0
 30
0.0
 42
1.0
  0
SEQEND
  5
170
  8
0
  6
BYBLOCK
 62
     0
  0
ENDBLK
  5
172
  8
0
  0
BLOCK
  8
0
  2
$ARROW4$
 70
     0
 10
0.0
 20
0.0
 30
0.0
  3
$ARROW4$
  1

  0
LINE
  5
3F
  8
0
  6
BYBLOCK
 62
     0
 10
12.7
 20
12.7
 30
0.0
 11
-12.7
 21
-12.7
 31
0.0
  0
ENDBLK
  5
174
  8
0
  0
BLOCK
  8
0
  2
$ARROW5$
 70
     0
 10
0.0
 20
0.0
 30
0.0
  3
$ARROW5$
  1

  0
LINE
  5
43
  8
0
  6
BYBLOCK
 62
     0
 10
12.7
 20
12.7
 30
0.0
 11
-12.7
 21
-12.7
 31
0.0
  0
LINE
  5
44
  8
0
  6
BYBLOCK
 62
     0
 10
-12.7
 20
12.7
 30
0.0
 11
12.7
 21
-12.7
 31
0.0
  0
ENDBLK
  5
176
  8
0
  0
BLOCK
  8
0
  2
BORDER
 70
     0
 10
0.0
 20
0.0
 30
0.0
  3
BORDER
  1

  0
LINE
  5
48
  8
0
 62
     6
 10
0.0
 20
0.0
 30
0.0
 11
1.0
 21
0.0
 31
0.0
  0
LINE
  5
49
  8
0
 62
     6
 10
1.0
 20
0.0
 30
0.0
 11
1.0
 21
1.0
 31
0.0
  0
LINE
  5
4A
  8
0
 62
     6
 10
1.0
 20
1.0
 30
0.0
 11
0.0
 21
1.0
 31
0.0
  0
LINE
  5
4B
  8
0
 62
     6
 10
0.0
 20
1.0
 30
0.0
 11
0.0
 21
0.0
 31
0.0
  0
ENDBLK
  5
178
  8
0
  0
BLOCK
  8
0
  2
168A
 70
     0
 10
0.0
 20
0.0
 30
0.0
  3
168A
  1

  0
ARC
  5
4F
  8
0
 62
     3
 10
-49.5
 20
28.0
 30
0.0
 40
8.0
 50
180.0
 51
270.0
  0
ARC
  5
50
  8
0
 62
     3
 10
-49.5
 20
117.0
 30
0.0
 40
8.0
 50
90.0
 51
180.0
  0
ARC
  5
51
  8
0
 62
     3
 10
49.5
 20
117.0
 30
0.0
 40
8.0
 50
0.0
 51
90.0
  0
ARC
  5
52
  8
0
 62
     3
 10
49.5
 20
28.0
 30
0.0
 40
8.0
 50
270.0
 51
0.0
  0
CIRCLE
  5
53
  8
0
 62
     3
 10
-42.0
 20
36.5
 30
0.0
 40
11.0
  0
ARC
  5
54
  8
0
 62
     3
 10
-38.81802
 20
33.31802
 30
0.0
 40
4.5
 50
225.0
 51
45.0
  0
ARC
  5
55
  8
0
 62
     3
 10
-45.18198
 20
39.68198
 30
0.0
 40
4.5
 50
45.0
 51
225.0
  0
LINE
  5
56
  8
0
 62
     3
 10
-42.0
 20
30.13604
 30
0.0
 11
-48.36396
 21
36.5
 31
0.0
  0
LINE
  5
57
  8
0
 62
     3
 10
-35.63604
 20
36.5
 30
0.0
 11
-42.0
 21
42.86396
 31
0.0
  0
LINE
  5
58
  8
0
 62
     3
 10
35.63604
 20
36.5
 30
0.0
 11
42.0
 21
42.86396
 31
0.0
  0
LINE
  5
59
  8
0
 62
     3
 10
42.0
 20
30.13604
 30
0.0
 11
48.36396
 21
36.5
 31
0.0
  0
ARC
  5
5A
  8
0
 62
     3
 10
45.18198
 20
39.68198
 30
0.0
 40
4.5
 50
315.0
 51
135.0
  0
ARC
  5
5B
  8
0
 62
     3
 10
38.81802
 20
33.31802
 30
0.0
 40
4.5
 50
135.0
 51
315.0
  0
CIRCLE
  5
5C
  8
0
 62
     3
 10
42.0
 20
36.5
 30
0.0
 40
11.0
  0
CIRCLE
  5
5D
  8
0
 62
     3
 10
42.0
 20
108.5
 30
0.0
 40
11.0
  0
ARC
  5
5E
  8
0
 62
     3
 10
38.81802
 20
111.68198
 30
0.0
 40
4.5
 50
45.0
 51
225.0
  0
ARC
  5
5F
  8
0
 62
     3
 10
45.18198
 20
105.31802
 30
0.0
 40
4.5
 50
225.0
 51
45.0
  0
LINE
  5
60
  8
0
 62
     3
 10
42.0
 20
114.86396
 30
0.0
 11
48.36396
 21
108.5
 31
0.0
  0
LINE
  5
61
  8
0
 62
     3
 10
35.63604
 20
108.5
 30
0.0
 11
42.0
 21
102.13604
 31
0.0
  0
LINE
  5
62
  8
0
 62
     3
 10
-35.63604
 20
108.5
 30
0.0
 11
-42.0
 21
102.13604
 31
0.0
  0
LINE
  5
63
  8
0
 62
     3
 10
-42.0
 20
114.86396
 30
0.0
 11
-48.36396
 21
108.5
 31
0.0
  0
ARC
  5
64
  8
0
 62
     3
 10
-45.18198
 20
105.31802
 30
0.0
 40
4.5
 50
135.0
 51
315.0
  0
ARC
  5
65
  8
0
 62
     3
 10
-38.81802
 20
111.68198
 30
0.0
 40
4.5
 50
315.0
 51
135.0
  0
CIRCLE
  5
66
  8
0
 62
     3
 10
-42.0
 20
108.5
 30
0.0
 40
11.0
  0
ARC
  5
67
  8
0
 62
     3
 10
17.5
 20
0.10025
 30
0.0
 40
26.5
 50
48.671341
 51
84.586685
  0
ARC
  5
68
  8
0
 62
     3
 10
-17.5
 20
0.10025
 30
0.0
 40
26.5
 50
95.413315
 51
131.328659
  0
LINE
  5
69
  8
0
 62
     3
 10
35.0
 20
20.0
 30
0.0
 11
49.5
 21
20.0
 31
0.0
  0
LINE
  5
6A
  8
0
 62
     3
 10
-35.0
 20
0.0
 30
0.0
 11
-35.0
 21
20.0
 31
0.0
  0
LINE
  5
6B
  8
0
 62
     3
 10
35.0
 20
0.0
 30
0.0
 11
35.0
 21
20.0
 31
0.0
  0
LINE
  5
6C
  8
0
 62
     3
 10
-49.5
 20
20.0
 30
0.0
 11
-35.0
 21
20.0
 31
0.0
  0
LINE
  5
6D
  8
0
 62
     3
 10
57.5
 20
117.0
 30
0.0
 11
57.5
 21
28.0
 31
0.0
  0
LINE
  5
6E
  8
0
 62
     3
 10
-49.5
 20
125.0
 30
0.0
 11
49.5
 21
125.0
 31
0.0
  0
LINE
  5
6F
  8
0
 62
     3
 10
-35.0
 20
0.0
 30
0.0
 11
35.0
 21
0.0
 31
0.0
  0
LINE
  5
70
  8
0
 62
     3
 10
-57.5
 20
117.0
 30
0.0
 11
-57.5
 21
28.0
 31
0.0
  0
LINE
  5
71
  8
0
  6
MCDASH1
 10
-24.15
 20
0.0
 30
0.0
 11
-24.15
 21
115.0
 31
0.0
  0
LINE
  5
72
  8
0
  6
MCDASH1
 10
24.15
 20
0.0
 30
0.0
 11
24.15
 21
115.0
 31
0.0
  0
LINE
  5
73
  8
0
  6
MCDASH1
 10
24.15
 20
115.0
 30
0.0
 11
-24.15
 21
115.0
 31
0.0
  0
ENDBLK
  5
17A
  8
0
  0
BLOCK
  8
0
  2
168B
 70
     0
 10
0.0
 20
0.0
 30
0.0
  3
168B
  1

  0
POLYLINE
  5
77
  8
0
 62
     3
 66
     1
 10
0.0
 20
0.0
 30
0.0
  0
VERTEX
  5
F5
  8
0
 62
     3
 10
-17.0
 20
47.5
 30
0.0
  0
VERTEX
  5
F6
  8
0
 62
     3
 10
-11.89818
 20
47.26991
 30
0.0
  0
VERTEX
  5
F7
  8
0
 62
     3
 10
-6.83779
 20
46.58151
 30
0.0
  0
VERTEX
  5
F8
  8
0
 62
     3
 10
-3.01255
 20
45.65014
 30
0.0
  0
VERTEX
  5
F9
  8
0
 62
     3
 10
-3.01254
 20
45.65014
 30
0.0
  0
VERTEX
  5
FA
  8
0
 62
     3
 10
0.67767
 20
44.27818
 30
0.0
  0
VERTEX
  5
FB
  8
0
 62
     3
 10
2.29863
 20
43.4657
 30
0.0
  0
VERTEX
  5
FC
  8
0
 62
     3
 10
3.83019
 20
42.49498
 30
0.0
  0
VERTEX
  5
FD
  8
0
 62
     3
 10
5.25674
 20
41.37595
 30
0.0
  0
VERTEX
  5
FE
  8
0
 62
     3
 10
6.56433
 20
40.11955
 30
0.0
  0
VERTEX
  5
FF
  8
0
 62
     3
 10
6.98832
 20
39.60822
 30
0.0
  0
VERTEX
  5
100
  8
0
 62
     3
 10
7.34474
 20
39.04775
 30
0.0
  0
VERTEX
  5
101
  8
0
 62
     3
 10
7.62798
 20
38.44694
 30
0.0
  0
VERTEX
  5
102
  8
0
 62
     3
 10
7.83356
 20
37.81534
 30
0.0
  0
VERTEX
  5
103
  8
0
 62
     3
 10
7.95822
 20
37.16291
 30
0.0
  0
VERTEX
  5
104
  8
0
 62
     3
 10
8.0
 20
36.5
 30
0.0
  0
VERTEX
  5
105
  8
0
 62
     3
 10
7.95823
 20
35.8371
 30
0.0
  0
VERTEX
  5
106
  8
0
 62
     3
 10
7.83356
 20
35.18468
 30
0.0
  0
VERTEX
  5
107
  8
0
 62
     3
 10
7.62798
 20
34.55307
 30
0.0
  0
VERTEX
  5
108
  8
0
 62
     3
 10
7.34474
 20
33.95226
 30
0.0
  0
VERTEX
  5
109
  8
0
 62
     3
 10
6.98832
 20
33.39179
 30
0.0
  0
VERTEX
  5
10A
  8
0
 62
     3
 10
6.56433
 20
32.88046
 30
0.0
  0
VERTEX
  5
10B
  8
0
 62
     3
 10
5.25695
 20
31.62424
 30
0.0
  0
VERTEX
  5
10C
  8
0
 62
     3
 10
3.83019
 20
30.50503
 30
0.0
  0
VERTEX
  5
10D
  8
0
 62
     3
 10
2.29863
 20
29.53431
 30
0.0
  0
VERTEX
  5
10E
  8
0
 62
     3
 10
0.67767
 20
28.72183
 30
0.0
  0
VERTEX
  5
10F
  8
0
 62
     3
 10
-3.01254
 20
27.34986
 30
0.0
  0
VERTEX
  5
110
  8
0
 62
     3
 10
-3.01255
 20
27.34986
 30
0.0
  0
VERTEX
  5
111
  8
0
 62
     3
 10
-6.83779
 20
26.41849
 30
0.0
  0
VERTEX
  5
112
  8
0
 62
     3
 10
-11.89818
 20
25.73009
 30
0.0
  0
VERTEX
  5
113
  8
0
 62
     3
 10
-17.0
 20
25.5
 30
0.0
  0
SEQEND
  5
17B
  8
0
 62
     3
  0
ARC
  5
98
  8
0
 62
     3
 10
-12.20417
 20
36.5
 30
0.0
 40
12.0
 50
113.556473
 51
246.443542
  0
ARC
  5
99
  8
0
 62
     3
 10
-12.20417
 20
108.5
 30
0.0
 40
12.0
 50
113.556473
 51
246.443542
  0
POLYLINE
  5
9A
  8
0
 62
     3
 66
     1
 10
0.0
 20
0.0
 30
0.0
  0
VERTEX
  5
115
  8
0
 62
     3
 10
-17.0
 20
97.5
 30
0.0
  0
VERTEX
  5
116
  8
0
 62
     3
 10
-11.89818
 20
97.73009
 30
0.0
  0
VERTEX
  5
117
  8
0
 62
     3
 10
-6.83779
 20
98.41849000000001
 30
0.0
  0
VERTEX
  5
118
  8
0
 62
     3
 10
-3.01255
 20
99.34986000000001
 30
0.0
  0
VERTEX
  5
119
  8
0
 62
     3
 10
-3.01254
 20
99.34986000000001
 30
0.0
  0
VERTEX
  5
11A
  8
0
 62
     3
 10
0.67767
 20
100.72183
 30
0.0
  0
VERTEX
  5
11B
  8
0
 62
     3
 10
2.29863
 20
101.53431
 30
0.0
  0
VERTEX
  5
11C
  8
0
 62
     3
 10
3.83011
 20
102.50497
 30
0.0
  0
VERTEX
  5
11D
  8
0
 62
     3
 10
3.83019
 20
102.50503
 30
0.0
  0
VERTEX
  5
11E
  8
0
 62
     3
 10
5.25695
 20
103.62424
 30
0.0
  0
VERTEX
  5
11F
  8
0
 62
     3
 10
6.56434
 20
104.88047
 30
0.0
  0
VERTEX
  5
120
  8
0
 62
     3
 10
6.56433
 20
104.88046
 30
0.0
  0
VERTEX
  5
121
  8
0
 62
     3
 10
6.98832
 20
105.39179
 30
0.0
  0
VERTEX
  5
122
  8
0
 62
     3
 10
7.34474
 20
105.95226
 30
0.0
  0
VERTEX
  5
123
  8
0
 62
     3
 10
7.62798
 20
106.55307
 30
0.0
  0
VERTEX
  5
124
  8
0
 62
     3
 10
7.83356
 20
107.18468
 30
0.0
  0
VERTEX
  5
125
  8
0
 62
     3
 10
7.95823
 20
107.8371
 30
0.0
  0
VERTEX
  5
126
  8
0
 62
     3
 10
8.0
 20
108.5
 30
0.0
  0
VERTEX
  5
127
  8
0
 62
     3
 10
7.95822
 20
109.16291
 30
0.0
  0
VERTEX
  5
128
  8
0
 62
     3
 10
7.83356
 20
109.81534
 30
0.0
  0
VERTEX
  5
129
  8
0
 62
     3
 10
7.62798
 20
110.44694
 30
0.0
  0
VERTEX
  5
12A
  8
0
 62
     3
 10
7.34474
 20
111.04775
 30
0.0
  0
VERTEX
  5
12B
  8
0
 62
     3
 10
6.98832
 20
111.60822
 30
0.0
  0
VERTEX
  5
12C
  8
0
 62
     3
 10
6.56433
 20
112.11955
 30
0.0
  0
VERTEX
  5
12D
  8
0
 62
     3
 10
5.25674
 20
113.37595
 30
0.0
  0
VERTEX
  5
12E
  8
0
 62
     3
 10
3.83011
 20
114.49504
 30
0.0
  0
VERTEX
  5
12F
  8
0
 62
     3
 10
3.83019
 20
114.49498
 30
0.0
  0
VERTEX
  5
130
  8
0
 62
     3
 10
2.29863
 20
115.4657
 30
0.0
  0
VERTEX
  5
131
  8
0
 62
     3
 10
0.67767
 20
116.27818
 30
0.0
  0
VERTEX
  5
132
  8
0
 62
     3
 10
-3.01254
 20
117.65014
 30
0.0
  0
VERTEX
  5
133
  8
0
 62
     3
 10
-3.01255
 20
117.65014
 30
0.0
  0
VERTEX
  5
134
  8
0
 62
     3
 10
-6.83779
 20
118.58151
 30
0.0
  0
VERTEX
  5
135
  8
0
 62
     3
 10
-11.89818
 20
119.26991
 30
0.0
  0
VERTEX
  5
136
  8
0
 62
     3
 10
-17.0
 20
119.5
 30
0.0
  0
SEQEND
  5
17C
  8
0
 62
     3
  0
LINE
  5
BE
  8
0
 62
     3
 10
-37.0
 20
26.0
 30
0.0
 11
-35.0
 21
26.0
 31
0.0
  0
LINE
  5
BF
  8
0
 62
     3
 10
-37.0
 20
119.5
 30
0.0
 11
-35.0
 21
119.5
 31
0.0
  0
LINE
  5
C0
  8
0
 62
     3
 10
-35.0
 20
20.0
 30
0.0
 11
3.0
 21
20.0
 31
0.0
  0
LINE
  5
C1
  8
0
 62
     3
 10
-35.0
 20
125.0
 30
0.0
 11
27.0
 21
125.0
 31
0.0
  0
LINE
  5
C2
  8
0
 62
     3
 10
-37.0
 20
20.0
 30
0.0
 11
-37.0
 21
125.0
 31
0.0
  0
LINE
  5
C3
  8
0
 62
     3
 10
-47.0
 20
20.0
 30
0.0
 11
-37.0
 21
20.0
 31
0.0
  0
ARC
  5
C4
  8
0
 62
     3
 10
27.0
 20
117.0
 30
0.0
 40
8.0
 50
0.0
 51
90.0
  0
LINE
  5
C5
  8
0
 62
     3
 10
-35.0
 20
0.0
 30
0.0
 11
-35.0
 21
125.0
 31
0.0
  0
LINE
  5
C6
  8
0
 62
     3
 10
-47.0
 20
20.0
 30
0.0
 11
-47.0
 21
125.0
 31
0.0
  0
LINE
  5
C7
  8
0
 62
     3
 10
-47.0
 20
125.0
 30
0.0
 11
-37.0
 21
125.0
 31
0.0
  0
LINE
  5
C8
  8
0
 62
     3
 10
35.0
 20
0.0
 30
0.0
 11
35.0
 21
117.0
 31
0.0
  0
LINE
  5
C9
  8
0
 62
     3
 10
-35.0
 20
0.0
 30
0.0
 11
35.0
 21
0.0
 31
0.0
  0
LINE
  5
CA
  8
0
  6
MCDASH1
 10
-25.15
 20
0.0
 30
0.0
 11
-25.15
 21
115.0
 31
0.0
  0
LINE
  5
CB
  8
0
  6
MCDASH1
 10
23.15
 20
0.0
 30
0.0
 11
23.15
 21
115.0
 31
0.0
  0
LINE
  5
CC
  8
0
  6
MCDASH1
 10
23.15
 20
115.0
 30
0.0
 11
-25.15
 21
115.0
 31
0.0
  0
ENDBLK
  5
17E
  8
0
  0
BLOCK
  8
0
  2
168C
 70
     0
 10
0.0
 20
0.0
 30
0.0
  3
168C
  1

  0
ARC
  5
D0
  8
0
 62
     3
 10
49.5
 20
-44.77404
 30
0.0
 40
8.0
 50
331.117203
 51
0.0
  0
ARC
  5
D1
  8
0
 62
     3
 10
-49.5
 20
-44.77404
 30
0.0
 40
8.0
 50
180.0
 51
208.882797
  0
ARC
  5
D2
  8
0
 62
     3
 10
0.0
 20
-17.46796
 30
0.0
 40
64.53205
 50
208.882797
 51
331.117203
  0
LINE
  5
D3
  8
0
 62
     3
 10
57.5
 20
-12.0
 30
0.0
 11
57.5
 21
-44.77404
 31
0.0
  0
LINE
  5
D4
  8
0
 62
     3
 10
-57.5
 20
-12.0
 30
0.0
 11
-57.5
 21
-44.77404
 31
0.0
  0
LINE
  5
D5
  8
0
 62
     3
 10
53.5
 20
-10.0
 30
0.0
 11
53.5
 21
-12.0
 31
0.0
  0
LINE
  5
D6
  8
0
 62
     3
 10
-53.5
 20
-10.0
 30
0.0
 11
-53.5
 21
-12.0
 31
0.0
  0
LINE
  5
D7
  8
0
 62
     3
 10
-57.5
 20
-10.0
 30
0.0
 11
57.5
 21
-10.0
 31
0.0
  0
LINE
  5
D8
  8
0
 62
     3
 10
-57.5
 20
-12.0
 30
0.0
 11
57.5
 21
-12.0
 31
0.0
  0
LINE
  5
D9
  8
0
 62
     3
 10
-57.5
 20
0.0
 30
0.0
 11
57.5
 21
0.0
 31
0.0
  0
LINE
  5
DA
  8
0
 62
     3
 10
57.5
 20
0.0
 30
0.0
 11
57.5
 21
-10.0
 31
0.0
  0
LINE
  5
DB
  8
0
 62
     3
 10
-57.5
 20
0.0
 30
0.0
 11
-57.5
 21
-10.0
 31
0.0
  0
CIRCLE
  5
DC
  8
0
  6
MCDASH1
 10
0.0
 20
-46.0
 30
0.0
 40
24.15
  0
ENDBLK
  5
180
  8
0
  0
ENDSEC
  0
SECTION
  2
ENTITIES
  0
INSERT
  5
DE
  8
0
  2
168A
 10
-63.75
 20
-1.5
 30
0.0
  0
INSERT
  5
DF
  8
0
  2
168B
 10
86.25
 20
-1.5
 30
0.0
  0
INSERT
  5
E0
  8
0
  2
168C
 10
-63.75
 20
-41.5
 30
0.0
  0
ENDSEC
  0
EOF
