  0
SECTION
  2
HEADER
  9
$ACADVER
  1
AC1009
  9
$DWGCODEPAGE
  3
ansi_1252
  9
$INSBASE
 10
0.0
 20
0.0
 30
0.0
  9
$EXTMIN
 10
-63.347371
 20
-91.959659
 30
0.0
  9
$EXTMAX
 10
63.347371
 20
91.959659
 30
0.0
  9
$LIMMIN
 10
0.0
 20
0.0
  9
$LIMMAX
 10
12.0
 20
9.0
  9
$ORTHOMODE
 70
     0
  9
$REGENMODE
 70
     1
  9
$FILLMODE
 70
     1
  9
$QTEXTMODE
 70
     0
  9
$MIRRTEXT
 70
     1
  9
$DRAGMODE
 70
     2
  9
$LTSCALE
 40
0.6675370000000001
  9
$OSMODE
 70
    37
  9
$ATTMODE
 70
     1
  9
$TEXTSIZE
 40
0.2
  9
$TRACEWID
 40
0.05
  9
$TEXTSTYLE
  7
STANDARD
  9
$CLAYER
  8
0
  9
$CELTYPE
  6
BYBLOCK
  9
$CECOLOR
 62
   256
  9
$DIMSCALE
 40
1.0
  9
$DIMASZ
 40
0.18
  9
$DIMEXO
 40
0.0625
  9
$DIMDLI
 40
0.38
  9
$DIMRND
 40
0.0
  9
$DIMDLE
 40
0.0
  9
$DIMEXE
 40
0.18
  9
$DIMTP
 40
0.0
  9
$DIMTM
 40
0.0
  9
$DIMTXT
 40
0.18
  9
$DIMCEN
 40
0.09
  9
$DIMTSZ
 40
0.0
  9
$DIMTOL
 70
     0
  9
$DIMLIM
 70
     0
  9
$DIMTIH
 70
     1
  9
$DIMTOH
 70
     1
  9
$DIMSE1
 70
     0
  9
$DIMSE2
 70
     0
  9
$DIMTAD
 70
     0
  9
$DIMZIN
 70
     0
  9
$DIMBLK
  1

  9
$DIMASO
 70
     1
  9
$DIMSHO
 70
     1
  9
$DIMPOST
  1

  9
$DIMAPOST
  1

  9
$DIMALT
 70
     0
  9
$DIMALTD
 70
     2
  9
$DIMALTF
 40
25.4
  9
$DIMLFAC
 40
1.0
  9
$DIMTOFL
 70
     0
  9
$DIMTVP
 40
0.0
  9
$DIMTIX
 70
     0
  9
$DIMSOXD
 70
     0
  9
$DIMSAH
 70
     0
  9
$DIMBLK1
  1

  9
$DIMBLK2
  1

  9
$DIMSTYLE
  2
STANDARD
  9
$DIMCLRD
 70
     0
  9
$DIMCLRE
 70
     0
  9
$DIMCLRT
 70
     0
  9
$DIMTFAC
 40
1.0
  9
$DIMGAP
 40
0.09
  9
$LUNITS
 70
     2
  9
$LUPREC
 70
     4
  9
$SKETCHINC
 40
0.1
  9
$FILLETRAD
 40
0.5
  9
$AUNITS
 70
     0
  9
$AUPREC
 70
     0
  9
$MENU
  1
.
  9
$ELEVATION
 40
0.0
  9
$PELEVATION
 40
0.0
  9
$THICKNESS
 40
0.0
  9
$LIMCHECK
 70
     0
  9
$CHAMFERA
 40
0.5
  9
$CHAMFERB
 40
0.5
  9
$SKPOLY
 70
     0
  9
$TDCREATE
 40
2453619.495845602
  9
$TDUPDATE
 40
2453619.495845614
  9
$TDINDWG
 40
0.0000000116
  9
$TDUSRTIMER
 40
0.0000000116
  9
$USRTIMER
 70
     1
  9
$ANGBASE
 50
0.0
  9
$ANGDIR
 70
     0
  9
$PDMODE
 70
     0
  9
$PDSIZE
 40
0.0
  9
$PLINEWID
 40
0.0
  9
$COORDS
 70
     1
  9
$SPLFRAME
 70
     0
  9
$SPLINETYPE
 70
     6
  9
$SPLINESEGS
 70
     8
  9
$ATTDIA
 70
     0
  9
$ATTREQ
 70
     1
  9
$HANDLING
 70
     1
  9
$HANDSEED
  5
1A1
  9
$SURFTAB1
 70
     6
  9
$SURFTAB2
 70
     6
  9
$SURFTYPE
 70
     6
  9
$SURFU
 70
     6
  9
$SURFV
 70
     6
  9
$UCSNAME
  2

  9
$UCSORG
 10
0.0
 20
0.0
 30
0.0
  9
$UCSXDIR
 10
1.0
 20
0.0
 30
0.0
  9
$UCSYDIR
 10
0.0
 20
1.0
 30
0.0
  9
$PUCSNAME
  2

  9
$PUCSORG
 10
0.0
 20
0.0
 30
0.0
  9
$PUCSXDIR
 10
1.0
 20
0.0
 30
0.0
  9
$PUCSYDIR
 10
0.0
 20
1.0
 30
0.0
  9
$USERI1
 70
     0
  9
$USERI2
 70
     0
  9
$USERI3
 70
     0
  9
$USERI4
 70
     0
  9
$USERI5
 70
     0
  9
$USERR1
 40
0.0
  9
$USERR2
 40
0.0
  9
$USERR3
 40
0.0
  9
$USERR4
 40
0.0
  9
$USERR5
 40
0.0
  9
$WORLDVIEW
 70
     1
  9
$SHADEDGE
 70
     3
  9
$SHADEDIF
 70
    70
  9
$TILEMODE
 70
     1
  9
$MAXACTVP
 70
    64
  9
$PLIMCHECK
 70
     0
  9
$PEXTMIN
 10
1.000000000000000E+20
 20
1.000000000000000E+20
 30
1.000000000000000E+20
  9
$PEXTMAX
 10
-1.000000000000000E+20
 20
-1.000000000000000E+20
 30
-1.000000000000000E+20
  9
$PLIMMIN
 10
0.0
 20
0.0
  9
$PLIMMAX
 10
12.0
 20
9.0
  9
$UNITMODE
 70
     0
  9
$VISRETAIN
 70
     1
  9
$PLINEGEN
 70
     0
  9
$PSLTSCALE
 70
     1
  0
ENDSEC
  0
SECTION
  2
TABLES
  0
TABLE
  2
VPORT
 70
     1
  0
VPORT
  2
*ACTIVE
 70
     0
 10
0.0
 20
0.0
 11
1.0
 21
1.0
 12
10.42990654205607
 22
4.5
 13
0.0
 23
0.0
 14
0.5
 24
0.5
 15
0.5
 25
0.5
 16
0.0
 26
0.0
 36
1.0
 17
0.0
 27
0.0
 37
0.0
 40
9.0
 41
1.972972972850329
 42
50.0
 43
0.0
 44
0.0
 50
0.0
 51
0.0
 71
     0
 72
   100
 73
     1
 74
     3
 75
     0
 76
     0
 77
     0
 78
     0
  0
ENDTAB
  0
TABLE
  2
LTYPE
 70
     9
  0
LTYPE
  2
CONTINUOUS
 70
     0
  3
Solid Line
 72
    65
 73
     0
 40
0.0
  0
LTYPE
  2
MCDASH1
 70
     0
  3
MiniCad+ Generated
 72
    65
 73
     2
 40
2.116538
 49
1.058075
 49
-1.058463
  0
LTYPE
  2
MCDASH2
 70
     0
  3
MiniCad+ Generated
 72
    65
 73
     2
 40
3.527692
 49
2.469229
 49
-1.058463
  0
LTYPE
  2
MCDASH3
 70
     0
  3
MiniCad+ Generated
 72
    65
 73
     2
 40
6.35
 49
5.291537
 49
-1.058463
  0
LTYPE
  2
MCDASH4
 70
     0
  3
MiniCad+ Generated
 72
    65
 73
     2
 40
7.760767
 49
6.702692
 49
-1.058075
  0
LTYPE
  2
MCDASH5
 70
     0
  3
MiniCad+ Generated
 72
    65
 73
     2
 40
1.058075
 49
0.352692
 49
-0.705383
  0
LTYPE
  2
MCDASH6
 70
     0
  3
MiniCad+ Generated
 72
    65
 73
     4
 40
5.291538
 49
3.175
 49
-1.058075
 49
0.352692
 49
-0.705771
  0
LTYPE
  2
MCDASH7
 70
     0
  3
MiniCad+ Generated
 72
    65
 73
     6
 40
9.525001
 49
3.175
 49
-1.058075
 49
3.175
 49
-1.058463
 49
0.352692
 49
-0.705771
  0
LTYPE
  2
MCDASH8
 70
     0
  3
MiniCad+ Generated
 72
    65
 73
     6
 40
6.350001000000001
 49
3.175
 49
-1.058075
 49
0.352692
 49
-0.705771
 49
0.352692
 49
-0.705771
  0
ENDTAB
  0
TABLE
  2
LAYER
 70
     4
  0
LAYER
  2
0
 70
     0
 62
     7
  6
CONTINUOUS
  0
LAYER
  2
PROFILI
 70
     0
 62
     7
  6
CONTINUOUS
  0
LAYER
  2
FISSAGGI
 70
     0
 62
     2
  6
CONTINUOUS
  0
LAYER
  2
PANNELLI
 70
     0
 62
     6
  6
CONTINUOUS
  0
ENDTAB
  0
TABLE
  2
STYLE
 70
     1
  0
STYLE
  2
STANDARD
 70
     0
 40
0.0
 41
1.0
 50
0.0
 71
     0
 42
0.2
  3
txt
  4

  0
ENDTAB
  0
TABLE
  2
VIEW
 70
     0
  0
ENDTAB
  0
TABLE
  2
UCS
 70
     0
  0
ENDTAB
  0
TABLE
  2
APPID
 70
     1
  0
APPID
  2
ACAD
 70
     0
  0
ENDTAB
  0
TABLE
  2
DIMSTYLE
 70
     1
  0
DIMSTYLE
  2
STANDARD
 70
     0
  3

  4

  5

  6

  7

 40
1.0
 41
0.18
 42
0.0625
 43
0.38
 44
0.18
 45
0.0
 46
0.0
 47
0.0
 48
0.0
140
0.18
141
0.09
142
0.0
143
25.4
144
1.0
145
0.0
146
1.0
147
0.09
 71
     0
 72
     0
 73
     1
 74
     1
 75
     0
 76
     0
 77
     0
 78
     0
170
     0
171
     2
172
     0
173
     0
174
     0
175
     0
176
     0
177
     0
178
     0
  0
ENDTAB
  0
ENDSEC
  0
SECTION
  2
BLOCKS
  0
BLOCK
  8
0
  2
$MODEL_SPACE
 70
     0
 10
0.0
 20
0.0
 30
0.0
  3
$MODEL_SPACE
  1

  0
ENDBLK
  5
19C
  8
0
  0
BLOCK
 67
     1
  8
0
  2
$PAPER_SPACE
 70
     0
 10
0.0
 20
0.0
 30
0.0
  3
$PAPER_SPACE
  1

  0
ENDBLK
  5
19A
 67
     1
  8
0
  0
BLOCK
  8
0
  2
$ARROW1$
 70
     0
 10
0.0
 20
0.0
 30
0.0
  3
$ARROW1$
  1

  0
POLYLINE
  5
30
  8
0
 62
     6
 66
     1
 10
0.0
 20
0.0
 30
0.0
 70
     1
  0
VERTEX
  5
FA
  8
0
 62
     6
 10
-25.4
 20
4.318
 30
0.0
  0
VERTEX
  5
FB
  8
0
 62
     6
 10
-25.4
 20
-4.318
 30
0.0
  0
VERTEX
  5
FC
  8
0
 62
     6
 10
0.0
 20
0.0
 30
0.0
  0
SEQEND
  5
180
  8
0
 62
     6
  0
ENDBLK
  5
182
  8
0
  0
BLOCK
  8
0
  2
$ARROW2$
 70
     0
 10
0.0
 20
0.0
 30
0.0
  3
$ARROW2$
  1

  0
POLYLINE
  5
38
  8
0
 62
     6
 66
     1
 10
0.0
 20
0.0
 30
0.0
 70
     1
  0
VERTEX
  5
FE
  8
0
 62
     6
 10
-25.4
 20
12.7
 30
0.0
  0
VERTEX
  5
FF
  8
0
 62
     6
 10
-25.4
 20
-12.7
 30
0.0
  0
VERTEX
  5
100
  8
0
 62
     6
 10
0.0
 20
0.0
 30
0.0
  0
SEQEND
  5
183
  8
0
 62
     6
  0
ENDBLK
  5
185
  8
0
  0
BLOCK
  8
0
  2
$ARROW3$
 70
     0
 10
0.0
 20
0.0
 30
0.0
  3
$ARROW3$
  1

  0
POLYLINE
  5
40
  8
0
 62
     6
 66
     1
 10
0.0
 20
0.0
 30
0.0
 70
     1
 40
0.491707
 41
0.491707
  0
VERTEX
  5
102
  8
0
 62
     6
 10
-6.35
 20
0.0
 30
0.0
  0
VERTEX
  5
103
  8
0
 62
     6
 10
-6.253499
 20
-1.102835
 30
0.0
  0
VERTEX
  5
104
  8
0
 62
     6
 10
-5.966995
 20
-2.171976
 30
0.0
  0
VERTEX
  5
105
  8
0
 62
     6
 10
-5.499192
 20
-3.175123
 30
0.0
  0
VERTEX
  5
106
  8
0
 62
     6
 10
-4.864305
 20
-4.08179
 30
0.0
  0
VERTEX
  5
107
  8
0
 62
     6
 10
-4.081641
 20
-4.86443
 30
0.0
  0
VERTEX
  5
108
  8
0
 62
     6
 10
-3.174956
 20
-5.499289
 30
0.0
  0
VERTEX
  5
109
  8
0
 62
     6
 10
-2.171794
 20
-5.967061
 30
0.0
  0
VERTEX
  5
10A
  8
0
 62
     6
 10
-1.102644
 20
-6.253533
 30
0.0
  0
VERTEX
  5
10B
  8
0
 62
     6
 10
0.000097
 20
-6.35
 30
0.0
  0
VERTEX
  5
10C
  8
0
 62
     6
 10
0.0
 20
-6.35
 30
0.0
  0
VERTEX
  5
10D
  8
0
 62
     6
 10
1.10274
 20
-6.253516
 30
0.0
  0
VERTEX
  5
10E
  8
0
 62
     6
 10
2.171885
 20
-5.967028
 30
0.0
  0
VERTEX
  5
10F
  8
0
 62
     6
 10
3.175039
 20
-5.49924
 30
0.0
  0
VERTEX
  5
110
  8
0
 62
     6
 10
4.081716
 20
-4.864367
 30
0.0
  0
VERTEX
  5
111
  8
0
 62
     6
 10
4.86443
 20
-4.081641
 30
0.0
  0
VERTEX
  5
112
  8
0
 62
     6
 10
5.499289
 20
-3.174956
 30
0.0
  0
VERTEX
  5
113
  8
0
 62
     6
 10
5.967061
 20
-2.171794
 30
0.0
  0
VERTEX
  5
114
  8
0
 62
     6
 10
6.253533
 20
-1.102644
 30
0.0
  0
VERTEX
  5
115
  8
0
 62
     6
 10
6.35
 20
0.0
 30
0.0
  0
VERTEX
  5
116
  8
0
 62
     6
 10
6.253533
 20
1.102644
 30
0.0
  0
VERTEX
  5
117
  8
0
 62
     6
 10
5.967028
 20
2.171885
 30
0.0
  0
VERTEX
  5
118
  8
0
 62
     6
 10
5.49924
 20
3.175039
 30
0.0
  0
VERTEX
  5
119
  8
0
 62
     6
 10
4.864367
 20
4.081716
 30
0.0
  0
VERTEX
  5
11A
  8
0
 62
     6
 10
4.081716
 20
4.864367
 30
0.0
  0
VERTEX
  5
11B
  8
0
 62
     6
 10
3.175039
 20
5.49924
 30
0.0
  0
VERTEX
  5
11C
  8
0
 62
     6
 10
2.171794
 20
5.967061
 30
0.0
  0
VERTEX
  5
11D
  8
0
 62
     6
 10
1.102644
 20
6.253533
 30
0.0
  0
VERTEX
  5
11E
  8
0
 62
     6
 10
0.0
 20
6.35
 30
0.0
  0
VERTEX
  5
11F
  8
0
 62
     6
 10
-1.102644
 20
6.253533
 30
0.0
  0
VERTEX
  5
120
  8
0
 62
     6
 10
-2.171885
 20
5.967028
 30
0.0
  0
VERTEX
  5
121
  8
0
 62
     6
 10
-3.175039
 20
5.49924
 30
0.0
  0
VERTEX
  5
122
  8
0
 62
     6
 10
-4.081716
 20
4.864367
 30
0.0
  0
VERTEX
  5
123
  8
0
 62
     6
 10
-4.864367
 20
4.081716
 30
0.0
  0
VERTEX
  5
124
  8
0
 62
     6
 10
-5.499289
 20
3.174956
 30
0.0
  0
VERTEX
  5
125
  8
0
 62
     6
 10
-5.967061
 20
2.171794
 30
0.0
  0
VERTEX
  5
126
  8
0
 62
     6
 10
-6.253533
 20
1.102644
 30
0.0
  0
VERTEX
  5
127
  8
0
 62
     6
 10
-6.35
 20
0.0
 30
0.0
  0
SEQEND
  5
186
  8
0
 62
     6
  0
ENDBLK
  5
188
  8
0
  0
BLOCK
  8
0
  2
$ARROW4$
 70
     0
 10
0.0
 20
0.0
 30
0.0
  3
$ARROW4$
  1

  0
LINE
  5
6B
  8
0
 10
12.7
 20
12.7
 30
0.0
 11
-12.7
 21
-12.7
 31
0.0
  0
ENDBLK
  5
18A
  8
0
  0
BLOCK
  8
0
  2
$ARROW5$
 70
     0
 10
0.0
 20
0.0
 30
0.0
  3
$ARROW5$
  1

  0
LINE
  5
6F
  8
0
 10
12.7
 20
12.7
 30
0.0
 11
-12.7
 21
-12.7
 31
0.0
  0
LINE
  5
70
  8
0
 10
-12.7
 20
12.7
 30
0.0
 11
12.7
 21
-12.7
 31
0.0
  0
ENDBLK
  5
18C
  8
0
  0
BLOCK
  8
0
  2
BORDER
 70
     0
 10
0.0
 20
0.0
 30
0.0
  3
BORDER
  1

  0
LINE
  5
74
  8
0
 62
     6
 10
0.0
 20
0.0
 30
0.0
 11
1.0
 21
0.0
 31
0.0
  0
LINE
  5
75
  8
0
 62
     6
 10
1.0
 20
0.0
 30
0.0
 11
1.0
 21
1.0
 31
0.0
  0
LINE
  5
76
  8
0
 62
     6
 10
1.0
 20
1.0
 30
0.0
 11
0.0
 21
1.0
 31
0.0
  0
LINE
  5
77
  8
0
 62
     6
 10
0.0
 20
1.0
 30
0.0
 11
0.0
 21
0.0
 31
0.0
  0
ENDBLK
  5
18E
  8
0
  0
BLOCK
  8
0
  2
159A
 70
     0
 10
0.0
 20
0.0
 30
0.0
  3
159A
  1

  0
ARC
  5
7B
  8
0
 62
     6
 10
-28.482936
 20
2.340213
 30
0.0
 40
2.297203
 50
30.322662
 51
116.278839
  0
ARC
  5
7C
  8
0
 62
     6
 10
-28.482936
 20
-2.340213
 30
0.0
 40
2.297203
 50
243.721161
 51
329.677338
  0
ARC
  5
7D
  8
0
 62
     6
 10
28.482936
 20
-2.340213
 30
0.0
 40
2.297203
 50
210.322662
 51
296.278839
  0
ARC
  5
7E
  8
0
 62
     6
 10
28.482936
 20
2.340213
 30
0.0
 40
2.297203
 50
63.721161
 51
149.677338
  0
LINE
  5
7F
  8
0
 62
     6
 10
29.5
 20
0.0
 30
0.0
 11
-29.5
 21
0.0
 31
0.0
  0
LINE
  5
80
  8
0
 62
     6
 10
29.5
 20
7.5
 30
0.0
 11
29.5
 21
-7.5
 31
0.0
  0
LINE
  5
81
  8
0
 62
     6
 10
-29.5
 20
7.499954
 30
0.0
 11
-29.5
 21
-7.500046
 31
0.0
  0
LINE
  5
82
  8
0
 62
     6
 10
-26.5
 20
10.5
 30
0.0
 11
26.5
 21
10.5
 31
0.0
  0
ARC
  5
83
  8
0
 62
     6
 10
26.5
 20
7.5
 30
0.0
 40
3.0
 50
0.0
 51
90.0
  0
LINE
  5
84
  8
0
 62
     6
 10
26.5
 20
7.5
 30
0.0
 11
26.5
 21
3.5
 31
0.0
  0
ARC
  5
85
  8
0
 62
     6
 10
23.5
 20
7.5
 30
0.0
 40
3.0
 50
0.0
 51
90.0
  0
ARC
  5
86
  8
0
 62
     6
 10
-23.5
 20
7.5
 30
0.0
 40
3.0
 50
90.0
 51
180.0
  0
LINE
  5
87
  8
0
 62
     6
 10
-26.5
 20
7.5
 30
0.0
 11
-26.5
 21
3.5
 31
0.0
  0
ARC
  5
88
  8
0
 62
     6
 10
-26.5
 20
7.5
 30
0.0
 40
3.0
 50
90.0
 51
180.0
  0
LINE
  5
89
  8
0
 62
     6
 10
26.5
 20
3.5
 30
0.0
 11
-26.5
 21
3.5
 31
0.0
  0
LINE
  5
8A
  8
0
 62
     6
 10
-26.45804
 20
8.0
 30
0.0
 11
26.45804
 21
8.0
 31
0.0
  0
LINE
  5
8B
  8
0
 62
     6
 10
-26.45804
 20
-8.0
 30
0.0
 11
26.45804
 21
-8.0
 31
0.0
  0
LINE
  5
8C
  8
0
 62
     6
 10
26.5
 20
-3.5
 30
0.0
 11
-26.5
 21
-3.5
 31
0.0
  0
LINE
  5
8D
  8
0
 62
     6
 10
-26.5
 20
-10.5
 30
0.0
 11
26.5
 21
-10.5
 31
0.0
  0
ARC
  5
8E
  8
0
 62
     6
 10
-26.5
 20
-7.5
 30
0.0
 40
3.0
 50
180.0
 51
270.0
  0
LINE
  5
8F
  8
0
 62
     6
 10
-26.5
 20
-7.5
 30
0.0
 11
-26.5
 21
-3.5
 31
0.0
  0
ARC
  5
90
  8
0
 62
     6
 10
-23.5
 20
-7.5
 30
0.0
 40
3.0
 50
180.0
 51
270.0
  0
ARC
  5
91
  8
0
 62
     6
 10
23.5
 20
-7.5
 30
0.0
 40
3.0
 50
270.0
 51
0.0
  0
LINE
  5
92
  8
0
 62
     6
 10
26.5
 20
-7.5
 30
0.0
 11
26.5
 21
-3.5
 31
0.0
  0
ARC
  5
93
  8
0
 62
     6
 10
26.5
 20
-7.5
 30
0.0
 40
3.0
 50
270.0
 51
0.0
  0
ENDBLK
  5
190
  8
0
  0
BLOCK
  8
0
  2
159B
 70
     0
 10
0.0
 20
0.0
 30
0.0
  3
159B
  1

  0
LINE
  5
97
  8
0
 62
     6
 10
-6.073529
 20
-10.5
 30
0.0
 11
15.230518
 21
-10.5
 31
0.0
  0
LINE
  5
98
  8
0
 62
     6
 10
-6.073529
 20
-10.5
 30
0.0
 11
-11.573529
 21
-7.0
 31
0.0
  0
LINE
  5
99
  8
0
 62
     6
 10
-11.573529
 20
-7.0
 30
0.0
 11
-12.808824
 21
0.0
 31
0.0
  0
LINE
  5
9A
  8
0
 62
     6
 10
15.230518
 20
-10.5
 30
0.0
 11
19.639608
 21
-8.875
 31
0.0
  0
LINE
  5
9B
  8
0
 62
     6
 10
19.760306
 20
1.698521
 30
0.0
 11
19.760306
 21
8.875
 31
0.0
  0
LINE
  5
9C
  8
0
 62
     6
 10
-12.808824
 20
0.0
 30
0.0
 11
12.138824
 21
0.0
 31
0.0
  0
LINE
  5
9D
  8
0
 62
     6
 10
15.230518
 20
10.5
 30
0.0
 11
19.639608
 21
8.875
 31
0.0
  0
LINE
  5
9E
  8
0
 62
     6
 10
-11.573529
 20
7.0
 30
0.0
 11
-12.808824
 21
0.0
 31
0.0
  0
LINE
  5
9F
  8
0
 62
     6
 10
-6.073529
 20
10.5
 30
0.0
 11
-11.573529
 21
7.0
 31
0.0
  0
LINE
  5
A0
  8
0
 62
     6
 10
-6.073529
 20
10.5
 30
0.0
 11
15.230518
 21
10.5
 31
0.0
  0
LINE
  5
A1
  8
0
 62
     6
 10
4.134741
 20
13.8
 30
0.0
 11
4.134741
 21
-13.4
 31
0.0
  0
LINE
  5
A2
  8
0
 62
     6
 10
19.639608
 20
-1.935142
 30
0.0
 11
19.639608
 21
-8.875
 31
0.0
  0
LINE
  5
A3
  8
0
  6
MCDASH1
 10
0.184741
 20
10.5
 30
0.0
 11
0.184741
 21
-10.5
 31
0.0
  0
LINE
  5
A4
  8
0
  6
MCDASH1
 10
8.684741000000001
 20
10.5
 30
0.0
 11
8.684741000000001
 21
-10.5
 31
0.0
  0
ARC
  5
A5
  8
0
 62
     6
 10
16.138824
 20
0.0
 30
0.0
 40
4.0
 50
25.12677
 51
180.0
  0
ARC
  5
A6
  8
0
 62
     6
 10
16.138824
 20
0.0
 30
0.0
 40
4.0
 50
180.0
 51
331.068176
  0
ENDBLK
  5
192
  8
0
  0
BLOCK
  8
0
  2
159C
 70
     0
 10
0.0
 20
0.0
 30
0.0
  3
159C
  1

  0
POLYLINE
  5
AA
  8
0
 62
     6
 66
     1
 10
0.0
 20
0.0
 30
0.0
  0
VERTEX
  5
129
  8
0
 62
     6
 10
28.958757
 20
5.632105
 30
0.0
  0
VERTEX
  5
12A
  8
0
 62
     6
 10
27.913887
 20
6.346693
 30
0.0
  0
VERTEX
  5
12B
  8
0
 62
     6
 10
27.913886
 20
6.346693
 30
0.0
  0
VERTEX
  5
12C
  8
0
 62
     6
 10
26.851415
 20
7.034841
 30
0.0
  0
SEQEND
  5
193
  8
0
 62
     6
  0
POLYLINE
  5
B0
  8
0
 62
     6
 66
     1
 10
0.0
 20
0.0
 30
0.0
  0
VERTEX
  5
12E
  8
0
 62
     6
 10
26.851415
 20
7.034841
 30
0.0
  0
VERTEX
  5
12F
  8
0
 62
     6
 10
20.606337
 20
10.381348
 30
0.0
  0
VERTEX
  5
130
  8
0
 62
     6
 10
13.954249
 20
12.819884
 30
0.0
  0
VERTEX
  5
131
  8
0
 62
     6
 10
7.026174
 20
14.30251
 30
0.0
  0
VERTEX
  5
132
  8
0
 62
     6
 10
-0.041242
 20
14.799988
 30
0.0
  0
VERTEX
  5
133
  8
0
 62
     6
 10
-0.041243
 20
14.799988
 30
0.0
  0
VERTEX
  5
134
  8
0
 62
     6
 10
-7.108659
 20
14.30251
 30
0.0
  0
VERTEX
  5
135
  8
0
 62
     6
 10
-14.036734
 20
12.819884
 30
0.0
  0
VERTEX
  5
136
  8
0
 62
     6
 10
-20.688822
 20
10.381348
 30
0.0
  0
VERTEX
  5
137
  8
0
 62
     6
 10
-26.933671
 20
7.034995
 30
0.0
  0
VERTEX
  5
138
  8
0
 62
     6
 10
-26.9339
 20
7.034841
 30
0.0
  0
VERTEX
  5
139
  8
0
 62
     6
 10
-27.996371
 20
6.346693
 30
0.0
  0
VERTEX
  5
13A
  8
0
 62
     6
 10
-27.996372
 20
6.346693
 30
0.0
  0
VERTEX
  5
13B
  8
0
 62
     6
 10
-29.041242
 20
5.632105
 30
0.0
  0
VERTEX
  5
13C
  8
0
 62
     6
 10
-29.041243
 20
5.632105
 30
0.0
  0
SEQEND
  5
194
  8
0
 62
     6
  0
LINE
  5
C1
  8
0
 62
     6
 10
-26.041243
 20
6.454726
 30
0.0
 11
25.860306
 21
6.454726
 31
0.0
  0
ARC
  5
C2
  8
0
 62
     6
 10
-0.041243
 20
-35.650528
 30
0.0
 40
52.450528
 50
57.788223
 51
122.211761
  0
LINE
  5
C3
  8
0
 62
     6
 10
28.958757
 20
6.454726
 30
0.0
 11
28.958757
 21
-5.530359
 31
0.0
  0
ARC
  5
C4
  8
0
 62
     6
 10
25.958757
 20
6.454726
 30
0.0
 40
3.0
 50
0.0
 51
49.23794600000001
  0
LINE
  5
C5
  8
0
 62
     6
 10
-12.791243
 20
-4.5
 30
0.0
 11
12.708757
 21
-4.5
 31
0.0
  0
LINE
  5
C6
  8
0
 62
     6
 10
-12.791243
 20
4.0
 30
0.0
 11
12.708757
 21
4.0
 31
0.0
  0
LINE
  5
C7
  8
0
 62
     6
 10
-23.962799
 20
-10.25
 30
0.0
 11
23.880314
 21
-10.25
 31
0.0
  0
CIRCLE
  5
C8
  8
0
 62
     6
 10
19.458757
 20
-3.2
 30
0.0
 40
2.5
  0
POLYLINE
  5
C9
  8
0
 62
     6
 66
     1
 10
0.0
 20
0.0
 30
0.0
 70
     1
  0
VERTEX
  5
13E
  8
0
 62
     6
 10
19.458757
 20
-7.7
 30
0.0
  0
VERTEX
  5
13F
  8
0
 62
     6
 10
15.561643
 20
-5.45
 30
0.0
  0
VERTEX
  5
140
  8
0
 62
     6
 10
15.561643
 20
-0.95
 30
0.0
  0
VERTEX
  5
141
  8
0
 62
     6
 10
19.458757
 20
1.3
 30
0.0
  0
VERTEX
  5
142
  8
0
 62
     6
 10
23.355872
 20
-0.95
 30
0.0
  0
VERTEX
  5
143
  8
0
 62
     6
 10
23.355872
 20
-5.45
 30
0.0
  0
SEQEND
  5
195
  8
0
 62
     6
  0
CIRCLE
  5
D1
  8
0
 62
     6
 10
-19.541243
 20
-3.2
 30
0.0
 40
2.5
  0
POLYLINE
  5
D2
  8
0
 62
     6
 66
     1
 10
0.0
 20
0.0
 30
0.0
 70
     1
  0
VERTEX
  5
145
  8
0
 62
     6
 10
-19.541243
 20
-7.7
 30
0.0
  0
VERTEX
  5
146
  8
0
 62
     6
 10
-15.644128
 20
-5.45
 30
0.0
  0
VERTEX
  5
147
  8
0
 62
     6
 10
-15.644128
 20
-0.95
 30
0.0
  0
VERTEX
  5
148
  8
0
 62
     6
 10
-19.541243
 20
1.3
 30
0.0
  0
VERTEX
  5
149
  8
0
 62
     6
 10
-23.438357
 20
-0.95
 30
0.0
  0
VERTEX
  5
14A
  8
0
 62
     6
 10
-23.438357
 20
-5.45
 30
0.0
  0
SEQEND
  5
196
  8
0
 62
     6
  0
ARC
  5
DA
  8
0
 62
     6
 10
-26.041243
 20
-5.530359
 30
0.0
 40
3.0
 50
180.0
 51
199.653824
  0
ARC
  5
DB
  8
0
 62
     6
 10
-26.041243
 20
6.454726
 30
0.0
 40
3.0
 50
130.762054
 51
180.0
  0
ARC
  5
DC
  8
0
 62
     6
 10
-23.462799
 20
-12.75
 30
0.0
 40
3.0
 50
199.653824
 51
270.0
  0
LINE
  5
DD
  8
0
 62
     6
 10
-28.866468
 20
-6.539368
 30
0.0
 11
-26.288025
 21
-13.759009
 31
0.0
  0
LINE
  5
DE
  8
0
 62
     6
 10
28.783983
 20
-6.539368
 30
0.0
 11
26.20554
 21
-13.759009
 31
0.0
  0
ARC
  5
DF
  8
0
 62
     6
 10
23.380314
 20
-12.75
 30
0.0
 40
3.0
 50
270.0
 51
340.3461760000001
  0
ARC
  5
E0
  8
0
 62
     6
 10
25.958757
 20
-5.530359
 30
0.0
 40
3.0
 50
340.3461760000001
 51
0.0
  0
LINE
  5
E1
  8
0
 62
     6
 10
-23.462799
 20
-15.75
 30
0.0
 11
23.380314
 21
-15.75
 31
0.0
  0
LINE
  5
E2
  8
0
 62
     6
 10
-12.791243
 20
4.0
 30
0.0
 11
-12.791243
 21
-4.5
 31
0.0
  0
LINE
  5
E3
  8
0
 62
     6
 10
12.708757
 20
4.0
 30
0.0
 11
12.708757
 21
-4.5
 31
0.0
  0
LINE
  5
E4
  8
0
 62
     6
 10
-29.041243
 20
6.45468
 30
0.0
 11
-29.041243
 21
-5.530405
 31
0.0
  0
ENDBLK
  5
198
  8
0
  0
ENDSEC
  0
SECTION
  2
ENTITIES
  0
INSERT
  5
E6
  8
0
  2
159A
 10
-33.887065
 20
21.85
 30
0.0
  0
INSERT
  5
E7
  8
0
  2
159B
 10
41.112935
 20
21.85
 30
0.0
  0
INSERT
  5
E8
  8
0
  2
159C
 10
-33.887065
 20
-18.15
 30
0.0
  0
ENDSEC
  0
EOF
