  0
SECTION
  2
HEADER
  9
$ACADVER
  1
AC1009
  9
$DWGCODEPAGE
  3
ansi_1252
  9
$INSBASE
 10
0.0
 20
0.0
 30
0.0
  9
$EXTMIN
 10
-63.347371
 20
-91.959659
 30
0.0
  9
$EXTMAX
 10
63.347371
 20
91.959659
 30
0.0
  9
$LIMMIN
 10
0.0
 20
0.0
  9
$LIMMAX
 10
12.0
 20
9.0
  9
$ORTHOMODE
 70
     0
  9
$REGENMODE
 70
     1
  9
$FILLMODE
 70
     1
  9
$QTEXTMODE
 70
     0
  9
$MIRRTEXT
 70
     1
  9
$DRAGMODE
 70
     2
  9
$LTSCALE
 40
0.6675370000000001
  9
$OSMODE
 70
    37
  9
$ATTMODE
 70
     1
  9
$TEXTSIZE
 40
0.2
  9
$TRACEWID
 40
0.05
  9
$TEXTSTYLE
  7
STANDARD
  9
$CLAYER
  8
0
  9
$CELTYPE
  6
BYBLOCK
  9
$CECOLOR
 62
   256
  9
$DIMSCALE
 40
1.0
  9
$DIMASZ
 40
0.18
  9
$DIMEXO
 40
0.0625
  9
$DIMDLI
 40
0.38
  9
$DIMRND
 40
0.0
  9
$DIMDLE
 40
0.0
  9
$DIMEXE
 40
0.18
  9
$DIMTP
 40
0.0
  9
$DIMTM
 40
0.0
  9
$DIMTXT
 40
0.18
  9
$DIMCEN
 40
0.09
  9
$DIMTSZ
 40
0.0
  9
$DIMTOL
 70
     0
  9
$DIMLIM
 70
     0
  9
$DIMTIH
 70
     1
  9
$DIMTOH
 70
     1
  9
$DIMSE1
 70
     0
  9
$DIMSE2
 70
     0
  9
$DIMTAD
 70
     0
  9
$DIMZIN
 70
     0
  9
$DIMBLK
  1

  9
$DIMASO
 70
     1
  9
$DIMSHO
 70
     1
  9
$DIMPOST
  1

  9
$DIMAPOST
  1

  9
$DIMALT
 70
     0
  9
$DIMALTD
 70
     2
  9
$DIMALTF
 40
25.4
  9
$DIMLFAC
 40
1.0
  9
$DIMTOFL
 70
     0
  9
$DIMTVP
 40
0.0
  9
$DIMTIX
 70
     0
  9
$DIMSOXD
 70
     0
  9
$DIMSAH
 70
     0
  9
$DIMBLK1
  1

  9
$DIMBLK2
  1

  9
$DIMSTYLE
  2
STANDARD
  9
$DIMCLRD
 70
     0
  9
$DIMCLRE
 70
     0
  9
$DIMCLRT
 70
     0
  9
$DIMTFAC
 40
1.0
  9
$DIMGAP
 40
0.09
  9
$LUNITS
 70
     2
  9
$LUPREC
 70
     4
  9
$SKETCHINC
 40
0.1
  9
$FILLETRAD
 40
0.5
  9
$AUNITS
 70
     0
  9
$AUPREC
 70
     0
  9
$MENU
  1
.
  9
$ELEVATION
 40
0.0
  9
$PELEVATION
 40
0.0
  9
$THICKNESS
 40
0.0
  9
$LIMCHECK
 70
     0
  9
$CHAMFERA
 40
0.5
  9
$CHAMFERB
 40
0.5
  9
$SKPOLY
 70
     0
  9
$TDCREATE
 40
2453619.49584375
  9
$TDUPDATE
 40
2453619.495843762
  9
$TDINDWG
 40
0.0000000116
  9
$TDUSRTIMER
 40
0.0000000116
  9
$USRTIMER
 70
     1
  9
$ANGBASE
 50
0.0
  9
$ANGDIR
 70
     0
  9
$PDMODE
 70
     0
  9
$PDSIZE
 40
0.0
  9
$PLINEWID
 40
0.0
  9
$COORDS
 70
     1
  9
$SPLFRAME
 70
     0
  9
$SPLINETYPE
 70
     6
  9
$SPLINESEGS
 70
     8
  9
$ATTDIA
 70
     0
  9
$ATTREQ
 70
     1
  9
$HANDLING
 70
     1
  9
$HANDSEED
  5
147
  9
$SURFTAB1
 70
     6
  9
$SURFTAB2
 70
     6
  9
$SURFTYPE
 70
     6
  9
$SURFU
 70
     6
  9
$SURFV
 70
     6
  9
$UCSNAME
  2

  9
$UCSORG
 10
0.0
 20
0.0
 30
0.0
  9
$UCSXDIR
 10
1.0
 20
0.0
 30
0.0
  9
$UCSYDIR
 10
0.0
 20
1.0
 30
0.0
  9
$PUCSNAME
  2

  9
$PUCSORG
 10
0.0
 20
0.0
 30
0.0
  9
$PUCSXDIR
 10
1.0
 20
0.0
 30
0.0
  9
$PUCSYDIR
 10
0.0
 20
1.0
 30
0.0
  9
$USERI1
 70
     0
  9
$USERI2
 70
     0
  9
$USERI3
 70
     0
  9
$USERI4
 70
     0
  9
$USERI5
 70
     0
  9
$USERR1
 40
0.0
  9
$USERR2
 40
0.0
  9
$USERR3
 40
0.0
  9
$USERR4
 40
0.0
  9
$USERR5
 40
0.0
  9
$WORLDVIEW
 70
     1
  9
$SHADEDGE
 70
     3
  9
$SHADEDIF
 70
    70
  9
$TILEMODE
 70
     1
  9
$MAXACTVP
 70
    64
  9
$PLIMCHECK
 70
     0
  9
$PEXTMIN
 10
1.000000000000000E+20
 20
1.000000000000000E+20
 30
1.000000000000000E+20
  9
$PEXTMAX
 10
-1.000000000000000E+20
 20
-1.000000000000000E+20
 30
-1.000000000000000E+20
  9
$PLIMMIN
 10
0.0
 20
0.0
  9
$PLIMMAX
 10
12.0
 20
9.0
  9
$UNITMODE
 70
     0
  9
$VISRETAIN
 70
     1
  9
$PLINEGEN
 70
     0
  9
$PSLTSCALE
 70
     1
  0
ENDSEC
  0
SECTION
  2
TABLES
  0
TABLE
  2
VPORT
 70
     1
  0
VPORT
  2
*ACTIVE
 70
     0
 10
0.0
 20
0.0
 11
1.0
 21
1.0
 12
10.42990654205607
 22
4.5
 13
0.0
 23
0.0
 14
0.5
 24
0.5
 15
0.5
 25
0.5
 16
0.0
 26
0.0
 36
1.0
 17
0.0
 27
0.0
 37
0.0
 40
9.0
 41
1.972972972850329
 42
50.0
 43
0.0
 44
0.0
 50
0.0
 51
0.0
 71
     0
 72
   100
 73
     1
 74
     3
 75
     0
 76
     0
 77
     0
 78
     0
  0
ENDTAB
  0
TABLE
  2
LTYPE
 70
     9
  0
LTYPE
  2
CONTINUOUS
 70
     0
  3
Solid Line
 72
    65
 73
     0
 40
0.0
  0
LTYPE
  2
MCDASH1
 70
     0
  3
MiniCad+ Generated
 72
    65
 73
     2
 40
2.116538
 49
1.058075
 49
-1.058463
  0
LTYPE
  2
MCDASH2
 70
     0
  3
MiniCad+ Generated
 72
    65
 73
     2
 40
3.527692
 49
2.469229
 49
-1.058463
  0
LTYPE
  2
MCDASH3
 70
     0
  3
MiniCad+ Generated
 72
    65
 73
     2
 40
6.35
 49
5.291537
 49
-1.058463
  0
LTYPE
  2
MCDASH4
 70
     0
  3
MiniCad+ Generated
 72
    65
 73
     2
 40
7.760767
 49
6.702692
 49
-1.058075
  0
LTYPE
  2
MCDASH5
 70
     0
  3
MiniCad+ Generated
 72
    65
 73
     2
 40
1.058075
 49
0.352692
 49
-0.705383
  0
LTYPE
  2
MCDASH6
 70
     0
  3
MiniCad+ Generated
 72
    65
 73
     4
 40
5.291538
 49
3.175
 49
-1.058075
 49
0.352692
 49
-0.705771
  0
LTYPE
  2
MCDASH7
 70
     0
  3
MiniCad+ Generated
 72
    65
 73
     6
 40
9.525001
 49
3.175
 49
-1.058075
 49
3.175
 49
-1.058463
 49
0.352692
 49
-0.705771
  0
LTYPE
  2
MCDASH8
 70
     0
  3
MiniCad+ Generated
 72
    65
 73
     6
 40
6.350001000000001
 49
3.175
 49
-1.058075
 49
0.352692
 49
-0.705771
 49
0.352692
 49
-0.705771
  0
ENDTAB
  0
TABLE
  2
LAYER
 70
     4
  0
LAYER
  2
0
 70
     0
 62
     7
  6
CONTINUOUS
  0
LAYER
  2
PROFILI
 70
     0
 62
     7
  6
CONTINUOUS
  0
LAYER
  2
FISSAGGI
 70
     0
 62
     2
  6
CONTINUOUS
  0
LAYER
  2
PANNELLI
 70
     0
 62
     6
  6
CONTINUOUS
  0
ENDTAB
  0
TABLE
  2
STYLE
 70
     1
  0
STYLE
  2
STANDARD
 70
     0
 40
0.0
 41
1.0
 50
0.0
 71
     0
 42
0.2
  3
txt
  4

  0
ENDTAB
  0
TABLE
  2
VIEW
 70
     0
  0
ENDTAB
  0
TABLE
  2
UCS
 70
     0
  0
ENDTAB
  0
TABLE
  2
APPID
 70
     1
  0
APPID
  2
ACAD
 70
     0
  0
ENDTAB
  0
TABLE
  2
DIMSTYLE
 70
     1
  0
DIMSTYLE
  2
STANDARD
 70
     0
  3

  4

  5

  6

  7

 40
1.0
 41
0.18
 42
0.0625
 43
0.38
 44
0.18
 45
0.0
 46
0.0
 47
0.0
 48
0.0
140
0.18
141
0.09
142
0.0
143
25.4
144
1.0
145
0.0
146
1.0
147
0.09
 71
     0
 72
     0
 73
     1
 74
     1
 75
     0
 76
     0
 77
     0
 78
     0
170
     0
171
     2
172
     0
173
     0
174
     0
175
     0
176
     0
177
     0
178
     0
  0
ENDTAB
  0
ENDSEC
  0
SECTION
  2
BLOCKS
  0
BLOCK
  8
0
  2
$MODEL_SPACE
 70
     0
 10
0.0
 20
0.0
 30
0.0
  3
$MODEL_SPACE
  1

  0
ENDBLK
  5
142
  8
0
  0
BLOCK
 67
     1
  8
0
  2
$PAPER_SPACE
 70
     0
 10
0.0
 20
0.0
 30
0.0
  3
$PAPER_SPACE
  1

  0
ENDBLK
  5
140
 67
     1
  8
0
  0
BLOCK
  8
0
  2
$ARROW1$
 70
     0
 10
0.0
 20
0.0
 30
0.0
  3
$ARROW1$
  1

  0
SOLID
  5
30
  8
0
 62
     0
 10
-25.4
 20
4.318
 30
0.0
 11
-25.4
 21
-4.318
 31
0.0
 12
0.0
 22
0.0
 32
0.0
 13
0.0
 23
0.0
 33
0.0
  0
ENDBLK
  5
129
  8
0
  0
BLOCK
  8
0
  2
$ARROW2$
 70
     0
 10
0.0
 20
0.0
 30
0.0
  3
$ARROW2$
  1

  0
SOLID
  5
34
  8
0
 62
     0
 10
-25.4
 20
12.7
 30
0.0
 11
-25.4
 21
-12.7
 31
0.0
 12
0.0
 22
0.0
 32
0.0
 13
0.0
 23
0.0
 33
0.0
  0
ENDBLK
  5
12B
  8
0
  0
BLOCK
  8
0
  2
$ARROW3$
 70
     0
 10
0.0
 20
0.0
 30
0.0
  3
$ARROW3$
  1

  0
POLYLINE
  5
38
  8
0
  6
BYBLOCK
 62
     0
 66
     1
 10
0.0
 20
0.0
 30
0.0
 70
     1
 40
0.5
 41
0.5
  0
VERTEX
  5
CE
  8
0
  6
BYBLOCK
 62
     0
 10
-6.35
 20
0.0
 30
0.0
 42
1.0
  0
VERTEX
  5
CF
  8
0
  6
BYBLOCK
 62
     0
 10
6.35
 20
0.0
 30
0.0
 42
1.0
  0
SEQEND
  5
12C
  8
0
  6
BYBLOCK
 62
     0
  0
ENDBLK
  5
12E
  8
0
  0
BLOCK
  8
0
  2
$ARROW4$
 70
     0
 10
0.0
 20
0.0
 30
0.0
  3
$ARROW4$
  1

  0
LINE
  5
3F
  8
0
  6
BYBLOCK
 62
     0
 10
12.7
 20
12.7
 30
0.0
 11
-12.7
 21
-12.7
 31
0.0
  0
ENDBLK
  5
130
  8
0
  0
BLOCK
  8
0
  2
$ARROW5$
 70
     0
 10
0.0
 20
0.0
 30
0.0
  3
$ARROW5$
  1

  0
LINE
  5
43
  8
0
  6
BYBLOCK
 62
     0
 10
12.7
 20
12.7
 30
0.0
 11
-12.7
 21
-12.7
 31
0.0
  0
LINE
  5
44
  8
0
  6
BYBLOCK
 62
     0
 10
-12.7
 20
12.7
 30
0.0
 11
12.7
 21
-12.7
 31
0.0
  0
ENDBLK
  5
132
  8
0
  0
BLOCK
  8
0
  2
BORDER
 70
     0
 10
0.0
 20
0.0
 30
0.0
  3
BORDER
  1

  0
LINE
  5
48
  8
0
 62
     6
 10
0.0
 20
0.0
 30
0.0
 11
1.0
 21
0.0
 31
0.0
  0
LINE
  5
49
  8
0
 62
     6
 10
1.0
 20
0.0
 30
0.0
 11
1.0
 21
1.0
 31
0.0
  0
LINE
  5
4A
  8
0
 62
     6
 10
1.0
 20
1.0
 30
0.0
 11
0.0
 21
1.0
 31
0.0
  0
LINE
  5
4B
  8
0
 62
     6
 10
0.0
 20
1.0
 30
0.0
 11
0.0
 21
0.0
 31
0.0
  0
ENDBLK
  5
134
  8
0
  0
BLOCK
  8
0
  2
159A
 70
     0
 10
0.0
 20
0.0
 30
0.0
  3
159A
  1

  0
ARC
  5
4F
  8
0
 62
     6
 10
-28.482936
 20
4.340213
 30
0.0
 40
2.297203
 50
30.322662
 51
116.278839
  0
ARC
  5
50
  8
0
 62
     6
 10
-28.482936
 20
-4.340213
 30
0.0
 40
2.297203
 50
243.721161
 51
329.677338
  0
ARC
  5
51
  8
0
 62
     6
 10
28.482936
 20
-4.340213
 30
0.0
 40
2.297203
 50
210.322662
 51
296.278839
  0
ARC
  5
52
  8
0
 62
     6
 10
28.482936
 20
4.340213
 30
0.0
 40
2.297203
 50
63.721161
 51
149.677338
  0
LINE
  5
53
  8
0
 62
     6
 10
29.5
 20
0.0
 30
0.0
 11
-29.5
 21
0.0
 31
0.0
  0
LINE
  5
54
  8
0
 62
     6
 10
29.5
 20
9.5
 30
0.0
 11
29.5
 21
-9.5
 31
0.0
  0
LINE
  5
55
  8
0
 62
     6
 10
-29.5
 20
9.5
 30
0.0
 11
-29.5
 21
-9.5
 31
0.0
  0
LINE
  5
56
  8
0
 62
     6
 10
-26.5
 20
12.5
 30
0.0
 11
26.5
 21
12.5
 31
0.0
  0
ARC
  5
57
  8
0
 62
     6
 10
26.5
 20
9.5
 30
0.0
 40
3.0
 50
0.0
 51
90.0
  0
LINE
  5
58
  8
0
 62
     6
 10
26.5
 20
9.5
 30
0.0
 11
26.5
 21
5.5
 31
0.0
  0
ARC
  5
59
  8
0
 62
     6
 10
23.5
 20
9.5
 30
0.0
 40
3.0
 50
0.0
 51
90.0
  0
ARC
  5
5A
  8
0
 62
     6
 10
-23.5
 20
9.5
 30
0.0
 40
3.0
 50
90.0
 51
180.0
  0
LINE
  5
5B
  8
0
 62
     6
 10
-26.5
 20
9.5
 30
0.0
 11
-26.5
 21
5.5
 31
0.0
  0
ARC
  5
5C
  8
0
 62
     6
 10
-26.5
 20
9.5
 30
0.0
 40
3.0
 50
90.0
 51
180.0
  0
LINE
  5
5D
  8
0
 62
     6
 10
26.5
 20
5.5
 30
0.0
 11
-26.5
 21
5.5
 31
0.0
  0
LINE
  5
5E
  8
0
 62
     6
 10
-26.45804
 20
10.0
 30
0.0
 11
26.45804
 21
10.0
 31
0.0
  0
LINE
  5
5F
  8
0
 62
     6
 10
-26.45804
 20
-10.0
 30
0.0
 11
26.45804
 21
-10.0
 31
0.0
  0
LINE
  5
60
  8
0
 62
     6
 10
26.5
 20
-5.5
 30
0.0
 11
-26.5
 21
-5.5
 31
0.0
  0
LINE
  5
61
  8
0
 62
     6
 10
-26.5
 20
-12.5
 30
0.0
 11
26.5
 21
-12.5
 31
0.0
  0
ARC
  5
62
  8
0
 62
     6
 10
-26.5
 20
-9.5
 30
0.0
 40
3.0
 50
180.0
 51
270.0
  0
LINE
  5
63
  8
0
 62
     6
 10
-26.5
 20
-9.5
 30
0.0
 11
-26.5
 21
-5.5
 31
0.0
  0
ARC
  5
64
  8
0
 62
     6
 10
-23.5
 20
-9.5
 30
0.0
 40
3.0
 50
180.0
 51
270.0
  0
ARC
  5
65
  8
0
 62
     6
 10
23.5
 20
-9.5
 30
0.0
 40
3.0
 50
270.0
 51
0.0
  0
LINE
  5
66
  8
0
 62
     6
 10
26.5
 20
-9.5
 30
0.0
 11
26.5
 21
-5.5
 31
0.0
  0
ARC
  5
67
  8
0
 62
     6
 10
26.5
 20
-9.5
 30
0.0
 40
3.0
 50
270.0
 51
0.0
  0
ENDBLK
  5
136
  8
0
  0
BLOCK
  8
0
  2
159B
 70
     0
 10
0.0
 20
0.0
 30
0.0
  3
159B
  1

  0
LINE
  5
6B
  8
0
 62
     6
 10
-6.073529
 20
-12.5
 30
0.0
 11
17.730518
 21
-12.5
 31
0.0
  0
LINE
  5
6C
  8
0
 62
     6
 10
-6.073529
 20
-12.5
 30
0.0
 11
-11.573529
 21
-7.0
 31
0.0
  0
LINE
  5
6D
  8
0
 62
     6
 10
-11.573529
 20
-7.0
 30
0.0
 11
-12.808824
 21
0.0
 31
0.0
  0
LINE
  5
6E
  8
0
 62
     6
 10
17.730518
 20
-12.5
 30
0.0
 11
22.139608
 21
-8.875
 31
0.0
  0
LINE
  5
6F
  8
0
 62
     6
 10
-12.808824
 20
0.0
 30
0.0
 11
10.638824
 21
0.0
 31
0.0
  0
LINE
  5
70
  8
0
 62
     6
 10
17.730518
 20
12.5
 30
0.0
 11
22.139608
 21
8.875
 31
0.0
  0
LINE
  5
71
  8
0
 62
     6
 10
-11.573529
 20
7.0
 30
0.0
 11
-12.808824
 21
0.0
 31
0.0
  0
LINE
  5
72
  8
0
 62
     6
 10
-6.073529
 20
12.5
 30
0.0
 11
-11.573529
 21
7.0
 31
0.0
  0
LINE
  5
73
  8
0
 62
     6
 10
-6.073529
 20
12.5
 30
0.0
 11
17.730518
 21
12.5
 31
0.0
  0
LINE
  5
74
  8
0
  6
MCDASH1
 10
-1.615259
 20
12.5
 30
0.0
 11
-1.615259
 21
-12.5
 31
0.0
  0
LINE
  5
75
  8
0
  6
MCDASH1
 10
6.884741
 20
12.5
 30
0.0
 11
6.884741
 21
-12.5
 31
0.0
  0
LINE
  5
76
  8
0
 10
2.634741
 20
13.8
 30
0.0
 11
2.634741
 21
-13.4
 31
0.0
  0
ARC
  5
77
  8
0
 62
     6
 10
17.638824
 20
0.0
 30
0.0
 40
7.0
 50
49.97181700000001
 51
180.0
  0
ARC
  5
78
  8
0
 62
     6
 10
17.638824
 20
0.0
 30
0.0
 40
7.0
 50
180.0
 51
310.014572
  0
LINE
  5
79
  8
0
 62
     6
 10
22.139608
 20
5.360166
 30
0.0
 11
22.139608
 21
8.875
 31
0.0
  0
LINE
  5
7A
  8
0
 62
     6
 10
22.139608
 20
-5.361127
 30
0.0
 11
22.139608
 21
-8.875
 31
0.0
  0
ENDBLK
  5
138
  8
0
  0
BLOCK
  8
0
  2
159C
 70
     0
 10
0.0
 20
0.0
 30
0.0
  3
159C
  1

  0
POLYLINE
  5
7E
  8
0
 62
     6
 66
     1
 10
0.0
 20
0.0
 30
0.0
  0
VERTEX
  5
D1
  8
0
 62
     6
 10
28.958757
 20
6.332105
 30
0.0
  0
VERTEX
  5
D2
  8
0
 62
     6
 10
27.913887
 20
7.046693
 30
0.0
  0
VERTEX
  5
D3
  8
0
 62
     6
 10
27.913886
 20
7.046693
 30
0.0
  0
VERTEX
  5
D4
  8
0
 62
     6
 10
26.851415
 20
7.734841
 30
0.0
  0
SEQEND
  5
139
  8
0
 62
     6
  0
POLYLINE
  5
84
  8
0
 62
     6
 66
     1
 10
0.0
 20
0.0
 30
0.0
  0
VERTEX
  5
D6
  8
0
 62
     6
 10
26.851415
 20
7.734841
 30
0.0
  0
VERTEX
  5
D7
  8
0
 62
     6
 10
20.606337
 20
11.081348
 30
0.0
  0
VERTEX
  5
D8
  8
0
 62
     6
 10
13.954249
 20
13.519884
 30
0.0
  0
VERTEX
  5
D9
  8
0
 62
     6
 10
7.026174
 20
15.00251
 30
0.0
  0
VERTEX
  5
DA
  8
0
 62
     6
 10
-0.041242
 20
15.499988
 30
0.0
  0
VERTEX
  5
DB
  8
0
 62
     6
 10
-0.041243
 20
15.499988
 30
0.0
  0
VERTEX
  5
DC
  8
0
 62
     6
 10
-7.108659
 20
15.00251
 30
0.0
  0
VERTEX
  5
DD
  8
0
 62
     6
 10
-14.036734
 20
13.519884
 30
0.0
  0
VERTEX
  5
DE
  8
0
 62
     6
 10
-20.688822
 20
11.081348
 30
0.0
  0
VERTEX
  5
DF
  8
0
 62
     6
 10
-26.933671
 20
7.734995
 30
0.0
  0
VERTEX
  5
E0
  8
0
 62
     6
 10
-26.9339
 20
7.734841
 30
0.0
  0
VERTEX
  5
E1
  8
0
 62
     6
 10
-27.996371
 20
7.046693
 30
0.0
  0
VERTEX
  5
E2
  8
0
 62
     6
 10
-27.996372
 20
7.046693
 30
0.0
  0
VERTEX
  5
E3
  8
0
 62
     6
 10
-29.041242
 20
6.332105
 30
0.0
  0
VERTEX
  5
E4
  8
0
 62
     6
 10
-29.041243
 20
6.332105
 30
0.0
  0
SEQEND
  5
13A
  8
0
 62
     6
  0
LINE
  5
95
  8
0
 62
     6
 10
-27.833388
 20
7.154726
 30
0.0
 11
27.750903
 21
7.154726
 31
0.0
  0
ARC
  5
96
  8
0
 62
     6
 10
-0.041243
 20
-34.950528
 30
0.0
 40
52.450528
 50
57.788223
 51
122.211761
  0
LINE
  5
97
  8
0
 62
     6
 10
28.958757
 20
7.154726
 30
0.0
 11
28.958757
 21
-7.5
 31
0.0
  0
ARC
  5
98
  8
0
 62
     6
 10
25.958757
 20
7.154726
 30
0.0
 40
3.0
 50
0.0
 51
49.23794600000001
  0
LINE
  5
99
  8
0
 62
     6
 10
-29.041243
 20
7.154726
 30
0.0
 11
-29.041243
 21
-7.5
 31
0.0
  0
LINE
  5
9A
  8
0
 62
     6
 10
-12.791243
 20
-2.25
 30
0.0
 11
12.708757
 21
-2.25
 31
0.0
  0
LINE
  5
9B
  8
0
 62
     6
 10
-12.791243
 20
6.25
 30
0.0
 11
12.708757
 21
6.25
 31
0.0
  0
LINE
  5
9C
  8
0
 62
     6
 10
-23.962799
 20
-12.0
 30
0.0
 11
23.880314
 21
-12.0
 31
0.0
  0
CIRCLE
  5
9D
  8
0
 62
     6
 10
19.458757
 20
-3.5
 30
0.0
 40
2.5
  0
POLYLINE
  5
9E
  8
0
 62
     6
 66
     1
 10
0.0
 20
0.0
 30
0.0
 70
     1
  0
VERTEX
  5
E6
  8
0
 62
     6
 10
19.458757
 20
-8.0
 30
0.0
  0
VERTEX
  5
E7
  8
0
 62
     6
 10
15.561643
 20
-5.75
 30
0.0
  0
VERTEX
  5
E8
  8
0
 62
     6
 10
15.561643
 20
-1.25
 30
0.0
  0
VERTEX
  5
E9
  8
0
 62
     6
 10
19.458757
 20
1.0
 30
0.0
  0
VERTEX
  5
EA
  8
0
 62
     6
 10
23.355872
 20
-1.25
 30
0.0
  0
VERTEX
  5
EB
  8
0
 62
     6
 10
23.355872
 20
-5.75
 30
0.0
  0
SEQEND
  5
13B
  8
0
 62
     6
  0
CIRCLE
  5
A6
  8
0
 62
     6
 10
-19.541243
 20
-3.5
 30
0.0
 40
2.5
  0
POLYLINE
  5
A7
  8
0
 62
     6
 66
     1
 10
0.0
 20
0.0
 30
0.0
 70
     1
  0
VERTEX
  5
ED
  8
0
 62
     6
 10
-19.541243
 20
-8.0
 30
0.0
  0
VERTEX
  5
EE
  8
0
 62
     6
 10
-15.644128
 20
-5.75
 30
0.0
  0
VERTEX
  5
EF
  8
0
 62
     6
 10
-15.644128
 20
-1.25
 30
0.0
  0
VERTEX
  5
F0
  8
0
 62
     6
 10
-19.541243
 20
1.0
 30
0.0
  0
VERTEX
  5
F1
  8
0
 62
     6
 10
-23.438357
 20
-1.25
 30
0.0
  0
VERTEX
  5
F2
  8
0
 62
     6
 10
-23.438357
 20
-5.75
 30
0.0
  0
SEQEND
  5
13C
  8
0
 62
     6
  0
ARC
  5
AF
  8
0
 62
     6
 10
-26.041243
 20
-7.280359
 30
0.0
 40
3.0
 50
180.0
 51
199.653824
  0
ARC
  5
B0
  8
0
 62
     6
 10
-26.041243
 20
7.154726
 30
0.0
 40
3.0
 50
130.762054
 51
180.0
  0
ARC
  5
B1
  8
0
 62
     6
 10
-23.462799
 20
-14.5
 30
0.0
 40
3.0
 50
199.653824
 51
270.0
  0
LINE
  5
B2
  8
0
 62
     6
 10
-28.866468
 20
-8.289368
 30
0.0
 11
-26.288025
 21
-15.509009
 31
0.0
  0
LINE
  5
B3
  8
0
 62
     6
 10
28.783983
 20
-8.289368
 30
0.0
 11
26.20554
 21
-15.509009
 31
0.0
  0
ARC
  5
B4
  8
0
 62
     6
 10
23.380314
 20
-14.5
 30
0.0
 40
3.0
 50
270.0
 51
340.3461760000001
  0
ARC
  5
B5
  8
0
 62
     6
 10
25.958757
 20
-7.280359
 30
0.0
 40
3.0
 50
340.3461760000001
 51
0.0
  0
LINE
  5
B6
  8
0
 62
     6
 10
-23.462799
 20
-17.5
 30
0.0
 11
23.380314
 21
-17.5
 31
0.0
  0
LINE
  5
B7
  8
0
 62
     6
 10
-12.791243
 20
6.25
 30
0.0
 11
-12.791243
 21
-2.25
 31
0.0
  0
LINE
  5
B8
  8
0
 62
     6
 10
12.708757
 20
6.25
 30
0.0
 11
12.708757
 21
-2.25
 31
0.0
  0
ENDBLK
  5
13E
  8
0
  0
ENDSEC
  0
SECTION
  2
ENTITIES
  0
INSERT
  5
BA
  8
0
  2
159A
 10
-33.847371
 20
22.5
 30
0.0
  0
INSERT
  5
BB
  8
0
  2
159B
 10
41.152629
 20
22.5
 30
0.0
  0
INSERT
  5
BC
  8
0
  2
159C
 10
-33.847371
 20
-17.5
 30
0.0
  0
ENDSEC
  0
EOF
