  0
SECTION
  2
HEADER
  9
$ACADVER
  1
AC1012
  9
$DWGCODEPAGE
  3
ansi_1252
  9
$INSBASE
 10
0.0
 20
0.0
 30
0.0
  9
$EXTMIN
 10
-1614.0
 20
-80.5
 30
0.0
  9
$EXTMAX
 10
590.0
 20
50.0
 30
0.0
  9
$LIMMIN
 10
0.0
 20
0.0
  9
$LIMMAX
 10
297.0
 20
210.0
  9
$ORTHOMODE
 70
     1
  9
$REGENMODE
 70
     1
  9
$FILLMODE
 70
     1
  9
$QTEXTMODE
 70
     0
  9
$MIRRTEXT
 70
     1
  9
$DRAGMODE
 70
     2
  9
$LTSCALE
 40
10.0
  9
$OSMODE
 70
    37
  9
$ATTMODE
 70
     1
  9
$TEXTSIZE
 40
0.2
  9
$TRACEWID
 40
0.05
  9
$TEXTSTYLE
  7
STANDARD
  9
$CLAYER
  8
0
  9
$CELTYPE
  6
BYLAYER
  9
$CECOLOR
 62
   256
  9
$CELTSCALE
 40
1.0
  9
$DELOBJ
 70
     1
  9
$DISPSILH
 70
     0
  9
$DIMSCALE
 40
1.0
  9
$DIMASZ
 40
0.18
  9
$DIMEXO
 40
0.0625
  9
$DIMDLI
 40
0.38
  9
$DIMRND
 40
0.0
  9
$DIMDLE
 40
0.0
  9
$DIMEXE
 40
0.18
  9
$DIMTP
 40
0.0
  9
$DIMTM
 40
0.0
  9
$DIMTXT
 40
0.18
  9
$DIMCEN
 40
0.09
  9
$DIMTSZ
 40
0.0
  9
$DIMTOL
 70
     0
  9
$DIMLIM
 70
     0
  9
$DIMTIH
 70
     1
  9
$DIMTOH
 70
     1
  9
$DIMSE1
 70
     0
  9
$DIMSE2
 70
     0
  9
$DIMTAD
 70
     0
  9
$DIMZIN
 70
     0
  9
$DIMBLK
  1

  9
$DIMASO
 70
     1
  9
$DIMSHO
 70
     0
  9
$DIMPOST
  1

  9
$DIMAPOST
  1

  9
$DIMALT
 70
     0
  9
$DIMALTD
 70
     2
  9
$DIMALTF
 40
25.4
  9
$DIMLFAC
 40
1.0
  9
$DIMTOFL
 70
     0
  9
$DIMTVP
 40
0.0
  9
$DIMTIX
 70
     0
  9
$DIMSOXD
 70
     0
  9
$DIMSAH
 70
     0
  9
$DIMBLK1
  1

  9
$DIMBLK2
  1

  9
$DIMSTYLE
  2
STANDARD
  9
$DIMCLRD
 70
     0
  9
$DIMCLRE
 70
     0
  9
$DIMCLRT
 70
     0
  9
$DIMTFAC
 40
1.0
  9
$DIMGAP
 40
0.09
  9
$DIMJUST
 70
     0
  9
$DIMSD1
 70
     0
  9
$DIMSD2
 70
     0
  9
$DIMTOLJ
 70
     1
  9
$DIMTZIN
 70
     0
  9
$DIMALTZ
 70
     0
  9
$DIMALTTZ
 70
     0
  9
$DIMFIT
 70
     3
  9
$DIMUPT
 70
     0
  9
$DIMUNIT
 70
     2
  9
$DIMDEC
 70
     4
  9
$DIMTDEC
 70
     4
  9
$DIMALTU
 70
     2
  9
$DIMALTTD
 70
     2
  9
$DIMTXSTY
  7
STANDARD
  9
$DIMAUNIT
 70
     0
  9
$LUNITS
 70
     2
  9
$LUPREC
 70
     4
  9
$SKETCHINC
 40
0.1
  9
$FILLETRAD
 40
0.0
  9
$AUNITS
 70
     0
  9
$AUPREC
 70
     0
  9
$MENU
  1
c:\sitoplas\menu\CCing
  9
$ELEVATION
 40
0.0
  9
$PELEVATION
 40
0.0
  9
$THICKNESS
 40
0.0
  9
$LIMCHECK
 70
     0
  9
$CHAMFERA
 40
0.0
  9
$CHAMFERB
 40
0.0
  9
$CHAMFERC
 40
0.0
  9
$CHAMFERD
 40
0.0
  9
$SKPOLY
 70
     0
  9
$TDCREATE
 40
2447893.083333334
  9
$TDUPDATE
 40
2447893.083333334
  9
$TDINDWG
 40
0.0052216435
  9
$TDUSRTIMER
 40
0.0052216435
  9
$USRTIMER
 70
     1
  9
$ANGBASE
 50
0.0
  9
$ANGDIR
 70
     0
  9
$PDMODE
 70
     0
  9
$PDSIZE
 40
0.0
  9
$PLINEWID
 40
0.0
  9
$COORDS
 70
     1
  9
$SPLFRAME
 70
     0
  9
$SPLINETYPE
 70
     6
  9
$SPLINESEGS
 70
     8
  9
$ATTDIA
 70
     0
  9
$ATTREQ
 70
     1
  9
$HANDLING
 70
     1
  9
$HANDSEED
  5
99A
  9
$SURFTAB1
 70
     6
  9
$SURFTAB2
 70
     6
  9
$SURFTYPE
 70
     6
  9
$SURFU
 70
     6
  9
$SURFV
 70
     6
  9
$UCSNAME
  2

  9
$UCSORG
 10
0.0
 20
0.0
 30
0.0
  9
$UCSXDIR
 10
1.0
 20
0.0
 30
0.0
  9
$UCSYDIR
 10
0.0
 20
1.0
 30
0.0
  9
$PUCSNAME
  2

  9
$PUCSORG
 10
0.0
 20
0.0
 30
0.0
  9
$PUCSXDIR
 10
1.0
 20
0.0
 30
0.0
  9
$PUCSYDIR
 10
0.0
 20
1.0
 30
0.0
  9
$USERI1
 70
     0
  9
$USERI2
 70
     0
  9
$USERI3
 70
     0
  9
$USERI4
 70
     0
  9
$USERI5
 70
     0
  9
$USERR1
 40
0.0
  9
$USERR2
 40
0.0
  9
$USERR3
 40
0.0
  9
$USERR4
 40
0.0
  9
$USERR5
 40
0.0
  9
$WORLDVIEW
 70
     1
  9
$SHADEDGE
 70
     3
  9
$SHADEDIF
 70
    70
  9
$TILEMODE
 70
     1
  9
$MAXACTVP
 70
    16
  9
$PINSBASE
 10
0.0
 20
0.0
 30
0.0
  9
$PLIMCHECK
 70
     0
  9
$PEXTMIN
 10
1.000000000000000E+20
 20
1.000000000000000E+20
 30
1.000000000000000E+20
  9
$PEXTMAX
 10
-1.000000000000000E+20
 20
-1.000000000000000E+20
 30
-1.000000000000000E+20
  9
$PLIMMIN
 10
0.0
 20
0.0
  9
$PLIMMAX
 10
12.0
 20
9.0
  9
$UNITMODE
 70
     0
  9
$VISRETAIN
 70
     0
  9
$PLINEGEN
 70
     0
  9
$PSLTSCALE
 70
     0
  9
$TREEDEPTH
 70
  3020
  9
$PICKSTYLE
 70
     1
  9
$CMLSTYLE
  2
STANDARD
  9
$CMLJUST
 70
     0
  9
$CMLSCALE
 40
1.0
  9
$SAVEIMAGES
 70
     1
  0
ENDSEC
  0
SECTION
  2
CLASSES
  0
CLASS
  1
XRECORD
  2
AcDbXrecord
  3
AutoCAD 2000
 90
    32768
280
     0
281
     0
  0
CLASS
  1
LWPOLYLINE
  2
AcDbPolyline
  3
AutoCAD 2000
 90
    32768
280
     0
281
     1
  0
CLASS
  1
HATCH
  2
AcDbHatch
  3
AutoCAD 2000
 90
    32768
280
     0
281
     1
  0
CLASS
  1
ACDBPLACEHOLDER
  2
AcDbPlaceHolder
  3
ObjectDBX Classes
 90
        0
280
     0
281
     0
  0
CLASS
  1
LAYOUT
  2
AcDbLayout
  3
ObjectDBX Classes
 90
        0
280
     0
281
     0
  0
ENDSEC
  0
SECTION
  2
TABLES
  0
TABLE
  2
VPORT
  5
8
330
0
100
AcDbSymbolTable
 70
     1
  0
VPORT
  5
947
102
{ACAD_XDICTIONARY
360
998
102
}
330
8
100
AcDbSymbolTableRecord
100
AcDbViewportTableRecord
  2
*ACTIVE
 70
     0
 10
0.0
 20
0.0
 11
1.0
 21
1.0
 12
-512.0
 22
494.850462
 13
0.0
 23
0.0
 14
0.5
 24
0.5
 15
0.0
 25
0.0
 16
0.0
 26
0.0
 36
1.0
 17
0.0
 27
0.0
 37
0.0
 40
1150.700925
 41
1.915354
 42
50.0
 43
0.0
 44
0.0
 50
0.0
 51
0.0
 71
     0
 72
   100
 73
     1
 74
     3
 75
     1
 76
     0
 77
     0
 78
     0
  0
ENDTAB
  0
TABLE
  2
LTYPE
  5
5
330
0
100
AcDbSymbolTable
 70
     1
  0
LTYPE
  5
12
330
5
100
AcDbSymbolTableRecord
100
AcDbLinetypeTableRecord
  2
BYBLOCK
 70
     0
  3

 72
    65
 73
     0
 40
0.0
  0
LTYPE
  5
13
330
5
100
AcDbSymbolTableRecord
100
AcDbLinetypeTableRecord
  2
BYLAYER
 70
     0
  3

 72
    65
 73
     0
 40
0.0
  0
LTYPE
  5
14
330
5
100
AcDbSymbolTableRecord
100
AcDbLinetypeTableRecord
  2
CONTINUOUS
 70
     0
  3
Solid line
 72
    65
 73
     0
 40
0.0
  0
ENDTAB
  0
TABLE
  2
LAYER
  5
2
330
0
100
AcDbSymbolTable
 70
     2
  0
LAYER
  5
F
330
2
100
AcDbSymbolTableRecord
100
AcDbLayerTableRecord
  2
0
 70
     0
 62
     7
  6
CONTINUOUS
  0
LAYER
  5
35
330
2
100
AcDbSymbolTableRecord
100
AcDbLayerTableRecord
  2
GUIDE
 70
     0
 62
     7
  6
CONTINUOUS
  0
ENDTAB
  0
TABLE
  2
STYLE
  5
3
330
0
100
AcDbSymbolTable
 70
     1
  0
STYLE
  5
10
330
3
100
AcDbSymbolTableRecord
100
AcDbTextStyleTableRecord
  2
STANDARD
 70
     0
 40
0.0
 41
1.0
 50
0.0
 71
     0
 42
0.2
  3
txt
  4

  0
ENDTAB
  0
TABLE
  2
VIEW
  5
6
330
0
100
AcDbSymbolTable
 70
     0
  0
ENDTAB
  0
TABLE
  2
UCS
  5
7
330
0
100
AcDbSymbolTable
 70
     0
  0
ENDTAB
  0
TABLE
  2
APPID
  5
9
330
0
100
AcDbSymbolTable
 70
     1
  0
APPID
  5
11
330
9
100
AcDbSymbolTableRecord
100
AcDbRegAppTableRecord
  2
ACAD
 70
     0
  0
ENDTAB
  0
TABLE
  2
DIMSTYLE
  5
A
330
0
100
AcDbSymbolTable
 70
     1
  0
DIMSTYLE
105
2D
330
A
100
AcDbSymbolTableRecord
100
AcDbDimStyleTableRecord
  2
STANDARD
 70
     0
  3

  4

  5

  6

  7

 40
1.0
 41
0.18
 42
0.0625
 43
0.38
 44
0.18
 45
0.0
 46
0.0
 47
0.0
 48
0.0
140
0.18
141
0.09
142
0.0
143
25.4
144
1.0
145
0.0
146
1.0
147
0.09
 71
     0
 72
     0
 73
     1
 74
     1
 75
     0
 76
     0
 77
     0
 78
     0
170
     0
171
     2
172
     0
173
     0
174
     0
175
     0
176
     0
177
     0
178
     0
270
     2
271
     4
272
     4
273
     2
274
     2
340
10
275
     0
280
     0
281
     0
282
     0
283
     1
284
     0
285
     0
286
     0
287
     3
288
     0
  0
ENDTAB
  0
TABLE
  2
BLOCK_RECORD
  5
1
330
0
100
AcDbSymbolTable
 70
     0
  0
BLOCK_RECORD
  5
18
330
1
100
AcDbSymbolTableRecord
100
AcDbBlockTableRecord
  2
*MODEL_SPACE
  0
BLOCK_RECORD
  5
15
330
1
100
AcDbSymbolTableRecord
100
AcDbBlockTableRecord
  2
*PAPER_SPACE
  0
ENDTAB
  0
ENDSEC
  0
SECTION
  2
BLOCKS
  0
BLOCK
  5
24
330
18
100
AcDbEntity
  8
0
100
AcDbBlockBegin
  2
*MODEL_SPACE
 70
     0
 71
     0
 10
0.0
 20
0.0
 30
0.0
  3
*MODEL_SPACE
  1

  0
ENDBLK
  5
25
330
18
100
AcDbEntity
  8
0
100
AcDbBlockEnd
  0
BLOCK
  5
22
330
15
100
AcDbEntity
 67
     1
  8
0
100
AcDbBlockBegin
  2
*PAPER_SPACE
 70
     0
 71
     0
 10
0.0
 20
0.0
 30
0.0
  3
*PAPER_SPACE
  1

  0
ENDBLK
  5
23
330
15
100
AcDbEntity
 67
     1
  8
0
100
AcDbBlockEnd
  0
ENDSEC
  0
SECTION
  2
ENTITIES
  0
POLYLINE
  5
4C8
330
18
100
AcDbEntity
  8
GUIDE
100
AcDb2dPolyline
 66
     1
 10
0.0
 20
0.0
 30
0.0
  0
VERTEX
  5
986
330
4C8
100
AcDbEntity
  8
GUIDE
100
AcDbVertex
100
AcDb2dVertex
 10
483.0
 20
29.791756
 30
0.0
 42
0.497786
  0
VERTEX
  5
987
330
4C8
100
AcDbEntity
  8
GUIDE
100
AcDbVertex
100
AcDb2dVertex
 10
487.246211
 20
46.0
 30
0.0
 42
0.485071
  0
SEQEND
  5
985
330
4C8
100
AcDbEntity
  8
GUIDE
  0
POLYLINE
  5
4CC
330
18
100
AcDbEntity
  8
GUIDE
100
AcDb2dPolyline
 66
     1
 10
0.0
 20
0.0
 30
0.0
  0
VERTEX
  5
989
330
4CC
100
AcDbEntity
  8
GUIDE
100
AcDbVertex
100
AcDb2dVertex
 10
487.246211
 20
46.0
 30
0.0
 42
0.485071
  0
VERTEX
  5
98A
330
4CC
100
AcDbEntity
  8
GUIDE
100
AcDbVertex
100
AcDb2dVertex
 10
470.753789
 20
46.0
 30
0.0
 42
2.061553
  0
SEQEND
  5
988
330
4CC
100
AcDbEntity
  8
GUIDE
  0
ARC
  5
4D0
330
18
100
AcDbEntity
  8
GUIDE
100
AcDbCircle
 10
461.5
 20
39.5
 30
0.0
 40
10.5
100
AcDbArc
 50
38.24662
 51
141.75338
  0
ARC
  5
4D1
330
18
100
AcDbEntity
  8
GUIDE
100
AcDbCircle
 10
444.0
 20
39.5
 30
0.0
 40
10.5
100
AcDbArc
 50
38.24662
 51
141.75338
  0
ARC
  5
4D2
330
18
100
AcDbEntity
  8
GUIDE
100
AcDbCircle
 10
426.5
 20
39.5
 30
0.0
 40
10.5
100
AcDbArc
 50
38.24662
 51
141.75338
  0
ARC
  5
4D3
330
18
100
AcDbEntity
  8
GUIDE
100
AcDbCircle
 10
409.0
 20
39.5
 30
0.0
 40
10.5
100
AcDbArc
 50
38.24662
 51
141.75338
  0
ARC
  5
4D4
330
18
100
AcDbEntity
  8
GUIDE
100
AcDbCircle
 10
391.5
 20
39.5
 30
0.0
 40
10.5
100
AcDbArc
 50
38.24662
 51
141.75338
  0
ARC
  5
4D5
330
18
100
AcDbEntity
  8
GUIDE
100
AcDbCircle
 10
374.0
 20
39.5
 30
0.0
 40
10.5
100
AcDbArc
 50
38.24662
 51
141.75338
  0
ARC
  5
4D6
330
18
100
AcDbEntity
  8
GUIDE
100
AcDbCircle
 10
356.5
 20
39.5
 30
0.0
 40
10.5
100
AcDbArc
 50
38.24662
 51
141.75338
  0
ARC
  5
4D7
330
18
100
AcDbEntity
  8
GUIDE
100
AcDbCircle
 10
339.0
 20
39.5
 30
0.0
 40
10.5
100
AcDbArc
 50
38.24662
 51
141.75338
  0
ARC
  5
4D8
330
18
100
AcDbEntity
  8
GUIDE
100
AcDbCircle
 10
321.5
 20
39.5
 30
0.0
 40
10.5
100
AcDbArc
 50
38.24662
 51
141.75338
  0
ARC
  5
4D9
330
18
100
AcDbEntity
  8
GUIDE
100
AcDbCircle
 10
304.0
 20
39.5
 30
0.0
 40
10.5
100
AcDbArc
 50
38.24662
 51
141.75338
  0
ARC
  5
4DA
330
18
100
AcDbEntity
  8
GUIDE
100
AcDbCircle
 10
286.5
 20
39.5
 30
0.0
 40
10.5
100
AcDbArc
 50
38.24662
 51
141.75338
  0
ARC
  5
4DB
330
18
100
AcDbEntity
  8
GUIDE
100
AcDbCircle
 10
269.0
 20
39.5
 30
0.0
 40
10.5
100
AcDbArc
 50
38.24662
 51
141.75338
  0
ARC
  5
4DC
330
18
100
AcDbEntity
  8
GUIDE
100
AcDbCircle
 10
251.5
 20
39.5
 30
0.0
 40
10.5
100
AcDbArc
 50
38.24662
 51
141.75338
  0
ARC
  5
4DD
330
18
100
AcDbEntity
  8
GUIDE
100
AcDbCircle
 10
234.0
 20
39.5
 30
0.0
 40
10.5
100
AcDbArc
 50
38.24662
 51
141.75338
  0
ARC
  5
4DE
330
18
100
AcDbEntity
  8
GUIDE
100
AcDbCircle
 10
216.5
 20
39.5
 30
0.0
 40
10.5
100
AcDbArc
 50
38.24662
 51
141.75338
  0
ARC
  5
4DF
330
18
100
AcDbEntity
  8
GUIDE
100
AcDbCircle
 10
199.0
 20
39.5
 30
0.0
 40
10.5
100
AcDbArc
 50
38.24662
 51
141.75338
  0
ARC
  5
4E0
330
18
100
AcDbEntity
  8
GUIDE
100
AcDbCircle
 10
181.5
 20
39.5
 30
0.0
 40
10.5
100
AcDbArc
 50
38.24662
 51
141.75338
  0
ARC
  5
4E1
330
18
100
AcDbEntity
  8
GUIDE
100
AcDbCircle
 10
164.0
 20
39.5
 30
0.0
 40
10.5
100
AcDbArc
 50
38.24662
 51
141.75338
  0
ARC
  5
4E2
330
18
100
AcDbEntity
  8
GUIDE
100
AcDbCircle
 10
146.5
 20
39.5
 30
0.0
 40
10.5
100
AcDbArc
 50
38.24662
 51
141.75338
  0
ARC
  5
4E3
330
18
100
AcDbEntity
  8
GUIDE
100
AcDbCircle
 10
129.0
 20
39.5
 30
0.0
 40
10.5
100
AcDbArc
 50
38.24662
 51
141.75338
  0
ARC
  5
4E4
330
18
100
AcDbEntity
  8
GUIDE
100
AcDbCircle
 10
111.5
 20
39.5
 30
0.0
 40
10.5
100
AcDbArc
 50
38.24662
 51
141.75338
  0
ARC
  5
4E5
330
18
100
AcDbEntity
  8
GUIDE
100
AcDbCircle
 10
94.0
 20
39.5
 30
0.0
 40
10.5
100
AcDbArc
 50
38.24662
 51
141.75338
  0
ARC
  5
4E6
330
18
100
AcDbEntity
  8
GUIDE
100
AcDbCircle
 10
76.5
 20
39.5
 30
0.0
 40
10.5
100
AcDbArc
 50
38.24662
 51
141.75338
  0
ARC
  5
4E7
330
18
100
AcDbEntity
  8
GUIDE
100
AcDbCircle
 10
59.0
 20
39.5
 30
0.0
 40
10.5
100
AcDbArc
 50
38.24662
 51
141.75338
  0
ARC
  5
4E8
330
18
100
AcDbEntity
  8
GUIDE
100
AcDbCircle
 10
41.5
 20
39.5
 30
0.0
 40
10.5
100
AcDbArc
 50
38.24662
 51
141.75338
  0
ARC
  5
4E9
330
18
100
AcDbEntity
  8
GUIDE
100
AcDbCircle
 10
24.0
 20
39.5
 30
0.0
 40
10.5
100
AcDbArc
 50
38.24662
 51
141.75338
  0
ARC
  5
4EA
330
18
100
AcDbEntity
  8
GUIDE
100
AcDbCircle
 10
6.5
 20
39.5
 30
0.0
 40
10.5
100
AcDbArc
 50
38.24662
 51
141.75338
  0
ARC
  5
4EB
330
18
100
AcDbEntity
  8
GUIDE
100
AcDbCircle
 10
-11.0
 20
39.5
 30
0.0
 40
10.5
100
AcDbArc
 50
38.24662
 51
141.75338
  0
ARC
  5
4EC
330
18
100
AcDbEntity
  8
GUIDE
100
AcDbCircle
 10
-28.5
 20
39.5
 30
0.0
 40
10.5
100
AcDbArc
 50
38.24662
 51
141.75338
  0
ARC
  5
4ED
330
18
100
AcDbEntity
  8
GUIDE
100
AcDbCircle
 10
-46.0
 20
39.5
 30
0.0
 40
10.5
100
AcDbArc
 50
38.24662
 51
141.75338
  0
ARC
  5
4EE
330
18
100
AcDbEntity
  8
GUIDE
100
AcDbCircle
 10
-63.5
 20
39.5
 30
0.0
 40
10.5
100
AcDbArc
 50
38.24662
 51
141.75338
  0
ARC
  5
4EF
330
18
100
AcDbEntity
  8
GUIDE
100
AcDbCircle
 10
-81.0
 20
39.5
 30
0.0
 40
10.5
100
AcDbArc
 50
38.24662
 51
141.75338
  0
ARC
  5
4F0
330
18
100
AcDbEntity
  8
GUIDE
100
AcDbCircle
 10
-98.5
 20
39.5
 30
0.0
 40
10.5
100
AcDbArc
 50
38.24662
 51
141.75338
  0
ARC
  5
4F1
330
18
100
AcDbEntity
  8
GUIDE
100
AcDbCircle
 10
-116.0
 20
39.5
 30
0.0
 40
10.5
100
AcDbArc
 50
38.24662
 51
141.75338
  0
ARC
  5
4F2
330
18
100
AcDbEntity
  8
GUIDE
100
AcDbCircle
 10
-133.5
 20
39.5
 30
0.0
 40
10.5
100
AcDbArc
 50
38.24662
 51
141.75338
  0
ARC
  5
4F3
330
18
100
AcDbEntity
  8
GUIDE
100
AcDbCircle
 10
-151.0
 20
39.5
 30
0.0
 40
10.5
100
AcDbArc
 50
38.24662
 51
141.75338
  0
ARC
  5
4F4
330
18
100
AcDbEntity
  8
GUIDE
100
AcDbCircle
 10
-168.5
 20
39.5
 30
0.0
 40
10.5
100
AcDbArc
 50
38.24662
 51
141.75338
  0
ARC
  5
4F5
330
18
100
AcDbEntity
  8
GUIDE
100
AcDbCircle
 10
-186.0
 20
39.5
 30
0.0
 40
10.5
100
AcDbArc
 50
38.24662
 51
141.75338
  0
ARC
  5
4F6
330
18
100
AcDbEntity
  8
GUIDE
100
AcDbCircle
 10
-203.5
 20
39.5
 30
0.0
 40
10.5
100
AcDbArc
 50
38.24662
 51
141.75338
  0
ARC
  5
4F7
330
18
100
AcDbEntity
  8
GUIDE
100
AcDbCircle
 10
-221.0
 20
39.5
 30
0.0
 40
10.5
100
AcDbArc
 50
38.24662
 51
141.75338
  0
ARC
  5
4F8
330
18
100
AcDbEntity
  8
GUIDE
100
AcDbCircle
 10
-238.5
 20
39.5
 30
0.0
 40
10.5
100
AcDbArc
 50
38.24662
 51
141.75338
  0
ARC
  5
4F9
330
18
100
AcDbEntity
  8
GUIDE
100
AcDbCircle
 10
-256.0
 20
39.5
 30
0.0
 40
10.5
100
AcDbArc
 50
38.24662
 51
141.75338
  0
ARC
  5
4FA
330
18
100
AcDbEntity
  8
GUIDE
100
AcDbCircle
 10
-273.5
 20
39.5
 30
0.0
 40
10.5
100
AcDbArc
 50
38.24662
 51
141.75338
  0
ARC
  5
4FB
330
18
100
AcDbEntity
  8
GUIDE
100
AcDbCircle
 10
-291.0
 20
39.5
 30
0.0
 40
10.5
100
AcDbArc
 50
38.24662
 51
141.75338
  0
ARC
  5
4FC
330
18
100
AcDbEntity
  8
GUIDE
100
AcDbCircle
 10
-308.5
 20
39.5
 30
0.0
 40
10.5
100
AcDbArc
 50
38.24662
 51
141.75338
  0
ARC
  5
4FD
330
18
100
AcDbEntity
  8
GUIDE
100
AcDbCircle
 10
-326.0
 20
39.5
 30
0.0
 40
10.5
100
AcDbArc
 50
38.24662
 51
141.75338
  0
ARC
  5
4FE
330
18
100
AcDbEntity
  8
GUIDE
100
AcDbCircle
 10
-343.5
 20
39.5
 30
0.0
 40
10.5
100
AcDbArc
 50
38.24662
 51
141.75338
  0
ARC
  5
4FF
330
18
100
AcDbEntity
  8
GUIDE
100
AcDbCircle
 10
-361.0
 20
39.5
 30
0.0
 40
10.5
100
AcDbArc
 50
38.24662
 51
141.75338
  0
ARC
  5
500
330
18
100
AcDbEntity
  8
GUIDE
100
AcDbCircle
 10
-378.5
 20
39.5
 30
0.0
 40
10.5
100
AcDbArc
 50
38.24662
 51
141.75338
  0
ARC
  5
501
330
18
100
AcDbEntity
  8
GUIDE
100
AcDbCircle
 10
-396.0
 20
39.5
 30
0.0
 40
10.5
100
AcDbArc
 50
38.24662
 51
141.75338
  0
ARC
  5
502
330
18
100
AcDbEntity
  8
GUIDE
100
AcDbCircle
 10
-413.5
 20
39.5
 30
0.0
 40
10.5
100
AcDbArc
 50
38.24662
 51
141.75338
  0
ARC
  5
503
330
18
100
AcDbEntity
  8
GUIDE
100
AcDbCircle
 10
-431.0
 20
39.5
 30
0.0
 40
10.5
100
AcDbArc
 50
38.24662
 51
141.75338
  0
ARC
  5
504
330
18
100
AcDbEntity
  8
GUIDE
100
AcDbCircle
 10
-448.5
 20
39.5
 30
0.0
 40
10.5
100
AcDbArc
 50
38.24662
 51
141.75338
  0
ARC
  5
505
330
18
100
AcDbEntity
  8
GUIDE
100
AcDbCircle
 10
-466.0
 20
39.5
 30
0.0
 40
10.5
100
AcDbArc
 50
38.24662
 51
141.75338
  0
ARC
  5
506
330
18
100
AcDbEntity
  8
GUIDE
100
AcDbCircle
 10
-483.5
 20
39.5
 30
0.0
 40
10.5
100
AcDbArc
 50
38.24662
 51
141.75338
  0
ARC
  5
507
330
18
100
AcDbEntity
  8
GUIDE
100
AcDbCircle
 10
-501.0
 20
39.5
 30
0.0
 40
10.5
100
AcDbArc
 50
38.24662
 51
141.75338
  0
ARC
  5
508
330
18
100
AcDbEntity
  8
GUIDE
100
AcDbCircle
 10
-518.5
 20
39.5
 30
0.0
 40
10.5
100
AcDbArc
 50
38.24662
 51
141.75338
  0
ARC
  5
509
330
18
100
AcDbEntity
  8
GUIDE
100
AcDbCircle
 10
-536.0
 20
39.5
 30
0.0
 40
10.5
100
AcDbArc
 50
38.24662
 51
141.75338
  0
ARC
  5
50A
330
18
100
AcDbEntity
  8
GUIDE
100
AcDbCircle
 10
-553.5
 20
39.5
 30
0.0
 40
10.5
100
AcDbArc
 50
38.24662
 51
141.75338
  0
ARC
  5
50B
330
18
100
AcDbEntity
  8
GUIDE
100
AcDbCircle
 10
-571.0
 20
39.5
 30
0.0
 40
10.5
100
AcDbArc
 50
38.24662
 51
141.75338
  0
LINE
  5
50C
330
18
100
AcDbEntity
  8
GUIDE
100
AcDbLine
 10
483.0
 20
15.5
 30
0.0
 11
483.0
 21
46.0
 31
0.0
  0
LINE
  5
50D
330
18
100
AcDbEntity
  8
GUIDE
100
AcDbLine
 10
483.0
 20
46.0
 30
0.0
 11
483.0
 21
15.5
 31
0.0
  0
ARC
  5
50E
330
18
100
AcDbEntity
  8
GUIDE
100
AcDbCircle
 10
-606.0
 20
39.5
 30
0.0
 40
10.5
100
AcDbArc
 50
38.24662
 51
141.75338
  0
ARC
  5
50F
330
18
100
AcDbEntity
  8
GUIDE
100
AcDbCircle
 10
-588.5
 20
39.5
 30
0.0
 40
10.5
100
AcDbArc
 50
38.24662
 51
141.75338
  0
ARC
  5
510
330
18
100
AcDbEntity
  8
GUIDE
100
AcDbCircle
 10
-641.0
 20
39.5
 30
0.0
 40
10.5
100
AcDbArc
 50
38.24662
 51
141.75338
  0
ARC
  5
511
330
18
100
AcDbEntity
  8
GUIDE
100
AcDbCircle
 10
-623.5
 20
39.5
 30
0.0
 40
10.5
100
AcDbArc
 50
38.24662
 51
141.75338
  0
ARC
  5
512
330
18
100
AcDbEntity
  8
GUIDE
100
AcDbCircle
 10
-676.0
 20
39.5
 30
0.0
 40
10.5
100
AcDbArc
 50
38.24662
 51
141.75338
  0
ARC
  5
513
330
18
100
AcDbEntity
  8
GUIDE
100
AcDbCircle
 10
-658.5
 20
39.5
 30
0.0
 40
10.5
100
AcDbArc
 50
38.24662
 51
141.75338
  0
ARC
  5
514
330
18
100
AcDbEntity
  8
GUIDE
100
AcDbCircle
 10
-711.0
 20
39.5
 30
0.0
 40
10.5
100
AcDbArc
 50
38.24662
 51
141.75338
  0
ARC
  5
515
330
18
100
AcDbEntity
  8
GUIDE
100
AcDbCircle
 10
-693.5
 20
39.5
 30
0.0
 40
10.5
100
AcDbArc
 50
38.24662
 51
141.75338
  0
ARC
  5
516
330
18
100
AcDbEntity
  8
GUIDE
100
AcDbCircle
 10
-746.0
 20
39.5
 30
0.0
 40
10.5
100
AcDbArc
 50
38.24662
 51
141.75338
  0
ARC
  5
517
330
18
100
AcDbEntity
  8
GUIDE
100
AcDbCircle
 10
-728.5
 20
39.5
 30
0.0
 40
10.5
100
AcDbArc
 50
38.24662
 51
141.75338
  0
ARC
  5
518
330
18
100
AcDbEntity
  8
GUIDE
100
AcDbCircle
 10
-781.0
 20
39.5
 30
0.0
 40
10.5
100
AcDbArc
 50
38.24662
 51
141.75338
  0
ARC
  5
519
330
18
100
AcDbEntity
  8
GUIDE
100
AcDbCircle
 10
-763.5
 20
39.5
 30
0.0
 40
10.5
100
AcDbArc
 50
38.24662
 51
141.75338
  0
ARC
  5
51A
330
18
100
AcDbEntity
  8
GUIDE
100
AcDbCircle
 10
-816.0
 20
39.5
 30
0.0
 40
10.5
100
AcDbArc
 50
38.24662
 51
141.75338
  0
ARC
  5
51B
330
18
100
AcDbEntity
  8
GUIDE
100
AcDbCircle
 10
-798.5
 20
39.5
 30
0.0
 40
10.5
100
AcDbArc
 50
38.24662
 51
141.75338
  0
ARC
  5
51C
330
18
100
AcDbEntity
  8
GUIDE
100
AcDbCircle
 10
-851.0
 20
39.5
 30
0.0
 40
10.5
100
AcDbArc
 50
38.24662
 51
141.75338
  0
ARC
  5
51D
330
18
100
AcDbEntity
  8
GUIDE
100
AcDbCircle
 10
-833.5
 20
39.5
 30
0.0
 40
10.5
100
AcDbArc
 50
38.24662
 51
141.75338
  0
ARC
  5
51E
330
18
100
AcDbEntity
  8
GUIDE
100
AcDbCircle
 10
-886.0
 20
39.5
 30
0.0
 40
10.5
100
AcDbArc
 50
38.24662
 51
141.75338
  0
ARC
  5
51F
330
18
100
AcDbEntity
  8
GUIDE
100
AcDbCircle
 10
-868.5
 20
39.5
 30
0.0
 40
10.5
100
AcDbArc
 50
38.24662
 51
141.75338
  0
ARC
  5
520
330
18
100
AcDbEntity
  8
GUIDE
100
AcDbCircle
 10
-921.0
 20
39.5
 30
0.0
 40
10.5
100
AcDbArc
 50
38.24662
 51
141.75338
  0
ARC
  5
521
330
18
100
AcDbEntity
  8
GUIDE
100
AcDbCircle
 10
-903.5
 20
39.5
 30
0.0
 40
10.5
100
AcDbArc
 50
38.24662
 51
141.75338
  0
ARC
  5
522
330
18
100
AcDbEntity
  8
GUIDE
100
AcDbCircle
 10
-956.0
 20
39.5
 30
0.0
 40
10.5
100
AcDbArc
 50
38.24662
 51
141.75338
  0
ARC
  5
523
330
18
100
AcDbEntity
  8
GUIDE
100
AcDbCircle
 10
-938.5
 20
39.5
 30
0.0
 40
10.5
100
AcDbArc
 50
38.24662
 51
141.75338
  0
ARC
  5
524
330
18
100
AcDbEntity
  8
GUIDE
100
AcDbCircle
 10
-991.0
 20
39.5
 30
0.0
 40
10.5
100
AcDbArc
 50
38.24662
 51
141.75338
  0
ARC
  5
525
330
18
100
AcDbEntity
  8
GUIDE
100
AcDbCircle
 10
-973.5
 20
39.5
 30
0.0
 40
10.5
100
AcDbArc
 50
38.24662
 51
141.75338
  0
ARC
  5
526
330
18
100
AcDbEntity
  8
GUIDE
100
AcDbCircle
 10
-1026.0
 20
39.5
 30
0.0
 40
10.5
100
AcDbArc
 50
38.24662
 51
141.75338
  0
ARC
  5
527
330
18
100
AcDbEntity
  8
GUIDE
100
AcDbCircle
 10
-1008.5
 20
39.5
 30
0.0
 40
10.5
100
AcDbArc
 50
38.24662
 51
141.75338
  0
ARC
  5
528
330
18
100
AcDbEntity
  8
GUIDE
100
AcDbCircle
 10
-1061.0
 20
39.5
 30
0.0
 40
10.5
100
AcDbArc
 50
38.24662
 51
141.75338
  0
ARC
  5
529
330
18
100
AcDbEntity
  8
GUIDE
100
AcDbCircle
 10
-1043.5
 20
39.5
 30
0.0
 40
10.5
100
AcDbArc
 50
38.24662
 51
141.75338
  0
ARC
  5
52A
330
18
100
AcDbEntity
  8
GUIDE
100
AcDbCircle
 10
-1096.0
 20
39.5
 30
0.0
 40
10.5
100
AcDbArc
 50
38.24662
 51
141.75338
  0
ARC
  5
52B
330
18
100
AcDbEntity
  8
GUIDE
100
AcDbCircle
 10
-1078.5
 20
39.5
 30
0.0
 40
10.5
100
AcDbArc
 50
38.24662
 51
141.75338
  0
ARC
  5
52C
330
18
100
AcDbEntity
  8
GUIDE
100
AcDbCircle
 10
-1131.0
 20
39.5
 30
0.0
 40
10.5
100
AcDbArc
 50
38.24662
 51
141.75338
  0
ARC
  5
52D
330
18
100
AcDbEntity
  8
GUIDE
100
AcDbCircle
 10
-1113.5
 20
39.5
 30
0.0
 40
10.5
100
AcDbArc
 50
38.24662
 51
141.75338
  0
ARC
  5
52E
330
18
100
AcDbEntity
  8
GUIDE
100
AcDbCircle
 10
-1166.0
 20
39.5
 30
0.0
 40
10.5
100
AcDbArc
 50
38.24662
 51
141.75338
  0
ARC
  5
52F
330
18
100
AcDbEntity
  8
GUIDE
100
AcDbCircle
 10
-1148.5
 20
39.5
 30
0.0
 40
10.5
100
AcDbArc
 50
38.24662
 51
141.75338
  0
ARC
  5
530
330
18
100
AcDbEntity
  8
GUIDE
100
AcDbCircle
 10
-1201.0
 20
39.5
 30
0.0
 40
10.5
100
AcDbArc
 50
38.24662
 51
141.75338
  0
ARC
  5
531
330
18
100
AcDbEntity
  8
GUIDE
100
AcDbCircle
 10
-1183.5
 20
39.5
 30
0.0
 40
10.5
100
AcDbArc
 50
38.24662
 51
141.75338
  0
ARC
  5
532
330
18
100
AcDbEntity
  8
GUIDE
100
AcDbCircle
 10
-1236.0
 20
39.5
 30
0.0
 40
10.5
100
AcDbArc
 50
38.24662
 51
141.75338
  0
ARC
  5
533
330
18
100
AcDbEntity
  8
GUIDE
100
AcDbCircle
 10
-1218.5
 20
39.5
 30
0.0
 40
10.5
100
AcDbArc
 50
38.24662
 51
141.75338
  0
ARC
  5
534
330
18
100
AcDbEntity
  8
GUIDE
100
AcDbCircle
 10
-1271.0
 20
39.5
 30
0.0
 40
10.5
100
AcDbArc
 50
38.24662
 51
141.75338
  0
ARC
  5
535
330
18
100
AcDbEntity
  8
GUIDE
100
AcDbCircle
 10
-1253.5
 20
39.5
 30
0.0
 40
10.5
100
AcDbArc
 50
38.24662
 51
141.75338
  0
ARC
  5
536
330
18
100
AcDbEntity
  8
GUIDE
100
AcDbCircle
 10
-1306.0
 20
39.5
 30
0.0
 40
10.5
100
AcDbArc
 50
38.24662
 51
141.75338
  0
ARC
  5
537
330
18
100
AcDbEntity
  8
GUIDE
100
AcDbCircle
 10
-1288.5
 20
39.5
 30
0.0
 40
10.5
100
AcDbArc
 50
38.24662
 51
141.75338
  0
ARC
  5
538
330
18
100
AcDbEntity
  8
GUIDE
100
AcDbCircle
 10
-1341.0
 20
39.5
 30
0.0
 40
10.5
100
AcDbArc
 50
38.24662
 51
141.75338
  0
ARC
  5
539
330
18
100
AcDbEntity
  8
GUIDE
100
AcDbCircle
 10
-1323.5
 20
39.5
 30
0.0
 40
10.5
100
AcDbArc
 50
38.24662
 51
141.75338
  0
ARC
  5
53A
330
18
100
AcDbEntity
  8
GUIDE
100
AcDbCircle
 10
-1376.0
 20
39.5
 30
0.0
 40
10.5
100
AcDbArc
 50
38.24662
 51
141.75338
  0
ARC
  5
53B
330
18
100
AcDbEntity
  8
GUIDE
100
AcDbCircle
 10
-1358.5
 20
39.5
 30
0.0
 40
10.5
100
AcDbArc
 50
38.24662
 51
141.75338
  0
ARC
  5
53C
330
18
100
AcDbEntity
  8
GUIDE
100
AcDbCircle
 10
-1411.0
 20
39.5
 30
0.0
 40
10.5
100
AcDbArc
 50
38.24662
 51
141.75338
  0
ARC
  5
53D
330
18
100
AcDbEntity
  8
GUIDE
100
AcDbCircle
 10
-1393.5
 20
39.5
 30
0.0
 40
10.5
100
AcDbArc
 50
38.24662
 51
141.75338
  0
ARC
  5
53E
330
18
100
AcDbEntity
  8
GUIDE
100
AcDbCircle
 10
-1446.0
 20
39.5
 30
0.0
 40
10.5
100
AcDbArc
 50
38.24662
 51
141.75338
  0
ARC
  5
53F
330
18
100
AcDbEntity
  8
GUIDE
100
AcDbCircle
 10
-1428.5
 20
39.5
 30
0.0
 40
10.5
100
AcDbArc
 50
38.24662
 51
141.75338
  0
ARC
  5
540
330
18
100
AcDbEntity
  8
GUIDE
100
AcDbCircle
 10
-1481.0
 20
39.5
 30
0.0
 40
10.5
100
AcDbArc
 50
38.24662
 51
141.75338
  0
ARC
  5
541
330
18
100
AcDbEntity
  8
GUIDE
100
AcDbCircle
 10
-1463.5
 20
39.5
 30
0.0
 40
10.5
100
AcDbArc
 50
38.24662
 51
141.75338
  0
ARC
  5
542
330
18
100
AcDbEntity
  8
GUIDE
100
AcDbCircle
 10
-1516.0
 20
39.5
 30
0.0
 40
10.5
100
AcDbArc
 50
38.24662
 51
141.75338
  0
ARC
  5
543
330
18
100
AcDbEntity
  8
GUIDE
100
AcDbCircle
 10
-1498.5
 20
39.5
 30
0.0
 40
10.5
100
AcDbArc
 50
38.24662
 51
141.75338
  0
ARC
  5
544
330
18
100
AcDbEntity
  8
GUIDE
100
AcDbCircle
 10
-1551.0
 20
39.5
 30
0.0
 40
10.5
100
AcDbArc
 50
38.24662
 51
141.75338
  0
ARC
  5
545
330
18
100
AcDbEntity
  8
GUIDE
100
AcDbCircle
 10
-1533.5
 20
39.5
 30
0.0
 40
10.5
100
AcDbArc
 50
38.24662
 51
141.75338
  0
LINE
  5
546
330
18
100
AcDbEntity
  8
GUIDE
100
AcDbLine
 10
-1610.0
 20
15.5
 30
0.0
 11
483.0
 21
15.5
 31
0.0
  0
LINE
  5
547
330
18
100
AcDbEntity
  8
GUIDE
100
AcDbLine
 10
-1610.0
 20
25.5
 30
0.0
 11
483.0
 21
25.5
 31
0.0
  0
LINE
  5
548
330
18
100
AcDbEntity
  8
GUIDE
100
AcDbLine
 10
-1610.0
 20
46.0
 30
0.0
 11
483.0
 21
46.0
 31
0.0
  0
ARC
  5
549
330
18
100
AcDbEntity
  8
GUIDE
100
AcDbCircle
 10
-1568.5
 20
39.5
 30
0.0
 40
10.5
100
AcDbArc
 50
38.24662
 51
141.75338
  0
ARC
  5
54A
330
18
100
AcDbEntity
  8
GUIDE
100
AcDbCircle
 10
-1586.0
 20
39.5
 30
0.0
 40
10.5
100
AcDbArc
 50
38.24662
 51
141.75338
  0
ARC
  5
54B
330
18
100
AcDbEntity
  8
GUIDE
100
AcDbCircle
 10
-1603.5
 20
39.5
 30
0.0
 40
10.5
100
AcDbArc
 50
38.24662
 51
231.75338
  0
LINE
  5
54C
330
18
100
AcDbEntity
  8
GUIDE
100
AcDbLine
 10
-1610.0
 20
15.5
 30
0.0
 11
-1610.0
 21
46.0
 31
0.0
  0
LINE
  5
54D
330
18
100
AcDbEntity
  8
GUIDE
100
AcDbLine
 10
483.0
 20
-55.78
 30
0.0
 11
483.0
 21
-80.5
 31
0.0
  0
LINE
  5
54E
330
18
100
AcDbEntity
  8
GUIDE
100
AcDbLine
 10
451.0
 20
-67.09999999999999
 30
0.0
 11
451.0
 21
-59.58
 31
0.0
  0
LINE
  5
54F
330
18
100
AcDbEntity
  8
GUIDE
100
AcDbLine
 10
472.0
 20
-59.58
 30
0.0
 11
451.0
 21
-59.58
 31
0.0
  0
LINE
  5
550
330
18
100
AcDbEntity
  8
GUIDE
100
AcDbLine
 10
472.0
 20
-67.09999999999999
 30
0.0
 11
451.0
 21
-67.09999999999999
 31
0.0
  0
LINE
  5
551
330
18
100
AcDbEntity
  8
GUIDE
100
AcDbLine
 10
489.5
 20
-48.26
 30
0.0
 11
489.5
 21
-55.78
 31
0.0
  0
LINE
  5
552
330
18
100
AcDbEntity
  8
GUIDE
100
AcDbLine
 10
468.5
 20
-48.26
 30
0.0
 11
468.5
 21
-55.78
 31
0.0
  0
LINE
  5
553
330
18
100
AcDbEntity
  8
GUIDE
100
AcDbLine
 10
489.5
 20
-48.26
 30
0.0
 11
468.5
 21
-48.26
 31
0.0
  0
LINE
  5
554
330
18
100
AcDbEntity
  8
GUIDE
100
AcDbLine
 10
489.5
 20
-55.78
 30
0.0
 11
468.5
 21
-55.78
 31
0.0
  0
LINE
  5
555
330
18
100
AcDbEntity
  8
GUIDE
100
AcDbLine
 10
482.0
 20
-70.5
 30
0.0
 11
482.0
 21
-55.78
 31
0.0
  0
LINE
  5
556
330
18
100
AcDbEntity
  8
GUIDE
100
AcDbLine
 10
476.0
 20
-70.5
 30
0.0
 11
476.0
 21
-55.78
 31
0.0
  0
LINE
  5
557
330
18
100
AcDbEntity
  8
GUIDE
100
AcDbLine
 10
476.0
 20
-48.26
 30
0.0
 11
476.0
 21
-44.5
 31
0.0
  0
LINE
  5
558
330
18
100
AcDbEntity
  8
GUIDE
100
AcDbLine
 10
482.0
 20
-48.26
 30
0.0
 11
482.0
 21
-44.5
 31
0.0
  0
LINE
  5
559
330
18
100
AcDbEntity
  8
GUIDE
100
AcDbLine
 10
464.5
 20
-67.09999999999999
 30
0.0
 11
464.5
 21
-70.5
 31
0.0
  0
LINE
  5
55A
330
18
100
AcDbEntity
  8
GUIDE
100
AcDbLine
 10
458.5
 20
-67.09999999999999
 30
0.0
 11
458.5
 21
-70.5
 31
0.0
  0
LINE
  5
55B
330
18
100
AcDbEntity
  8
GUIDE
100
AcDbLine
 10
472.0
 20
-67.09999999999999
 30
0.0
 11
472.0
 21
-59.58
 31
0.0
  0
LINE
  5
55C
330
18
100
AcDbEntity
  8
GUIDE
100
AcDbLine
 10
458.5
 20
-44.5
 30
0.0
 11
458.5
 21
-59.58
 31
0.0
  0
LINE
  5
55D
330
18
100
AcDbEntity
  8
GUIDE
100
AcDbLine
 10
464.5
 20
-44.5
 30
0.0
 11
464.5
 21
-59.58
 31
0.0
  0
LINE
  5
55E
330
18
100
AcDbEntity
  8
GUIDE
100
AcDbLine
 10
416.0
 20
-67.09999999999999
 30
0.0
 11
416.0
 21
-59.58
 31
0.0
  0
LINE
  5
55F
330
18
100
AcDbEntity
  8
GUIDE
100
AcDbLine
 10
437.0
 20
-59.58
 30
0.0
 11
416.0
 21
-59.58
 31
0.0
  0
LINE
  5
560
330
18
100
AcDbEntity
  8
GUIDE
100
AcDbLine
 10
437.0
 20
-67.09999999999999
 30
0.0
 11
416.0
 21
-67.09999999999999
 31
0.0
  0
LINE
  5
561
330
18
100
AcDbEntity
  8
GUIDE
100
AcDbLine
 10
454.5
 20
-48.26
 30
0.0
 11
454.5
 21
-55.78
 31
0.0
  0
LINE
  5
562
330
18
100
AcDbEntity
  8
GUIDE
100
AcDbLine
 10
433.5
 20
-48.26
 30
0.0
 11
433.5
 21
-55.78
 31
0.0
  0
LINE
  5
563
330
18
100
AcDbEntity
  8
GUIDE
100
AcDbLine
 10
454.5
 20
-48.26
 30
0.0
 11
433.5
 21
-48.26
 31
0.0
  0
LINE
  5
564
330
18
100
AcDbEntity
  8
GUIDE
100
AcDbLine
 10
454.5
 20
-55.78
 30
0.0
 11
433.5
 21
-55.78
 31
0.0
  0
LINE
  5
565
330
18
100
AcDbEntity
  8
GUIDE
100
AcDbLine
 10
447.0
 20
-70.5
 30
0.0
 11
447.0
 21
-55.78
 31
0.0
  0
LINE
  5
566
330
18
100
AcDbEntity
  8
GUIDE
100
AcDbLine
 10
441.0
 20
-70.5
 30
0.0
 11
441.0
 21
-55.78
 31
0.0
  0
LINE
  5
567
330
18
100
AcDbEntity
  8
GUIDE
100
AcDbLine
 10
441.0
 20
-48.26
 30
0.0
 11
441.0
 21
-44.5
 31
0.0
  0
LINE
  5
568
330
18
100
AcDbEntity
  8
GUIDE
100
AcDbLine
 10
447.0
 20
-48.26
 30
0.0
 11
447.0
 21
-44.5
 31
0.0
  0
LINE
  5
569
330
18
100
AcDbEntity
  8
GUIDE
100
AcDbLine
 10
429.5
 20
-67.09999999999999
 30
0.0
 11
429.5
 21
-70.5
 31
0.0
  0
LINE
  5
56A
330
18
100
AcDbEntity
  8
GUIDE
100
AcDbLine
 10
423.5
 20
-67.09999999999999
 30
0.0
 11
423.5
 21
-70.5
 31
0.0
  0
LINE
  5
56B
330
18
100
AcDbEntity
  8
GUIDE
100
AcDbLine
 10
437.0
 20
-67.09999999999999
 30
0.0
 11
437.0
 21
-59.58
 31
0.0
  0
LINE
  5
56C
330
18
100
AcDbEntity
  8
GUIDE
100
AcDbLine
 10
423.5
 20
-44.5
 30
0.0
 11
423.5
 21
-59.58
 31
0.0
  0
LINE
  5
56D
330
18
100
AcDbEntity
  8
GUIDE
100
AcDbLine
 10
429.5
 20
-44.5
 30
0.0
 11
429.5
 21
-59.58
 31
0.0
  0
LINE
  5
56E
330
18
100
AcDbEntity
  8
GUIDE
100
AcDbLine
 10
381.0
 20
-67.09999999999999
 30
0.0
 11
381.0
 21
-59.58
 31
0.0
  0
LINE
  5
56F
330
18
100
AcDbEntity
  8
GUIDE
100
AcDbLine
 10
402.0
 20
-59.58
 30
0.0
 11
381.0
 21
-59.58
 31
0.0
  0
LINE
  5
570
330
18
100
AcDbEntity
  8
GUIDE
100
AcDbLine
 10
402.0
 20
-67.09999999999999
 30
0.0
 11
381.0
 21
-67.09999999999999
 31
0.0
  0
LINE
  5
571
330
18
100
AcDbEntity
  8
GUIDE
100
AcDbLine
 10
419.5
 20
-48.26
 30
0.0
 11
419.5
 21
-55.78
 31
0.0
  0
LINE
  5
572
330
18
100
AcDbEntity
  8
GUIDE
100
AcDbLine
 10
398.5
 20
-48.26
 30
0.0
 11
398.5
 21
-55.78
 31
0.0
  0
LINE
  5
573
330
18
100
AcDbEntity
  8
GUIDE
100
AcDbLine
 10
419.5
 20
-48.26
 30
0.0
 11
398.5
 21
-48.26
 31
0.0
  0
LINE
  5
574
330
18
100
AcDbEntity
  8
GUIDE
100
AcDbLine
 10
419.5
 20
-55.78
 30
0.0
 11
398.5
 21
-55.78
 31
0.0
  0
LINE
  5
575
330
18
100
AcDbEntity
  8
GUIDE
100
AcDbLine
 10
412.0
 20
-70.5
 30
0.0
 11
412.0
 21
-55.78
 31
0.0
  0
LINE
  5
576
330
18
100
AcDbEntity
  8
GUIDE
100
AcDbLine
 10
406.0
 20
-70.5
 30
0.0
 11
406.0
 21
-55.78
 31
0.0
  0
LINE
  5
577
330
18
100
AcDbEntity
  8
GUIDE
100
AcDbLine
 10
406.0
 20
-48.26
 30
0.0
 11
406.0
 21
-44.5
 31
0.0
  0
LINE
  5
578
330
18
100
AcDbEntity
  8
GUIDE
100
AcDbLine
 10
412.0
 20
-48.26
 30
0.0
 11
412.0
 21
-44.5
 31
0.0
  0
LINE
  5
579
330
18
100
AcDbEntity
  8
GUIDE
100
AcDbLine
 10
394.5
 20
-67.09999999999999
 30
0.0
 11
394.5
 21
-70.5
 31
0.0
  0
LINE
  5
57A
330
18
100
AcDbEntity
  8
GUIDE
100
AcDbLine
 10
388.5
 20
-67.09999999999999
 30
0.0
 11
388.5
 21
-70.5
 31
0.0
  0
LINE
  5
57B
330
18
100
AcDbEntity
  8
GUIDE
100
AcDbLine
 10
402.0
 20
-67.09999999999999
 30
0.0
 11
402.0
 21
-59.58
 31
0.0
  0
LINE
  5
57C
330
18
100
AcDbEntity
  8
GUIDE
100
AcDbLine
 10
388.5
 20
-44.5
 30
0.0
 11
388.5
 21
-59.58
 31
0.0
  0
LINE
  5
57D
330
18
100
AcDbEntity
  8
GUIDE
100
AcDbLine
 10
394.5
 20
-44.5
 30
0.0
 11
394.5
 21
-59.58
 31
0.0
  0
LINE
  5
57E
330
18
100
AcDbEntity
  8
GUIDE
100
AcDbLine
 10
346.0
 20
-67.09999999999999
 30
0.0
 11
346.0
 21
-59.58
 31
0.0
  0
LINE
  5
57F
330
18
100
AcDbEntity
  8
GUIDE
100
AcDbLine
 10
367.0
 20
-59.58
 30
0.0
 11
346.0
 21
-59.58
 31
0.0
  0
LINE
  5
580
330
18
100
AcDbEntity
  8
GUIDE
100
AcDbLine
 10
367.0
 20
-67.09999999999999
 30
0.0
 11
346.0
 21
-67.09999999999999
 31
0.0
  0
LINE
  5
581
330
18
100
AcDbEntity
  8
GUIDE
100
AcDbLine
 10
384.5
 20
-48.26
 30
0.0
 11
384.5
 21
-55.78
 31
0.0
  0
LINE
  5
582
330
18
100
AcDbEntity
  8
GUIDE
100
AcDbLine
 10
363.5
 20
-48.26
 30
0.0
 11
363.5
 21
-55.78
 31
0.0
  0
LINE
  5
583
330
18
100
AcDbEntity
  8
GUIDE
100
AcDbLine
 10
384.5
 20
-48.26
 30
0.0
 11
363.5
 21
-48.26
 31
0.0
  0
LINE
  5
584
330
18
100
AcDbEntity
  8
GUIDE
100
AcDbLine
 10
384.5
 20
-55.78
 30
0.0
 11
363.5
 21
-55.78
 31
0.0
  0
LINE
  5
585
330
18
100
AcDbEntity
  8
GUIDE
100
AcDbLine
 10
377.0
 20
-70.5
 30
0.0
 11
377.0
 21
-55.78
 31
0.0
  0
LINE
  5
586
330
18
100
AcDbEntity
  8
GUIDE
100
AcDbLine
 10
371.0
 20
-70.5
 30
0.0
 11
371.0
 21
-55.78
 31
0.0
  0
LINE
  5
587
330
18
100
AcDbEntity
  8
GUIDE
100
AcDbLine
 10
371.0
 20
-48.26
 30
0.0
 11
371.0
 21
-44.5
 31
0.0
  0
LINE
  5
588
330
18
100
AcDbEntity
  8
GUIDE
100
AcDbLine
 10
377.0
 20
-48.26
 30
0.0
 11
377.0
 21
-44.5
 31
0.0
  0
LINE
  5
589
330
18
100
AcDbEntity
  8
GUIDE
100
AcDbLine
 10
359.5
 20
-67.09999999999999
 30
0.0
 11
359.5
 21
-70.5
 31
0.0
  0
LINE
  5
58A
330
18
100
AcDbEntity
  8
GUIDE
100
AcDbLine
 10
353.5
 20
-67.09999999999999
 30
0.0
 11
353.5
 21
-70.5
 31
0.0
  0
LINE
  5
58B
330
18
100
AcDbEntity
  8
GUIDE
100
AcDbLine
 10
367.0
 20
-67.09999999999999
 30
0.0
 11
367.0
 21
-59.58
 31
0.0
  0
LINE
  5
58C
330
18
100
AcDbEntity
  8
GUIDE
100
AcDbLine
 10
353.5
 20
-44.5
 30
0.0
 11
353.5
 21
-59.58
 31
0.0
  0
LINE
  5
58D
330
18
100
AcDbEntity
  8
GUIDE
100
AcDbLine
 10
359.5
 20
-44.5
 30
0.0
 11
359.5
 21
-59.58
 31
0.0
  0
LINE
  5
58E
330
18
100
AcDbEntity
  8
GUIDE
100
AcDbLine
 10
311.0
 20
-67.09999999999999
 30
0.0
 11
311.0
 21
-59.58
 31
0.0
  0
LINE
  5
58F
330
18
100
AcDbEntity
  8
GUIDE
100
AcDbLine
 10
332.0
 20
-59.58
 30
0.0
 11
311.0
 21
-59.58
 31
0.0
  0
LINE
  5
590
330
18
100
AcDbEntity
  8
GUIDE
100
AcDbLine
 10
332.0
 20
-67.09999999999999
 30
0.0
 11
311.0
 21
-67.09999999999999
 31
0.0
  0
LINE
  5
591
330
18
100
AcDbEntity
  8
GUIDE
100
AcDbLine
 10
349.5
 20
-48.26
 30
0.0
 11
349.5
 21
-55.78
 31
0.0
  0
LINE
  5
592
330
18
100
AcDbEntity
  8
GUIDE
100
AcDbLine
 10
328.5
 20
-48.26
 30
0.0
 11
328.5
 21
-55.78
 31
0.0
  0
LINE
  5
593
330
18
100
AcDbEntity
  8
GUIDE
100
AcDbLine
 10
349.5
 20
-48.26
 30
0.0
 11
328.5
 21
-48.26
 31
0.0
  0
LINE
  5
594
330
18
100
AcDbEntity
  8
GUIDE
100
AcDbLine
 10
349.5
 20
-55.78
 30
0.0
 11
328.5
 21
-55.78
 31
0.0
  0
LINE
  5
595
330
18
100
AcDbEntity
  8
GUIDE
100
AcDbLine
 10
342.0
 20
-70.5
 30
0.0
 11
342.0
 21
-55.78
 31
0.0
  0
LINE
  5
596
330
18
100
AcDbEntity
  8
GUIDE
100
AcDbLine
 10
336.0
 20
-70.5
 30
0.0
 11
336.0
 21
-55.78
 31
0.0
  0
LINE
  5
597
330
18
100
AcDbEntity
  8
GUIDE
100
AcDbLine
 10
336.0
 20
-48.26
 30
0.0
 11
336.0
 21
-44.5
 31
0.0
  0
LINE
  5
598
330
18
100
AcDbEntity
  8
GUIDE
100
AcDbLine
 10
342.0
 20
-48.26
 30
0.0
 11
342.0
 21
-44.5
 31
0.0
  0
LINE
  5
599
330
18
100
AcDbEntity
  8
GUIDE
100
AcDbLine
 10
324.5
 20
-67.09999999999999
 30
0.0
 11
324.5
 21
-70.5
 31
0.0
  0
LINE
  5
59A
330
18
100
AcDbEntity
  8
GUIDE
100
AcDbLine
 10
318.5
 20
-67.09999999999999
 30
0.0
 11
318.5
 21
-70.5
 31
0.0
  0
LINE
  5
59B
330
18
100
AcDbEntity
  8
GUIDE
100
AcDbLine
 10
332.0
 20
-67.09999999999999
 30
0.0
 11
332.0
 21
-59.58
 31
0.0
  0
LINE
  5
59C
330
18
100
AcDbEntity
  8
GUIDE
100
AcDbLine
 10
318.5
 20
-44.5
 30
0.0
 11
318.5
 21
-59.58
 31
0.0
  0
LINE
  5
59D
330
18
100
AcDbEntity
  8
GUIDE
100
AcDbLine
 10
324.5
 20
-44.5
 30
0.0
 11
324.5
 21
-59.58
 31
0.0
  0
LINE
  5
59E
330
18
100
AcDbEntity
  8
GUIDE
100
AcDbLine
 10
276.0
 20
-67.09999999999999
 30
0.0
 11
276.0
 21
-59.58
 31
0.0
  0
LINE
  5
59F
330
18
100
AcDbEntity
  8
GUIDE
100
AcDbLine
 10
297.0
 20
-59.58
 30
0.0
 11
276.0
 21
-59.58
 31
0.0
  0
LINE
  5
5A0
330
18
100
AcDbEntity
  8
GUIDE
100
AcDbLine
 10
297.0
 20
-67.09999999999999
 30
0.0
 11
276.0
 21
-67.09999999999999
 31
0.0
  0
LINE
  5
5A1
330
18
100
AcDbEntity
  8
GUIDE
100
AcDbLine
 10
314.5
 20
-48.26
 30
0.0
 11
314.5
 21
-55.78
 31
0.0
  0
LINE
  5
5A2
330
18
100
AcDbEntity
  8
GUIDE
100
AcDbLine
 10
293.5
 20
-48.26
 30
0.0
 11
293.5
 21
-55.78
 31
0.0
  0
LINE
  5
5A3
330
18
100
AcDbEntity
  8
GUIDE
100
AcDbLine
 10
314.5
 20
-48.26
 30
0.0
 11
293.5
 21
-48.26
 31
0.0
  0
LINE
  5
5A4
330
18
100
AcDbEntity
  8
GUIDE
100
AcDbLine
 10
314.5
 20
-55.78
 30
0.0
 11
293.5
 21
-55.78
 31
0.0
  0
LINE
  5
5A5
330
18
100
AcDbEntity
  8
GUIDE
100
AcDbLine
 10
307.0
 20
-70.5
 30
0.0
 11
307.0
 21
-55.78
 31
0.0
  0
LINE
  5
5A6
330
18
100
AcDbEntity
  8
GUIDE
100
AcDbLine
 10
301.0
 20
-70.5
 30
0.0
 11
301.0
 21
-55.78
 31
0.0
  0
LINE
  5
5A7
330
18
100
AcDbEntity
  8
GUIDE
100
AcDbLine
 10
301.0
 20
-48.26
 30
0.0
 11
301.0
 21
-44.5
 31
0.0
  0
LINE
  5
5A8
330
18
100
AcDbEntity
  8
GUIDE
100
AcDbLine
 10
307.0
 20
-48.26
 30
0.0
 11
307.0
 21
-44.5
 31
0.0
  0
LINE
  5
5A9
330
18
100
AcDbEntity
  8
GUIDE
100
AcDbLine
 10
289.5
 20
-67.09999999999999
 30
0.0
 11
289.5
 21
-70.5
 31
0.0
  0
LINE
  5
5AA
330
18
100
AcDbEntity
  8
GUIDE
100
AcDbLine
 10
283.5
 20
-67.09999999999999
 30
0.0
 11
283.5
 21
-70.5
 31
0.0
  0
LINE
  5
5AB
330
18
100
AcDbEntity
  8
GUIDE
100
AcDbLine
 10
297.0
 20
-67.09999999999999
 30
0.0
 11
297.0
 21
-59.58
 31
0.0
  0
LINE
  5
5AC
330
18
100
AcDbEntity
  8
GUIDE
100
AcDbLine
 10
283.5
 20
-44.5
 30
0.0
 11
283.5
 21
-59.58
 31
0.0
  0
LINE
  5
5AD
330
18
100
AcDbEntity
  8
GUIDE
100
AcDbLine
 10
289.5
 20
-44.5
 30
0.0
 11
289.5
 21
-59.58
 31
0.0
  0
LINE
  5
5AE
330
18
100
AcDbEntity
  8
GUIDE
100
AcDbLine
 10
241.0
 20
-67.09999999999999
 30
0.0
 11
241.0
 21
-59.58
 31
0.0
  0
LINE
  5
5AF
330
18
100
AcDbEntity
  8
GUIDE
100
AcDbLine
 10
262.0
 20
-59.58
 30
0.0
 11
241.0
 21
-59.58
 31
0.0
  0
LINE
  5
5B0
330
18
100
AcDbEntity
  8
GUIDE
100
AcDbLine
 10
262.0
 20
-67.09999999999999
 30
0.0
 11
241.0
 21
-67.09999999999999
 31
0.0
  0
LINE
  5
5B1
330
18
100
AcDbEntity
  8
GUIDE
100
AcDbLine
 10
279.5
 20
-48.26
 30
0.0
 11
279.5
 21
-55.78
 31
0.0
  0
LINE
  5
5B2
330
18
100
AcDbEntity
  8
GUIDE
100
AcDbLine
 10
258.5
 20
-48.26
 30
0.0
 11
258.5
 21
-55.78
 31
0.0
  0
LINE
  5
5B3
330
18
100
AcDbEntity
  8
GUIDE
100
AcDbLine
 10
279.5
 20
-48.26
 30
0.0
 11
258.5
 21
-48.26
 31
0.0
  0
LINE
  5
5B4
330
18
100
AcDbEntity
  8
GUIDE
100
AcDbLine
 10
279.5
 20
-55.78
 30
0.0
 11
258.5
 21
-55.78
 31
0.0
  0
LINE
  5
5B5
330
18
100
AcDbEntity
  8
GUIDE
100
AcDbLine
 10
272.0
 20
-70.5
 30
0.0
 11
272.0
 21
-55.78
 31
0.0
  0
LINE
  5
5B6
330
18
100
AcDbEntity
  8
GUIDE
100
AcDbLine
 10
266.0
 20
-70.5
 30
0.0
 11
266.0
 21
-55.78
 31
0.0
  0
LINE
  5
5B7
330
18
100
AcDbEntity
  8
GUIDE
100
AcDbLine
 10
266.0
 20
-48.26
 30
0.0
 11
266.0
 21
-44.5
 31
0.0
  0
LINE
  5
5B8
330
18
100
AcDbEntity
  8
GUIDE
100
AcDbLine
 10
272.0
 20
-48.26
 30
0.0
 11
272.0
 21
-44.5
 31
0.0
  0
LINE
  5
5B9
330
18
100
AcDbEntity
  8
GUIDE
100
AcDbLine
 10
254.5
 20
-67.09999999999999
 30
0.0
 11
254.5
 21
-70.5
 31
0.0
  0
LINE
  5
5BA
330
18
100
AcDbEntity
  8
GUIDE
100
AcDbLine
 10
248.5
 20
-67.09999999999999
 30
0.0
 11
248.5
 21
-70.5
 31
0.0
  0
LINE
  5
5BB
330
18
100
AcDbEntity
  8
GUIDE
100
AcDbLine
 10
262.0
 20
-67.09999999999999
 30
0.0
 11
262.0
 21
-59.58
 31
0.0
  0
LINE
  5
5BC
330
18
100
AcDbEntity
  8
GUIDE
100
AcDbLine
 10
248.5
 20
-44.5
 30
0.0
 11
248.5
 21
-59.58
 31
0.0
  0
LINE
  5
5BD
330
18
100
AcDbEntity
  8
GUIDE
100
AcDbLine
 10
254.5
 20
-44.5
 30
0.0
 11
254.5
 21
-59.58
 31
0.0
  0
LINE
  5
5BE
330
18
100
AcDbEntity
  8
GUIDE
100
AcDbLine
 10
206.0
 20
-67.09999999999999
 30
0.0
 11
206.0
 21
-59.58
 31
0.0
  0
LINE
  5
5BF
330
18
100
AcDbEntity
  8
GUIDE
100
AcDbLine
 10
227.0
 20
-59.58
 30
0.0
 11
206.0
 21
-59.58
 31
0.0
  0
LINE
  5
5C0
330
18
100
AcDbEntity
  8
GUIDE
100
AcDbLine
 10
227.0
 20
-67.09999999999999
 30
0.0
 11
206.0
 21
-67.09999999999999
 31
0.0
  0
LINE
  5
5C1
330
18
100
AcDbEntity
  8
GUIDE
100
AcDbLine
 10
244.5
 20
-48.26
 30
0.0
 11
244.5
 21
-55.78
 31
0.0
  0
LINE
  5
5C2
330
18
100
AcDbEntity
  8
GUIDE
100
AcDbLine
 10
223.5
 20
-48.26
 30
0.0
 11
223.5
 21
-55.78
 31
0.0
  0
LINE
  5
5C3
330
18
100
AcDbEntity
  8
GUIDE
100
AcDbLine
 10
244.5
 20
-48.26
 30
0.0
 11
223.5
 21
-48.26
 31
0.0
  0
LINE
  5
5C4
330
18
100
AcDbEntity
  8
GUIDE
100
AcDbLine
 10
244.5
 20
-55.78
 30
0.0
 11
223.5
 21
-55.78
 31
0.0
  0
LINE
  5
5C5
330
18
100
AcDbEntity
  8
GUIDE
100
AcDbLine
 10
237.0
 20
-70.5
 30
0.0
 11
237.0
 21
-55.78
 31
0.0
  0
LINE
  5
5C6
330
18
100
AcDbEntity
  8
GUIDE
100
AcDbLine
 10
231.0
 20
-70.5
 30
0.0
 11
231.0
 21
-55.78
 31
0.0
  0
LINE
  5
5C7
330
18
100
AcDbEntity
  8
GUIDE
100
AcDbLine
 10
231.0
 20
-48.26
 30
0.0
 11
231.0
 21
-44.5
 31
0.0
  0
LINE
  5
5C8
330
18
100
AcDbEntity
  8
GUIDE
100
AcDbLine
 10
237.0
 20
-48.26
 30
0.0
 11
237.0
 21
-44.5
 31
0.0
  0
LINE
  5
5C9
330
18
100
AcDbEntity
  8
GUIDE
100
AcDbLine
 10
219.5
 20
-67.09999999999999
 30
0.0
 11
219.5
 21
-70.5
 31
0.0
  0
LINE
  5
5CA
330
18
100
AcDbEntity
  8
GUIDE
100
AcDbLine
 10
213.5
 20
-67.09999999999999
 30
0.0
 11
213.5
 21
-70.5
 31
0.0
  0
LINE
  5
5CB
330
18
100
AcDbEntity
  8
GUIDE
100
AcDbLine
 10
227.0
 20
-67.09999999999999
 30
0.0
 11
227.0
 21
-59.58
 31
0.0
  0
LINE
  5
5CC
330
18
100
AcDbEntity
  8
GUIDE
100
AcDbLine
 10
213.5
 20
-44.5
 30
0.0
 11
213.5
 21
-59.58
 31
0.0
  0
LINE
  5
5CD
330
18
100
AcDbEntity
  8
GUIDE
100
AcDbLine
 10
219.5
 20
-44.5
 30
0.0
 11
219.5
 21
-59.58
 31
0.0
  0
LINE
  5
5CE
330
18
100
AcDbEntity
  8
GUIDE
100
AcDbLine
 10
171.0
 20
-67.09999999999999
 30
0.0
 11
171.0
 21
-59.58
 31
0.0
  0
LINE
  5
5CF
330
18
100
AcDbEntity
  8
GUIDE
100
AcDbLine
 10
192.0
 20
-59.58
 30
0.0
 11
171.0
 21
-59.58
 31
0.0
  0
LINE
  5
5D0
330
18
100
AcDbEntity
  8
GUIDE
100
AcDbLine
 10
192.0
 20
-67.09999999999999
 30
0.0
 11
171.0
 21
-67.09999999999999
 31
0.0
  0
LINE
  5
5D1
330
18
100
AcDbEntity
  8
GUIDE
100
AcDbLine
 10
209.5
 20
-48.26
 30
0.0
 11
209.5
 21
-55.78
 31
0.0
  0
LINE
  5
5D2
330
18
100
AcDbEntity
  8
GUIDE
100
AcDbLine
 10
188.5
 20
-48.26
 30
0.0
 11
188.5
 21
-55.78
 31
0.0
  0
LINE
  5
5D3
330
18
100
AcDbEntity
  8
GUIDE
100
AcDbLine
 10
209.5
 20
-48.26
 30
0.0
 11
188.5
 21
-48.26
 31
0.0
  0
LINE
  5
5D4
330
18
100
AcDbEntity
  8
GUIDE
100
AcDbLine
 10
209.5
 20
-55.78
 30
0.0
 11
188.5
 21
-55.78
 31
0.0
  0
LINE
  5
5D5
330
18
100
AcDbEntity
  8
GUIDE
100
AcDbLine
 10
202.0
 20
-70.5
 30
0.0
 11
202.0
 21
-55.78
 31
0.0
  0
LINE
  5
5D6
330
18
100
AcDbEntity
  8
GUIDE
100
AcDbLine
 10
196.0
 20
-70.5
 30
0.0
 11
196.0
 21
-55.78
 31
0.0
  0
LINE
  5
5D7
330
18
100
AcDbEntity
  8
GUIDE
100
AcDbLine
 10
196.0
 20
-48.26
 30
0.0
 11
196.0
 21
-44.5
 31
0.0
  0
LINE
  5
5D8
330
18
100
AcDbEntity
  8
GUIDE
100
AcDbLine
 10
202.0
 20
-48.26
 30
0.0
 11
202.0
 21
-44.5
 31
0.0
  0
LINE
  5
5D9
330
18
100
AcDbEntity
  8
GUIDE
100
AcDbLine
 10
184.5
 20
-67.09999999999999
 30
0.0
 11
184.5
 21
-70.5
 31
0.0
  0
LINE
  5
5DA
330
18
100
AcDbEntity
  8
GUIDE
100
AcDbLine
 10
178.5
 20
-67.09999999999999
 30
0.0
 11
178.5
 21
-70.5
 31
0.0
  0
LINE
  5
5DB
330
18
100
AcDbEntity
  8
GUIDE
100
AcDbLine
 10
192.0
 20
-67.09999999999999
 30
0.0
 11
192.0
 21
-59.58
 31
0.0
  0
LINE
  5
5DC
330
18
100
AcDbEntity
  8
GUIDE
100
AcDbLine
 10
178.5
 20
-44.5
 30
0.0
 11
178.5
 21
-59.58
 31
0.0
  0
LINE
  5
5DD
330
18
100
AcDbEntity
  8
GUIDE
100
AcDbLine
 10
184.5
 20
-44.5
 30
0.0
 11
184.5
 21
-59.58
 31
0.0
  0
LINE
  5
5DE
330
18
100
AcDbEntity
  8
GUIDE
100
AcDbLine
 10
136.0
 20
-67.09999999999999
 30
0.0
 11
136.0
 21
-59.58
 31
0.0
  0
LINE
  5
5DF
330
18
100
AcDbEntity
  8
GUIDE
100
AcDbLine
 10
157.0
 20
-59.58
 30
0.0
 11
136.0
 21
-59.58
 31
0.0
  0
LINE
  5
5E0
330
18
100
AcDbEntity
  8
GUIDE
100
AcDbLine
 10
157.0
 20
-67.09999999999999
 30
0.0
 11
136.0
 21
-67.09999999999999
 31
0.0
  0
LINE
  5
5E1
330
18
100
AcDbEntity
  8
GUIDE
100
AcDbLine
 10
174.5
 20
-48.26
 30
0.0
 11
174.5
 21
-55.78
 31
0.0
  0
LINE
  5
5E2
330
18
100
AcDbEntity
  8
GUIDE
100
AcDbLine
 10
153.5
 20
-48.26
 30
0.0
 11
153.5
 21
-55.78
 31
0.0
  0
LINE
  5
5E3
330
18
100
AcDbEntity
  8
GUIDE
100
AcDbLine
 10
174.5
 20
-48.26
 30
0.0
 11
153.5
 21
-48.26
 31
0.0
  0
LINE
  5
5E4
330
18
100
AcDbEntity
  8
GUIDE
100
AcDbLine
 10
174.5
 20
-55.78
 30
0.0
 11
153.5
 21
-55.78
 31
0.0
  0
LINE
  5
5E5
330
18
100
AcDbEntity
  8
GUIDE
100
AcDbLine
 10
167.0
 20
-70.5
 30
0.0
 11
167.0
 21
-55.78
 31
0.0
  0
LINE
  5
5E6
330
18
100
AcDbEntity
  8
GUIDE
100
AcDbLine
 10
161.0
 20
-70.5
 30
0.0
 11
161.0
 21
-55.78
 31
0.0
  0
LINE
  5
5E7
330
18
100
AcDbEntity
  8
GUIDE
100
AcDbLine
 10
161.0
 20
-48.26
 30
0.0
 11
161.0
 21
-44.5
 31
0.0
  0
LINE
  5
5E8
330
18
100
AcDbEntity
  8
GUIDE
100
AcDbLine
 10
167.0
 20
-48.26
 30
0.0
 11
167.0
 21
-44.5
 31
0.0
  0
LINE
  5
5E9
330
18
100
AcDbEntity
  8
GUIDE
100
AcDbLine
 10
149.5
 20
-67.09999999999999
 30
0.0
 11
149.5
 21
-70.5
 31
0.0
  0
LINE
  5
5EA
330
18
100
AcDbEntity
  8
GUIDE
100
AcDbLine
 10
143.5
 20
-67.09999999999999
 30
0.0
 11
143.5
 21
-70.5
 31
0.0
  0
LINE
  5
5EB
330
18
100
AcDbEntity
  8
GUIDE
100
AcDbLine
 10
157.0
 20
-67.09999999999999
 30
0.0
 11
157.0
 21
-59.58
 31
0.0
  0
LINE
  5
5EC
330
18
100
AcDbEntity
  8
GUIDE
100
AcDbLine
 10
143.5
 20
-44.5
 30
0.0
 11
143.5
 21
-59.58
 31
0.0
  0
LINE
  5
5ED
330
18
100
AcDbEntity
  8
GUIDE
100
AcDbLine
 10
149.5
 20
-44.5
 30
0.0
 11
149.5
 21
-59.58
 31
0.0
  0
LINE
  5
5EE
330
18
100
AcDbEntity
  8
GUIDE
100
AcDbLine
 10
101.0
 20
-67.09999999999999
 30
0.0
 11
101.0
 21
-59.58
 31
0.0
  0
LINE
  5
5EF
330
18
100
AcDbEntity
  8
GUIDE
100
AcDbLine
 10
122.0
 20
-59.58
 30
0.0
 11
101.0
 21
-59.58
 31
0.0
  0
LINE
  5
5F0
330
18
100
AcDbEntity
  8
GUIDE
100
AcDbLine
 10
122.0
 20
-67.09999999999999
 30
0.0
 11
101.0
 21
-67.09999999999999
 31
0.0
  0
LINE
  5
5F1
330
18
100
AcDbEntity
  8
GUIDE
100
AcDbLine
 10
139.5
 20
-48.26
 30
0.0
 11
139.5
 21
-55.78
 31
0.0
  0
LINE
  5
5F2
330
18
100
AcDbEntity
  8
GUIDE
100
AcDbLine
 10
118.5
 20
-48.26
 30
0.0
 11
118.5
 21
-55.78
 31
0.0
  0
LINE
  5
5F3
330
18
100
AcDbEntity
  8
GUIDE
100
AcDbLine
 10
139.5
 20
-48.26
 30
0.0
 11
118.5
 21
-48.26
 31
0.0
  0
LINE
  5
5F4
330
18
100
AcDbEntity
  8
GUIDE
100
AcDbLine
 10
139.5
 20
-55.78
 30
0.0
 11
118.5
 21
-55.78
 31
0.0
  0
LINE
  5
5F5
330
18
100
AcDbEntity
  8
GUIDE
100
AcDbLine
 10
132.0
 20
-70.5
 30
0.0
 11
132.0
 21
-55.78
 31
0.0
  0
LINE
  5
5F6
330
18
100
AcDbEntity
  8
GUIDE
100
AcDbLine
 10
126.0
 20
-70.5
 30
0.0
 11
126.0
 21
-55.78
 31
0.0
  0
LINE
  5
5F7
330
18
100
AcDbEntity
  8
GUIDE
100
AcDbLine
 10
126.0
 20
-48.26
 30
0.0
 11
126.0
 21
-44.5
 31
0.0
  0
LINE
  5
5F8
330
18
100
AcDbEntity
  8
GUIDE
100
AcDbLine
 10
132.0
 20
-48.26
 30
0.0
 11
132.0
 21
-44.5
 31
0.0
  0
LINE
  5
5F9
330
18
100
AcDbEntity
  8
GUIDE
100
AcDbLine
 10
114.5
 20
-67.09999999999999
 30
0.0
 11
114.5
 21
-70.5
 31
0.0
  0
LINE
  5
5FA
330
18
100
AcDbEntity
  8
GUIDE
100
AcDbLine
 10
108.5
 20
-67.09999999999999
 30
0.0
 11
108.5
 21
-70.5
 31
0.0
  0
LINE
  5
5FB
330
18
100
AcDbEntity
  8
GUIDE
100
AcDbLine
 10
122.0
 20
-67.09999999999999
 30
0.0
 11
122.0
 21
-59.58
 31
0.0
  0
LINE
  5
5FC
330
18
100
AcDbEntity
  8
GUIDE
100
AcDbLine
 10
108.5
 20
-44.5
 30
0.0
 11
108.5
 21
-59.58
 31
0.0
  0
LINE
  5
5FD
330
18
100
AcDbEntity
  8
GUIDE
100
AcDbLine
 10
114.5
 20
-44.5
 30
0.0
 11
114.5
 21
-59.58
 31
0.0
  0
LINE
  5
5FE
330
18
100
AcDbEntity
  8
GUIDE
100
AcDbLine
 10
66.0
 20
-67.09999999999999
 30
0.0
 11
66.0
 21
-59.58
 31
0.0
  0
LINE
  5
5FF
330
18
100
AcDbEntity
  8
GUIDE
100
AcDbLine
 10
87.0
 20
-59.58
 30
0.0
 11
66.0
 21
-59.58
 31
0.0
  0
LINE
  5
600
330
18
100
AcDbEntity
  8
GUIDE
100
AcDbLine
 10
87.0
 20
-67.09999999999999
 30
0.0
 11
66.0
 21
-67.09999999999999
 31
0.0
  0
LINE
  5
601
330
18
100
AcDbEntity
  8
GUIDE
100
AcDbLine
 10
104.5
 20
-48.26
 30
0.0
 11
104.5
 21
-55.78
 31
0.0
  0
LINE
  5
602
330
18
100
AcDbEntity
  8
GUIDE
100
AcDbLine
 10
83.5
 20
-48.26
 30
0.0
 11
83.5
 21
-55.78
 31
0.0
  0
LINE
  5
603
330
18
100
AcDbEntity
  8
GUIDE
100
AcDbLine
 10
104.5
 20
-48.26
 30
0.0
 11
83.5
 21
-48.26
 31
0.0
  0
LINE
  5
604
330
18
100
AcDbEntity
  8
GUIDE
100
AcDbLine
 10
104.5
 20
-55.78
 30
0.0
 11
83.5
 21
-55.78
 31
0.0
  0
LINE
  5
605
330
18
100
AcDbEntity
  8
GUIDE
100
AcDbLine
 10
97.0
 20
-70.5
 30
0.0
 11
97.0
 21
-55.78
 31
0.0
  0
LINE
  5
606
330
18
100
AcDbEntity
  8
GUIDE
100
AcDbLine
 10
91.0
 20
-70.5
 30
0.0
 11
91.0
 21
-55.78
 31
0.0
  0
LINE
  5
607
330
18
100
AcDbEntity
  8
GUIDE
100
AcDbLine
 10
91.0
 20
-48.26
 30
0.0
 11
91.0
 21
-44.5
 31
0.0
  0
LINE
  5
608
330
18
100
AcDbEntity
  8
GUIDE
100
AcDbLine
 10
97.0
 20
-48.26
 30
0.0
 11
97.0
 21
-44.5
 31
0.0
  0
LINE
  5
609
330
18
100
AcDbEntity
  8
GUIDE
100
AcDbLine
 10
79.5
 20
-67.09999999999999
 30
0.0
 11
79.5
 21
-70.5
 31
0.0
  0
LINE
  5
60A
330
18
100
AcDbEntity
  8
GUIDE
100
AcDbLine
 10
73.5
 20
-67.09999999999999
 30
0.0
 11
73.5
 21
-70.5
 31
0.0
  0
LINE
  5
60B
330
18
100
AcDbEntity
  8
GUIDE
100
AcDbLine
 10
87.0
 20
-67.09999999999999
 30
0.0
 11
87.0
 21
-59.58
 31
0.0
  0
LINE
  5
60C
330
18
100
AcDbEntity
  8
GUIDE
100
AcDbLine
 10
73.5
 20
-44.5
 30
0.0
 11
73.5
 21
-59.58
 31
0.0
  0
LINE
  5
60D
330
18
100
AcDbEntity
  8
GUIDE
100
AcDbLine
 10
79.5
 20
-44.5
 30
0.0
 11
79.5
 21
-59.58
 31
0.0
  0
LINE
  5
60E
330
18
100
AcDbEntity
  8
GUIDE
100
AcDbLine
 10
31.0
 20
-67.09999999999999
 30
0.0
 11
31.0
 21
-59.58
 31
0.0
  0
LINE
  5
60F
330
18
100
AcDbEntity
  8
GUIDE
100
AcDbLine
 10
52.0
 20
-59.58
 30
0.0
 11
31.0
 21
-59.58
 31
0.0
  0
LINE
  5
610
330
18
100
AcDbEntity
  8
GUIDE
100
AcDbLine
 10
52.0
 20
-67.09999999999999
 30
0.0
 11
31.0
 21
-67.09999999999999
 31
0.0
  0
LINE
  5
611
330
18
100
AcDbEntity
  8
GUIDE
100
AcDbLine
 10
69.5
 20
-48.26
 30
0.0
 11
69.5
 21
-55.78
 31
0.0
  0
LINE
  5
612
330
18
100
AcDbEntity
  8
GUIDE
100
AcDbLine
 10
48.5
 20
-48.26
 30
0.0
 11
48.5
 21
-55.78
 31
0.0
  0
LINE
  5
613
330
18
100
AcDbEntity
  8
GUIDE
100
AcDbLine
 10
69.5
 20
-48.26
 30
0.0
 11
48.5
 21
-48.26
 31
0.0
  0
LINE
  5
614
330
18
100
AcDbEntity
  8
GUIDE
100
AcDbLine
 10
69.5
 20
-55.78
 30
0.0
 11
48.5
 21
-55.78
 31
0.0
  0
LINE
  5
615
330
18
100
AcDbEntity
  8
GUIDE
100
AcDbLine
 10
62.0
 20
-70.5
 30
0.0
 11
62.0
 21
-55.78
 31
0.0
  0
LINE
  5
616
330
18
100
AcDbEntity
  8
GUIDE
100
AcDbLine
 10
56.0
 20
-70.5
 30
0.0
 11
56.0
 21
-55.78
 31
0.0
  0
LINE
  5
617
330
18
100
AcDbEntity
  8
GUIDE
100
AcDbLine
 10
56.0
 20
-48.26
 30
0.0
 11
56.0
 21
-44.5
 31
0.0
  0
LINE
  5
618
330
18
100
AcDbEntity
  8
GUIDE
100
AcDbLine
 10
62.0
 20
-48.26
 30
0.0
 11
62.0
 21
-44.5
 31
0.0
  0
LINE
  5
619
330
18
100
AcDbEntity
  8
GUIDE
100
AcDbLine
 10
44.5
 20
-67.09999999999999
 30
0.0
 11
44.5
 21
-70.5
 31
0.0
  0
LINE
  5
61A
330
18
100
AcDbEntity
  8
GUIDE
100
AcDbLine
 10
38.5
 20
-67.09999999999999
 30
0.0
 11
38.5
 21
-70.5
 31
0.0
  0
LINE
  5
61B
330
18
100
AcDbEntity
  8
GUIDE
100
AcDbLine
 10
52.0
 20
-67.09999999999999
 30
0.0
 11
52.0
 21
-59.58
 31
0.0
  0
LINE
  5
61C
330
18
100
AcDbEntity
  8
GUIDE
100
AcDbLine
 10
38.5
 20
-44.5
 30
0.0
 11
38.5
 21
-59.58
 31
0.0
  0
LINE
  5
61D
330
18
100
AcDbEntity
  8
GUIDE
100
AcDbLine
 10
44.5
 20
-44.5
 30
0.0
 11
44.5
 21
-59.58
 31
0.0
  0
LINE
  5
61E
330
18
100
AcDbEntity
  8
GUIDE
100
AcDbLine
 10
-4.0
 20
-67.09999999999999
 30
0.0
 11
-4.0
 21
-59.58
 31
0.0
  0
LINE
  5
61F
330
18
100
AcDbEntity
  8
GUIDE
100
AcDbLine
 10
17.0
 20
-59.58
 30
0.0
 11
-4.0
 21
-59.58
 31
0.0
  0
LINE
  5
620
330
18
100
AcDbEntity
  8
GUIDE
100
AcDbLine
 10
17.0
 20
-67.09999999999999
 30
0.0
 11
-4.0
 21
-67.09999999999999
 31
0.0
  0
LINE
  5
621
330
18
100
AcDbEntity
  8
GUIDE
100
AcDbLine
 10
34.5
 20
-48.26
 30
0.0
 11
34.5
 21
-55.78
 31
0.0
  0
LINE
  5
622
330
18
100
AcDbEntity
  8
GUIDE
100
AcDbLine
 10
13.5
 20
-48.26
 30
0.0
 11
13.5
 21
-55.78
 31
0.0
  0
LINE
  5
623
330
18
100
AcDbEntity
  8
GUIDE
100
AcDbLine
 10
34.5
 20
-48.26
 30
0.0
 11
13.5
 21
-48.26
 31
0.0
  0
LINE
  5
624
330
18
100
AcDbEntity
  8
GUIDE
100
AcDbLine
 10
34.5
 20
-55.78
 30
0.0
 11
13.5
 21
-55.78
 31
0.0
  0
LINE
  5
625
330
18
100
AcDbEntity
  8
GUIDE
100
AcDbLine
 10
27.0
 20
-70.5
 30
0.0
 11
27.0
 21
-55.78
 31
0.0
  0
LINE
  5
626
330
18
100
AcDbEntity
  8
GUIDE
100
AcDbLine
 10
21.0
 20
-70.5
 30
0.0
 11
21.0
 21
-55.78
 31
0.0
  0
LINE
  5
627
330
18
100
AcDbEntity
  8
GUIDE
100
AcDbLine
 10
21.0
 20
-48.26
 30
0.0
 11
21.0
 21
-44.5
 31
0.0
  0
LINE
  5
628
330
18
100
AcDbEntity
  8
GUIDE
100
AcDbLine
 10
27.0
 20
-48.26
 30
0.0
 11
27.0
 21
-44.5
 31
0.0
  0
LINE
  5
629
330
18
100
AcDbEntity
  8
GUIDE
100
AcDbLine
 10
9.5
 20
-67.09999999999999
 30
0.0
 11
9.5
 21
-70.5
 31
0.0
  0
LINE
  5
62A
330
18
100
AcDbEntity
  8
GUIDE
100
AcDbLine
 10
3.5
 20
-67.09999999999999
 30
0.0
 11
3.5
 21
-70.5
 31
0.0
  0
LINE
  5
62B
330
18
100
AcDbEntity
  8
GUIDE
100
AcDbLine
 10
17.0
 20
-67.09999999999999
 30
0.0
 11
17.0
 21
-59.58
 31
0.0
  0
LINE
  5
62C
330
18
100
AcDbEntity
  8
GUIDE
100
AcDbLine
 10
3.5
 20
-44.5
 30
0.0
 11
3.5
 21
-59.58
 31
0.0
  0
LINE
  5
62D
330
18
100
AcDbEntity
  8
GUIDE
100
AcDbLine
 10
9.5
 20
-44.5
 30
0.0
 11
9.5
 21
-59.58
 31
0.0
  0
LINE
  5
62E
330
18
100
AcDbEntity
  8
GUIDE
100
AcDbLine
 10
-39.0
 20
-67.09999999999999
 30
0.0
 11
-39.0
 21
-59.58
 31
0.0
  0
LINE
  5
62F
330
18
100
AcDbEntity
  8
GUIDE
100
AcDbLine
 10
-18.0
 20
-59.58
 30
0.0
 11
-39.0
 21
-59.58
 31
0.0
  0
LINE
  5
630
330
18
100
AcDbEntity
  8
GUIDE
100
AcDbLine
 10
-18.0
 20
-67.09999999999999
 30
0.0
 11
-39.0
 21
-67.09999999999999
 31
0.0
  0
LINE
  5
631
330
18
100
AcDbEntity
  8
GUIDE
100
AcDbLine
 10
-0.5
 20
-48.26
 30
0.0
 11
-0.5
 21
-55.78
 31
0.0
  0
LINE
  5
632
330
18
100
AcDbEntity
  8
GUIDE
100
AcDbLine
 10
-21.5
 20
-48.26
 30
0.0
 11
-21.5
 21
-55.78
 31
0.0
  0
LINE
  5
633
330
18
100
AcDbEntity
  8
GUIDE
100
AcDbLine
 10
-0.5
 20
-48.26
 30
0.0
 11
-21.5
 21
-48.26
 31
0.0
  0
LINE
  5
634
330
18
100
AcDbEntity
  8
GUIDE
100
AcDbLine
 10
-0.5
 20
-55.78
 30
0.0
 11
-21.5
 21
-55.78
 31
0.0
  0
LINE
  5
635
330
18
100
AcDbEntity
  8
GUIDE
100
AcDbLine
 10
-8.0
 20
-70.5
 30
0.0
 11
-8.0
 21
-55.78
 31
0.0
  0
LINE
  5
636
330
18
100
AcDbEntity
  8
GUIDE
100
AcDbLine
 10
-14.0
 20
-70.5
 30
0.0
 11
-14.0
 21
-55.78
 31
0.0
  0
LINE
  5
637
330
18
100
AcDbEntity
  8
GUIDE
100
AcDbLine
 10
-14.0
 20
-48.26
 30
0.0
 11
-14.0
 21
-44.5
 31
0.0
  0
LINE
  5
638
330
18
100
AcDbEntity
  8
GUIDE
100
AcDbLine
 10
-8.0
 20
-48.26
 30
0.0
 11
-8.0
 21
-44.5
 31
0.0
  0
LINE
  5
639
330
18
100
AcDbEntity
  8
GUIDE
100
AcDbLine
 10
-25.5
 20
-67.09999999999999
 30
0.0
 11
-25.5
 21
-70.5
 31
0.0
  0
LINE
  5
63A
330
18
100
AcDbEntity
  8
GUIDE
100
AcDbLine
 10
-31.5
 20
-67.09999999999999
 30
0.0
 11
-31.5
 21
-70.5
 31
0.0
  0
LINE
  5
63B
330
18
100
AcDbEntity
  8
GUIDE
100
AcDbLine
 10
-18.0
 20
-67.09999999999999
 30
0.0
 11
-18.0
 21
-59.58
 31
0.0
  0
LINE
  5
63C
330
18
100
AcDbEntity
  8
GUIDE
100
AcDbLine
 10
-31.5
 20
-44.5
 30
0.0
 11
-31.5
 21
-59.58
 31
0.0
  0
LINE
  5
63D
330
18
100
AcDbEntity
  8
GUIDE
100
AcDbLine
 10
-25.5
 20
-44.5
 30
0.0
 11
-25.5
 21
-59.58
 31
0.0
  0
LINE
  5
63E
330
18
100
AcDbEntity
  8
GUIDE
100
AcDbLine
 10
-74.0
 20
-67.09999999999999
 30
0.0
 11
-74.0
 21
-59.58
 31
0.0
  0
LINE
  5
63F
330
18
100
AcDbEntity
  8
GUIDE
100
AcDbLine
 10
-53.0
 20
-59.58
 30
0.0
 11
-74.0
 21
-59.58
 31
0.0
  0
LINE
  5
640
330
18
100
AcDbEntity
  8
GUIDE
100
AcDbLine
 10
-53.0
 20
-67.09999999999999
 30
0.0
 11
-74.0
 21
-67.09999999999999
 31
0.0
  0
LINE
  5
641
330
18
100
AcDbEntity
  8
GUIDE
100
AcDbLine
 10
-35.5
 20
-48.26
 30
0.0
 11
-35.5
 21
-55.78
 31
0.0
  0
LINE
  5
642
330
18
100
AcDbEntity
  8
GUIDE
100
AcDbLine
 10
-56.5
 20
-48.26
 30
0.0
 11
-56.5
 21
-55.78
 31
0.0
  0
LINE
  5
643
330
18
100
AcDbEntity
  8
GUIDE
100
AcDbLine
 10
-35.5
 20
-48.26
 30
0.0
 11
-56.5
 21
-48.26
 31
0.0
  0
LINE
  5
644
330
18
100
AcDbEntity
  8
GUIDE
100
AcDbLine
 10
-35.5
 20
-55.78
 30
0.0
 11
-56.5
 21
-55.78
 31
0.0
  0
LINE
  5
645
330
18
100
AcDbEntity
  8
GUIDE
100
AcDbLine
 10
-43.0
 20
-70.5
 30
0.0
 11
-43.0
 21
-55.78
 31
0.0
  0
LINE
  5
646
330
18
100
AcDbEntity
  8
GUIDE
100
AcDbLine
 10
-49.0
 20
-70.5
 30
0.0
 11
-49.0
 21
-55.78
 31
0.0
  0
LINE
  5
647
330
18
100
AcDbEntity
  8
GUIDE
100
AcDbLine
 10
-49.0
 20
-48.26
 30
0.0
 11
-49.0
 21
-44.5
 31
0.0
  0
LINE
  5
648
330
18
100
AcDbEntity
  8
GUIDE
100
AcDbLine
 10
-43.0
 20
-48.26
 30
0.0
 11
-43.0
 21
-44.5
 31
0.0
  0
LINE
  5
649
330
18
100
AcDbEntity
  8
GUIDE
100
AcDbLine
 10
-60.5
 20
-67.09999999999999
 30
0.0
 11
-60.5
 21
-70.5
 31
0.0
  0
LINE
  5
64A
330
18
100
AcDbEntity
  8
GUIDE
100
AcDbLine
 10
-66.5
 20
-67.09999999999999
 30
0.0
 11
-66.5
 21
-70.5
 31
0.0
  0
LINE
  5
64B
330
18
100
AcDbEntity
  8
GUIDE
100
AcDbLine
 10
-53.0
 20
-67.09999999999999
 30
0.0
 11
-53.0
 21
-59.58
 31
0.0
  0
LINE
  5
64C
330
18
100
AcDbEntity
  8
GUIDE
100
AcDbLine
 10
-66.5
 20
-44.5
 30
0.0
 11
-66.5
 21
-59.58
 31
0.0
  0
LINE
  5
64D
330
18
100
AcDbEntity
  8
GUIDE
100
AcDbLine
 10
-60.5
 20
-44.5
 30
0.0
 11
-60.5
 21
-59.58
 31
0.0
  0
LINE
  5
64E
330
18
100
AcDbEntity
  8
GUIDE
100
AcDbLine
 10
-109.0
 20
-67.09999999999999
 30
0.0
 11
-109.0
 21
-59.58
 31
0.0
  0
LINE
  5
64F
330
18
100
AcDbEntity
  8
GUIDE
100
AcDbLine
 10
-88.0
 20
-59.58
 30
0.0
 11
-109.0
 21
-59.58
 31
0.0
  0
LINE
  5
650
330
18
100
AcDbEntity
  8
GUIDE
100
AcDbLine
 10
-88.0
 20
-67.09999999999999
 30
0.0
 11
-109.0
 21
-67.09999999999999
 31
0.0
  0
LINE
  5
651
330
18
100
AcDbEntity
  8
GUIDE
100
AcDbLine
 10
-70.5
 20
-48.26
 30
0.0
 11
-70.5
 21
-55.78
 31
0.0
  0
LINE
  5
652
330
18
100
AcDbEntity
  8
GUIDE
100
AcDbLine
 10
-91.5
 20
-48.26
 30
0.0
 11
-91.5
 21
-55.78
 31
0.0
  0
LINE
  5
653
330
18
100
AcDbEntity
  8
GUIDE
100
AcDbLine
 10
-70.5
 20
-48.26
 30
0.0
 11
-91.5
 21
-48.26
 31
0.0
  0
LINE
  5
654
330
18
100
AcDbEntity
  8
GUIDE
100
AcDbLine
 10
-70.5
 20
-55.78
 30
0.0
 11
-91.5
 21
-55.78
 31
0.0
  0
LINE
  5
655
330
18
100
AcDbEntity
  8
GUIDE
100
AcDbLine
 10
-78.0
 20
-70.5
 30
0.0
 11
-78.0
 21
-55.78
 31
0.0
  0
LINE
  5
656
330
18
100
AcDbEntity
  8
GUIDE
100
AcDbLine
 10
-84.0
 20
-70.5
 30
0.0
 11
-84.0
 21
-55.78
 31
0.0
  0
LINE
  5
657
330
18
100
AcDbEntity
  8
GUIDE
100
AcDbLine
 10
-84.0
 20
-48.26
 30
0.0
 11
-84.0
 21
-44.5
 31
0.0
  0
LINE
  5
658
330
18
100
AcDbEntity
  8
GUIDE
100
AcDbLine
 10
-78.0
 20
-48.26
 30
0.0
 11
-78.0
 21
-44.5
 31
0.0
  0
LINE
  5
659
330
18
100
AcDbEntity
  8
GUIDE
100
AcDbLine
 10
-95.5
 20
-67.09999999999999
 30
0.0
 11
-95.5
 21
-70.5
 31
0.0
  0
LINE
  5
65A
330
18
100
AcDbEntity
  8
GUIDE
100
AcDbLine
 10
-101.5
 20
-67.09999999999999
 30
0.0
 11
-101.5
 21
-70.5
 31
0.0
  0
LINE
  5
65B
330
18
100
AcDbEntity
  8
GUIDE
100
AcDbLine
 10
-88.0
 20
-67.09999999999999
 30
0.0
 11
-88.0
 21
-59.58
 31
0.0
  0
LINE
  5
65C
330
18
100
AcDbEntity
  8
GUIDE
100
AcDbLine
 10
-101.5
 20
-44.5
 30
0.0
 11
-101.5
 21
-59.58
 31
0.0
  0
LINE
  5
65D
330
18
100
AcDbEntity
  8
GUIDE
100
AcDbLine
 10
-95.5
 20
-44.5
 30
0.0
 11
-95.5
 21
-59.58
 31
0.0
  0
LINE
  5
65E
330
18
100
AcDbEntity
  8
GUIDE
100
AcDbLine
 10
-144.0
 20
-67.09999999999999
 30
0.0
 11
-144.0
 21
-59.58
 31
0.0
  0
LINE
  5
65F
330
18
100
AcDbEntity
  8
GUIDE
100
AcDbLine
 10
-123.0
 20
-59.58
 30
0.0
 11
-144.0
 21
-59.58
 31
0.0
  0
LINE
  5
660
330
18
100
AcDbEntity
  8
GUIDE
100
AcDbLine
 10
-123.0
 20
-67.09999999999999
 30
0.0
 11
-144.0
 21
-67.09999999999999
 31
0.0
  0
LINE
  5
661
330
18
100
AcDbEntity
  8
GUIDE
100
AcDbLine
 10
-105.5
 20
-48.26
 30
0.0
 11
-105.5
 21
-55.78
 31
0.0
  0
LINE
  5
662
330
18
100
AcDbEntity
  8
GUIDE
100
AcDbLine
 10
-126.5
 20
-48.26
 30
0.0
 11
-126.5
 21
-55.78
 31
0.0
  0
LINE
  5
663
330
18
100
AcDbEntity
  8
GUIDE
100
AcDbLine
 10
-105.5
 20
-48.26
 30
0.0
 11
-126.5
 21
-48.26
 31
0.0
  0
LINE
  5
664
330
18
100
AcDbEntity
  8
GUIDE
100
AcDbLine
 10
-105.5
 20
-55.78
 30
0.0
 11
-126.5
 21
-55.78
 31
0.0
  0
LINE
  5
665
330
18
100
AcDbEntity
  8
GUIDE
100
AcDbLine
 10
-113.0
 20
-70.5
 30
0.0
 11
-113.0
 21
-55.78
 31
0.0
  0
LINE
  5
666
330
18
100
AcDbEntity
  8
GUIDE
100
AcDbLine
 10
-119.0
 20
-70.5
 30
0.0
 11
-119.0
 21
-55.78
 31
0.0
  0
LINE
  5
667
330
18
100
AcDbEntity
  8
GUIDE
100
AcDbLine
 10
-119.0
 20
-48.26
 30
0.0
 11
-119.0
 21
-44.5
 31
0.0
  0
LINE
  5
668
330
18
100
AcDbEntity
  8
GUIDE
100
AcDbLine
 10
-113.0
 20
-48.26
 30
0.0
 11
-113.0
 21
-44.5
 31
0.0
  0
LINE
  5
669
330
18
100
AcDbEntity
  8
GUIDE
100
AcDbLine
 10
-130.5
 20
-67.09999999999999
 30
0.0
 11
-130.5
 21
-70.5
 31
0.0
  0
LINE
  5
66A
330
18
100
AcDbEntity
  8
GUIDE
100
AcDbLine
 10
-136.5
 20
-67.09999999999999
 30
0.0
 11
-136.5
 21
-70.5
 31
0.0
  0
LINE
  5
66B
330
18
100
AcDbEntity
  8
GUIDE
100
AcDbLine
 10
-123.0
 20
-67.09999999999999
 30
0.0
 11
-123.0
 21
-59.58
 31
0.0
  0
LINE
  5
66C
330
18
100
AcDbEntity
  8
GUIDE
100
AcDbLine
 10
-136.5
 20
-44.5
 30
0.0
 11
-136.5
 21
-59.58
 31
0.0
  0
LINE
  5
66D
330
18
100
AcDbEntity
  8
GUIDE
100
AcDbLine
 10
-130.5
 20
-44.5
 30
0.0
 11
-130.5
 21
-59.58
 31
0.0
  0
LINE
  5
66E
330
18
100
AcDbEntity
  8
GUIDE
100
AcDbLine
 10
-179.0
 20
-67.09999999999999
 30
0.0
 11
-179.0
 21
-59.58
 31
0.0
  0
LINE
  5
66F
330
18
100
AcDbEntity
  8
GUIDE
100
AcDbLine
 10
-158.0
 20
-59.58
 30
0.0
 11
-179.0
 21
-59.58
 31
0.0
  0
LINE
  5
670
330
18
100
AcDbEntity
  8
GUIDE
100
AcDbLine
 10
-158.0
 20
-67.09999999999999
 30
0.0
 11
-179.0
 21
-67.09999999999999
 31
0.0
  0
LINE
  5
671
330
18
100
AcDbEntity
  8
GUIDE
100
AcDbLine
 10
-140.5
 20
-48.26
 30
0.0
 11
-140.5
 21
-55.78
 31
0.0
  0
LINE
  5
672
330
18
100
AcDbEntity
  8
GUIDE
100
AcDbLine
 10
-161.5
 20
-48.26
 30
0.0
 11
-161.5
 21
-55.78
 31
0.0
  0
LINE
  5
673
330
18
100
AcDbEntity
  8
GUIDE
100
AcDbLine
 10
-140.5
 20
-48.26
 30
0.0
 11
-161.5
 21
-48.26
 31
0.0
  0
LINE
  5
674
330
18
100
AcDbEntity
  8
GUIDE
100
AcDbLine
 10
-140.5
 20
-55.78
 30
0.0
 11
-161.5
 21
-55.78
 31
0.0
  0
LINE
  5
675
330
18
100
AcDbEntity
  8
GUIDE
100
AcDbLine
 10
-148.0
 20
-70.5
 30
0.0
 11
-148.0
 21
-55.78
 31
0.0
  0
LINE
  5
676
330
18
100
AcDbEntity
  8
GUIDE
100
AcDbLine
 10
-154.0
 20
-70.5
 30
0.0
 11
-154.0
 21
-55.78
 31
0.0
  0
LINE
  5
677
330
18
100
AcDbEntity
  8
GUIDE
100
AcDbLine
 10
-154.0
 20
-48.26
 30
0.0
 11
-154.0
 21
-44.5
 31
0.0
  0
LINE
  5
678
330
18
100
AcDbEntity
  8
GUIDE
100
AcDbLine
 10
-148.0
 20
-48.26
 30
0.0
 11
-148.0
 21
-44.5
 31
0.0
  0
LINE
  5
679
330
18
100
AcDbEntity
  8
GUIDE
100
AcDbLine
 10
-165.5
 20
-67.09999999999999
 30
0.0
 11
-165.5
 21
-70.5
 31
0.0
  0
LINE
  5
67A
330
18
100
AcDbEntity
  8
GUIDE
100
AcDbLine
 10
-171.5
 20
-67.09999999999999
 30
0.0
 11
-171.5
 21
-70.5
 31
0.0
  0
LINE
  5
67B
330
18
100
AcDbEntity
  8
GUIDE
100
AcDbLine
 10
-158.0
 20
-67.09999999999999
 30
0.0
 11
-158.0
 21
-59.58
 31
0.0
  0
LINE
  5
67C
330
18
100
AcDbEntity
  8
GUIDE
100
AcDbLine
 10
-171.5
 20
-44.5
 30
0.0
 11
-171.5
 21
-59.58
 31
0.0
  0
LINE
  5
67D
330
18
100
AcDbEntity
  8
GUIDE
100
AcDbLine
 10
-165.5
 20
-44.5
 30
0.0
 11
-165.5
 21
-59.58
 31
0.0
  0
LINE
  5
67E
330
18
100
AcDbEntity
  8
GUIDE
100
AcDbLine
 10
-214.0
 20
-67.09999999999999
 30
0.0
 11
-214.0
 21
-59.58
 31
0.0
  0
LINE
  5
67F
330
18
100
AcDbEntity
  8
GUIDE
100
AcDbLine
 10
-193.0
 20
-59.58
 30
0.0
 11
-214.0
 21
-59.58
 31
0.0
  0
LINE
  5
680
330
18
100
AcDbEntity
  8
GUIDE
100
AcDbLine
 10
-193.0
 20
-67.09999999999999
 30
0.0
 11
-214.0
 21
-67.09999999999999
 31
0.0
  0
LINE
  5
681
330
18
100
AcDbEntity
  8
GUIDE
100
AcDbLine
 10
-175.5
 20
-48.26
 30
0.0
 11
-175.5
 21
-55.78
 31
0.0
  0
LINE
  5
682
330
18
100
AcDbEntity
  8
GUIDE
100
AcDbLine
 10
-196.5
 20
-48.26
 30
0.0
 11
-196.5
 21
-55.78
 31
0.0
  0
LINE
  5
683
330
18
100
AcDbEntity
  8
GUIDE
100
AcDbLine
 10
-175.5
 20
-48.26
 30
0.0
 11
-196.5
 21
-48.26
 31
0.0
  0
LINE
  5
684
330
18
100
AcDbEntity
  8
GUIDE
100
AcDbLine
 10
-175.5
 20
-55.78
 30
0.0
 11
-196.5
 21
-55.78
 31
0.0
  0
LINE
  5
685
330
18
100
AcDbEntity
  8
GUIDE
100
AcDbLine
 10
-183.0
 20
-70.5
 30
0.0
 11
-183.0
 21
-55.78
 31
0.0
  0
LINE
  5
686
330
18
100
AcDbEntity
  8
GUIDE
100
AcDbLine
 10
-189.0
 20
-70.5
 30
0.0
 11
-189.0
 21
-55.78
 31
0.0
  0
LINE
  5
687
330
18
100
AcDbEntity
  8
GUIDE
100
AcDbLine
 10
-189.0
 20
-48.26
 30
0.0
 11
-189.0
 21
-44.5
 31
0.0
  0
LINE
  5
688
330
18
100
AcDbEntity
  8
GUIDE
100
AcDbLine
 10
-183.0
 20
-48.26
 30
0.0
 11
-183.0
 21
-44.5
 31
0.0
  0
LINE
  5
689
330
18
100
AcDbEntity
  8
GUIDE
100
AcDbLine
 10
-200.5
 20
-67.09999999999999
 30
0.0
 11
-200.5
 21
-70.5
 31
0.0
  0
LINE
  5
68A
330
18
100
AcDbEntity
  8
GUIDE
100
AcDbLine
 10
-206.5
 20
-67.09999999999999
 30
0.0
 11
-206.5
 21
-70.5
 31
0.0
  0
LINE
  5
68B
330
18
100
AcDbEntity
  8
GUIDE
100
AcDbLine
 10
-193.0
 20
-67.09999999999999
 30
0.0
 11
-193.0
 21
-59.58
 31
0.0
  0
LINE
  5
68C
330
18
100
AcDbEntity
  8
GUIDE
100
AcDbLine
 10
-206.5
 20
-44.5
 30
0.0
 11
-206.5
 21
-59.58
 31
0.0
  0
LINE
  5
68D
330
18
100
AcDbEntity
  8
GUIDE
100
AcDbLine
 10
-200.5
 20
-44.5
 30
0.0
 11
-200.5
 21
-59.58
 31
0.0
  0
LINE
  5
68E
330
18
100
AcDbEntity
  8
GUIDE
100
AcDbLine
 10
-249.0
 20
-67.09999999999999
 30
0.0
 11
-249.0
 21
-59.58
 31
0.0
  0
LINE
  5
68F
330
18
100
AcDbEntity
  8
GUIDE
100
AcDbLine
 10
-228.0
 20
-59.58
 30
0.0
 11
-249.0
 21
-59.58
 31
0.0
  0
LINE
  5
690
330
18
100
AcDbEntity
  8
GUIDE
100
AcDbLine
 10
-228.0
 20
-67.09999999999999
 30
0.0
 11
-249.0
 21
-67.09999999999999
 31
0.0
  0
LINE
  5
691
330
18
100
AcDbEntity
  8
GUIDE
100
AcDbLine
 10
-210.5
 20
-48.26
 30
0.0
 11
-210.5
 21
-55.78
 31
0.0
  0
LINE
  5
692
330
18
100
AcDbEntity
  8
GUIDE
100
AcDbLine
 10
-231.5
 20
-48.26
 30
0.0
 11
-231.5
 21
-55.78
 31
0.0
  0
LINE
  5
693
330
18
100
AcDbEntity
  8
GUIDE
100
AcDbLine
 10
-210.5
 20
-48.26
 30
0.0
 11
-231.5
 21
-48.26
 31
0.0
  0
LINE
  5
694
330
18
100
AcDbEntity
  8
GUIDE
100
AcDbLine
 10
-210.5
 20
-55.78
 30
0.0
 11
-231.5
 21
-55.78
 31
0.0
  0
LINE
  5
695
330
18
100
AcDbEntity
  8
GUIDE
100
AcDbLine
 10
-218.0
 20
-70.5
 30
0.0
 11
-218.0
 21
-55.78
 31
0.0
  0
LINE
  5
696
330
18
100
AcDbEntity
  8
GUIDE
100
AcDbLine
 10
-224.0
 20
-70.5
 30
0.0
 11
-224.0
 21
-55.78
 31
0.0
  0
LINE
  5
697
330
18
100
AcDbEntity
  8
GUIDE
100
AcDbLine
 10
-224.0
 20
-48.26
 30
0.0
 11
-224.0
 21
-44.5
 31
0.0
  0
LINE
  5
698
330
18
100
AcDbEntity
  8
GUIDE
100
AcDbLine
 10
-218.0
 20
-48.26
 30
0.0
 11
-218.0
 21
-44.5
 31
0.0
  0
LINE
  5
699
330
18
100
AcDbEntity
  8
GUIDE
100
AcDbLine
 10
-235.5
 20
-67.09999999999999
 30
0.0
 11
-235.5
 21
-70.5
 31
0.0
  0
LINE
  5
69A
330
18
100
AcDbEntity
  8
GUIDE
100
AcDbLine
 10
-241.5
 20
-67.09999999999999
 30
0.0
 11
-241.5
 21
-70.5
 31
0.0
  0
LINE
  5
69B
330
18
100
AcDbEntity
  8
GUIDE
100
AcDbLine
 10
-228.0
 20
-67.09999999999999
 30
0.0
 11
-228.0
 21
-59.58
 31
0.0
  0
LINE
  5
69C
330
18
100
AcDbEntity
  8
GUIDE
100
AcDbLine
 10
-241.5
 20
-44.5
 30
0.0
 11
-241.5
 21
-59.58
 31
0.0
  0
LINE
  5
69D
330
18
100
AcDbEntity
  8
GUIDE
100
AcDbLine
 10
-235.5
 20
-44.5
 30
0.0
 11
-235.5
 21
-59.58
 31
0.0
  0
LINE
  5
69E
330
18
100
AcDbEntity
  8
GUIDE
100
AcDbLine
 10
-284.0
 20
-67.09999999999999
 30
0.0
 11
-284.0
 21
-59.58
 31
0.0
  0
LINE
  5
69F
330
18
100
AcDbEntity
  8
GUIDE
100
AcDbLine
 10
-263.0
 20
-59.58
 30
0.0
 11
-284.0
 21
-59.58
 31
0.0
  0
LINE
  5
6A0
330
18
100
AcDbEntity
  8
GUIDE
100
AcDbLine
 10
-263.0
 20
-67.09999999999999
 30
0.0
 11
-284.0
 21
-67.09999999999999
 31
0.0
  0
LINE
  5
6A1
330
18
100
AcDbEntity
  8
GUIDE
100
AcDbLine
 10
-245.5
 20
-48.26
 30
0.0
 11
-245.5
 21
-55.78
 31
0.0
  0
LINE
  5
6A2
330
18
100
AcDbEntity
  8
GUIDE
100
AcDbLine
 10
-266.5
 20
-48.26
 30
0.0
 11
-266.5
 21
-55.78
 31
0.0
  0
LINE
  5
6A3
330
18
100
AcDbEntity
  8
GUIDE
100
AcDbLine
 10
-245.5
 20
-48.26
 30
0.0
 11
-266.5
 21
-48.26
 31
0.0
  0
LINE
  5
6A4
330
18
100
AcDbEntity
  8
GUIDE
100
AcDbLine
 10
-245.5
 20
-55.78
 30
0.0
 11
-266.5
 21
-55.78
 31
0.0
  0
LINE
  5
6A5
330
18
100
AcDbEntity
  8
GUIDE
100
AcDbLine
 10
-253.0
 20
-70.5
 30
0.0
 11
-253.0
 21
-55.78
 31
0.0
  0
LINE
  5
6A6
330
18
100
AcDbEntity
  8
GUIDE
100
AcDbLine
 10
-259.0
 20
-70.5
 30
0.0
 11
-259.0
 21
-55.78
 31
0.0
  0
LINE
  5
6A7
330
18
100
AcDbEntity
  8
GUIDE
100
AcDbLine
 10
-259.0
 20
-48.26
 30
0.0
 11
-259.0
 21
-44.5
 31
0.0
  0
LINE
  5
6A8
330
18
100
AcDbEntity
  8
GUIDE
100
AcDbLine
 10
-253.0
 20
-48.26
 30
0.0
 11
-253.0
 21
-44.5
 31
0.0
  0
LINE
  5
6A9
330
18
100
AcDbEntity
  8
GUIDE
100
AcDbLine
 10
-270.5
 20
-67.09999999999999
 30
0.0
 11
-270.5
 21
-70.5
 31
0.0
  0
LINE
  5
6AA
330
18
100
AcDbEntity
  8
GUIDE
100
AcDbLine
 10
-276.5
 20
-67.09999999999999
 30
0.0
 11
-276.5
 21
-70.5
 31
0.0
  0
LINE
  5
6AB
330
18
100
AcDbEntity
  8
GUIDE
100
AcDbLine
 10
-263.0
 20
-67.09999999999999
 30
0.0
 11
-263.0
 21
-59.58
 31
0.0
  0
LINE
  5
6AC
330
18
100
AcDbEntity
  8
GUIDE
100
AcDbLine
 10
-276.5
 20
-44.5
 30
0.0
 11
-276.5
 21
-59.58
 31
0.0
  0
LINE
  5
6AD
330
18
100
AcDbEntity
  8
GUIDE
100
AcDbLine
 10
-270.5
 20
-44.5
 30
0.0
 11
-270.5
 21
-59.58
 31
0.0
  0
LINE
  5
6AE
330
18
100
AcDbEntity
  8
GUIDE
100
AcDbLine
 10
-319.0
 20
-67.09999999999999
 30
0.0
 11
-319.0
 21
-59.58
 31
0.0
  0
LINE
  5
6AF
330
18
100
AcDbEntity
  8
GUIDE
100
AcDbLine
 10
-298.0
 20
-59.58
 30
0.0
 11
-319.0
 21
-59.58
 31
0.0
  0
LINE
  5
6B0
330
18
100
AcDbEntity
  8
GUIDE
100
AcDbLine
 10
-298.0
 20
-67.09999999999999
 30
0.0
 11
-319.0
 21
-67.09999999999999
 31
0.0
  0
LINE
  5
6B1
330
18
100
AcDbEntity
  8
GUIDE
100
AcDbLine
 10
-280.5
 20
-48.26
 30
0.0
 11
-280.5
 21
-55.78
 31
0.0
  0
LINE
  5
6B2
330
18
100
AcDbEntity
  8
GUIDE
100
AcDbLine
 10
-301.5
 20
-48.26
 30
0.0
 11
-301.5
 21
-55.78
 31
0.0
  0
LINE
  5
6B3
330
18
100
AcDbEntity
  8
GUIDE
100
AcDbLine
 10
-280.5
 20
-48.26
 30
0.0
 11
-301.5
 21
-48.26
 31
0.0
  0
LINE
  5
6B4
330
18
100
AcDbEntity
  8
GUIDE
100
AcDbLine
 10
-280.5
 20
-55.78
 30
0.0
 11
-301.5
 21
-55.78
 31
0.0
  0
LINE
  5
6B5
330
18
100
AcDbEntity
  8
GUIDE
100
AcDbLine
 10
-288.0
 20
-70.5
 30
0.0
 11
-288.0
 21
-55.78
 31
0.0
  0
LINE
  5
6B6
330
18
100
AcDbEntity
  8
GUIDE
100
AcDbLine
 10
-294.0
 20
-70.5
 30
0.0
 11
-294.0
 21
-55.78
 31
0.0
  0
LINE
  5
6B7
330
18
100
AcDbEntity
  8
GUIDE
100
AcDbLine
 10
-294.0
 20
-48.26
 30
0.0
 11
-294.0
 21
-44.5
 31
0.0
  0
LINE
  5
6B8
330
18
100
AcDbEntity
  8
GUIDE
100
AcDbLine
 10
-288.0
 20
-48.26
 30
0.0
 11
-288.0
 21
-44.5
 31
0.0
  0
LINE
  5
6B9
330
18
100
AcDbEntity
  8
GUIDE
100
AcDbLine
 10
-305.5
 20
-67.09999999999999
 30
0.0
 11
-305.5
 21
-70.5
 31
0.0
  0
LINE
  5
6BA
330
18
100
AcDbEntity
  8
GUIDE
100
AcDbLine
 10
-311.5
 20
-67.09999999999999
 30
0.0
 11
-311.5
 21
-70.5
 31
0.0
  0
LINE
  5
6BB
330
18
100
AcDbEntity
  8
GUIDE
100
AcDbLine
 10
-298.0
 20
-67.09999999999999
 30
0.0
 11
-298.0
 21
-59.58
 31
0.0
  0
LINE
  5
6BC
330
18
100
AcDbEntity
  8
GUIDE
100
AcDbLine
 10
-311.5
 20
-44.5
 30
0.0
 11
-311.5
 21
-59.58
 31
0.0
  0
LINE
  5
6BD
330
18
100
AcDbEntity
  8
GUIDE
100
AcDbLine
 10
-305.5
 20
-44.5
 30
0.0
 11
-305.5
 21
-59.58
 31
0.0
  0
LINE
  5
6BE
330
18
100
AcDbEntity
  8
GUIDE
100
AcDbLine
 10
-354.0
 20
-67.09999999999999
 30
0.0
 11
-354.0
 21
-59.58
 31
0.0
  0
LINE
  5
6BF
330
18
100
AcDbEntity
  8
GUIDE
100
AcDbLine
 10
-333.0
 20
-59.58
 30
0.0
 11
-354.0
 21
-59.58
 31
0.0
  0
LINE
  5
6C0
330
18
100
AcDbEntity
  8
GUIDE
100
AcDbLine
 10
-333.0
 20
-67.09999999999999
 30
0.0
 11
-354.0
 21
-67.09999999999999
 31
0.0
  0
LINE
  5
6C1
330
18
100
AcDbEntity
  8
GUIDE
100
AcDbLine
 10
-315.5
 20
-48.26
 30
0.0
 11
-315.5
 21
-55.78
 31
0.0
  0
LINE
  5
6C2
330
18
100
AcDbEntity
  8
GUIDE
100
AcDbLine
 10
-336.5
 20
-48.26
 30
0.0
 11
-336.5
 21
-55.78
 31
0.0
  0
LINE
  5
6C3
330
18
100
AcDbEntity
  8
GUIDE
100
AcDbLine
 10
-315.5
 20
-48.26
 30
0.0
 11
-336.5
 21
-48.26
 31
0.0
  0
LINE
  5
6C4
330
18
100
AcDbEntity
  8
GUIDE
100
AcDbLine
 10
-315.5
 20
-55.78
 30
0.0
 11
-336.5
 21
-55.78
 31
0.0
  0
LINE
  5
6C5
330
18
100
AcDbEntity
  8
GUIDE
100
AcDbLine
 10
-323.0
 20
-70.5
 30
0.0
 11
-323.0
 21
-55.78
 31
0.0
  0
LINE
  5
6C6
330
18
100
AcDbEntity
  8
GUIDE
100
AcDbLine
 10
-329.0
 20
-70.5
 30
0.0
 11
-329.0
 21
-55.78
 31
0.0
  0
LINE
  5
6C7
330
18
100
AcDbEntity
  8
GUIDE
100
AcDbLine
 10
-329.0
 20
-48.26
 30
0.0
 11
-329.0
 21
-44.5
 31
0.0
  0
LINE
  5
6C8
330
18
100
AcDbEntity
  8
GUIDE
100
AcDbLine
 10
-323.0
 20
-48.26
 30
0.0
 11
-323.0
 21
-44.5
 31
0.0
  0
LINE
  5
6C9
330
18
100
AcDbEntity
  8
GUIDE
100
AcDbLine
 10
-340.5
 20
-67.09999999999999
 30
0.0
 11
-340.5
 21
-70.5
 31
0.0
  0
LINE
  5
6CA
330
18
100
AcDbEntity
  8
GUIDE
100
AcDbLine
 10
-346.5
 20
-67.09999999999999
 30
0.0
 11
-346.5
 21
-70.5
 31
0.0
  0
LINE
  5
6CB
330
18
100
AcDbEntity
  8
GUIDE
100
AcDbLine
 10
-333.0
 20
-67.09999999999999
 30
0.0
 11
-333.0
 21
-59.58
 31
0.0
  0
LINE
  5
6CC
330
18
100
AcDbEntity
  8
GUIDE
100
AcDbLine
 10
-346.5
 20
-44.5
 30
0.0
 11
-346.5
 21
-59.58
 31
0.0
  0
LINE
  5
6CD
330
18
100
AcDbEntity
  8
GUIDE
100
AcDbLine
 10
-340.5
 20
-44.5
 30
0.0
 11
-340.5
 21
-59.58
 31
0.0
  0
LINE
  5
6CE
330
18
100
AcDbEntity
  8
GUIDE
100
AcDbLine
 10
-389.0
 20
-67.09999999999999
 30
0.0
 11
-389.0
 21
-59.58
 31
0.0
  0
LINE
  5
6CF
330
18
100
AcDbEntity
  8
GUIDE
100
AcDbLine
 10
-368.0
 20
-59.58
 30
0.0
 11
-389.0
 21
-59.58
 31
0.0
  0
LINE
  5
6D0
330
18
100
AcDbEntity
  8
GUIDE
100
AcDbLine
 10
-368.0
 20
-67.09999999999999
 30
0.0
 11
-389.0
 21
-67.09999999999999
 31
0.0
  0
LINE
  5
6D1
330
18
100
AcDbEntity
  8
GUIDE
100
AcDbLine
 10
-350.5
 20
-48.26
 30
0.0
 11
-350.5
 21
-55.78
 31
0.0
  0
LINE
  5
6D2
330
18
100
AcDbEntity
  8
GUIDE
100
AcDbLine
 10
-371.5
 20
-48.26
 30
0.0
 11
-371.5
 21
-55.78
 31
0.0
  0
LINE
  5
6D3
330
18
100
AcDbEntity
  8
GUIDE
100
AcDbLine
 10
-350.5
 20
-48.26
 30
0.0
 11
-371.5
 21
-48.26
 31
0.0
  0
LINE
  5
6D4
330
18
100
AcDbEntity
  8
GUIDE
100
AcDbLine
 10
-350.5
 20
-55.78
 30
0.0
 11
-371.5
 21
-55.78
 31
0.0
  0
LINE
  5
6D5
330
18
100
AcDbEntity
  8
GUIDE
100
AcDbLine
 10
-358.0
 20
-70.5
 30
0.0
 11
-358.0
 21
-55.78
 31
0.0
  0
LINE
  5
6D6
330
18
100
AcDbEntity
  8
GUIDE
100
AcDbLine
 10
-364.0
 20
-70.5
 30
0.0
 11
-364.0
 21
-55.78
 31
0.0
  0
LINE
  5
6D7
330
18
100
AcDbEntity
  8
GUIDE
100
AcDbLine
 10
-364.0
 20
-48.26
 30
0.0
 11
-364.0
 21
-44.5
 31
0.0
  0
LINE
  5
6D8
330
18
100
AcDbEntity
  8
GUIDE
100
AcDbLine
 10
-358.0
 20
-48.26
 30
0.0
 11
-358.0
 21
-44.5
 31
0.0
  0
LINE
  5
6D9
330
18
100
AcDbEntity
  8
GUIDE
100
AcDbLine
 10
-375.5
 20
-67.09999999999999
 30
0.0
 11
-375.5
 21
-70.5
 31
0.0
  0
LINE
  5
6DA
330
18
100
AcDbEntity
  8
GUIDE
100
AcDbLine
 10
-381.5
 20
-67.09999999999999
 30
0.0
 11
-381.5
 21
-70.5
 31
0.0
  0
LINE
  5
6DB
330
18
100
AcDbEntity
  8
GUIDE
100
AcDbLine
 10
-368.0
 20
-67.09999999999999
 30
0.0
 11
-368.0
 21
-59.58
 31
0.0
  0
LINE
  5
6DC
330
18
100
AcDbEntity
  8
GUIDE
100
AcDbLine
 10
-381.5
 20
-44.5
 30
0.0
 11
-381.5
 21
-59.58
 31
0.0
  0
LINE
  5
6DD
330
18
100
AcDbEntity
  8
GUIDE
100
AcDbLine
 10
-375.5
 20
-44.5
 30
0.0
 11
-375.5
 21
-59.58
 31
0.0
  0
LINE
  5
6DE
330
18
100
AcDbEntity
  8
GUIDE
100
AcDbLine
 10
-424.0
 20
-67.09999999999999
 30
0.0
 11
-424.0
 21
-59.58
 31
0.0
  0
LINE
  5
6DF
330
18
100
AcDbEntity
  8
GUIDE
100
AcDbLine
 10
-403.0
 20
-59.58
 30
0.0
 11
-424.0
 21
-59.58
 31
0.0
  0
LINE
  5
6E0
330
18
100
AcDbEntity
  8
GUIDE
100
AcDbLine
 10
-403.0
 20
-67.09999999999999
 30
0.0
 11
-424.0
 21
-67.09999999999999
 31
0.0
  0
LINE
  5
6E1
330
18
100
AcDbEntity
  8
GUIDE
100
AcDbLine
 10
-385.5
 20
-48.26
 30
0.0
 11
-385.5
 21
-55.78
 31
0.0
  0
LINE
  5
6E2
330
18
100
AcDbEntity
  8
GUIDE
100
AcDbLine
 10
-406.5
 20
-48.26
 30
0.0
 11
-406.5
 21
-55.78
 31
0.0
  0
LINE
  5
6E3
330
18
100
AcDbEntity
  8
GUIDE
100
AcDbLine
 10
-385.5
 20
-48.26
 30
0.0
 11
-406.5
 21
-48.26
 31
0.0
  0
LINE
  5
6E4
330
18
100
AcDbEntity
  8
GUIDE
100
AcDbLine
 10
-385.5
 20
-55.78
 30
0.0
 11
-406.5
 21
-55.78
 31
0.0
  0
LINE
  5
6E5
330
18
100
AcDbEntity
  8
GUIDE
100
AcDbLine
 10
-393.0
 20
-70.5
 30
0.0
 11
-393.0
 21
-55.78
 31
0.0
  0
LINE
  5
6E6
330
18
100
AcDbEntity
  8
GUIDE
100
AcDbLine
 10
-399.0
 20
-70.5
 30
0.0
 11
-399.0
 21
-55.78
 31
0.0
  0
LINE
  5
6E7
330
18
100
AcDbEntity
  8
GUIDE
100
AcDbLine
 10
-399.0
 20
-48.26
 30
0.0
 11
-399.0
 21
-44.5
 31
0.0
  0
LINE
  5
6E8
330
18
100
AcDbEntity
  8
GUIDE
100
AcDbLine
 10
-393.0
 20
-48.26
 30
0.0
 11
-393.0
 21
-44.5
 31
0.0
  0
LINE
  5
6E9
330
18
100
AcDbEntity
  8
GUIDE
100
AcDbLine
 10
-410.5
 20
-67.09999999999999
 30
0.0
 11
-410.5
 21
-70.5
 31
0.0
  0
LINE
  5
6EA
330
18
100
AcDbEntity
  8
GUIDE
100
AcDbLine
 10
-416.5
 20
-67.09999999999999
 30
0.0
 11
-416.5
 21
-70.5
 31
0.0
  0
LINE
  5
6EB
330
18
100
AcDbEntity
  8
GUIDE
100
AcDbLine
 10
-403.0
 20
-67.09999999999999
 30
0.0
 11
-403.0
 21
-59.58
 31
0.0
  0
LINE
  5
6EC
330
18
100
AcDbEntity
  8
GUIDE
100
AcDbLine
 10
-416.5
 20
-44.5
 30
0.0
 11
-416.5
 21
-59.58
 31
0.0
  0
LINE
  5
6ED
330
18
100
AcDbEntity
  8
GUIDE
100
AcDbLine
 10
-410.5
 20
-44.5
 30
0.0
 11
-410.5
 21
-59.58
 31
0.0
  0
LINE
  5
6EE
330
18
100
AcDbEntity
  8
GUIDE
100
AcDbLine
 10
-459.0
 20
-67.09999999999999
 30
0.0
 11
-459.0
 21
-59.58
 31
0.0
  0
LINE
  5
6EF
330
18
100
AcDbEntity
  8
GUIDE
100
AcDbLine
 10
-438.0
 20
-59.58
 30
0.0
 11
-459.0
 21
-59.58
 31
0.0
  0
LINE
  5
6F0
330
18
100
AcDbEntity
  8
GUIDE
100
AcDbLine
 10
-438.0
 20
-67.09999999999999
 30
0.0
 11
-459.0
 21
-67.09999999999999
 31
0.0
  0
LINE
  5
6F1
330
18
100
AcDbEntity
  8
GUIDE
100
AcDbLine
 10
-420.5
 20
-48.26
 30
0.0
 11
-420.5
 21
-55.78
 31
0.0
  0
LINE
  5
6F2
330
18
100
AcDbEntity
  8
GUIDE
100
AcDbLine
 10
-441.5
 20
-48.26
 30
0.0
 11
-441.5
 21
-55.78
 31
0.0
  0
LINE
  5
6F3
330
18
100
AcDbEntity
  8
GUIDE
100
AcDbLine
 10
-420.5
 20
-48.26
 30
0.0
 11
-441.5
 21
-48.26
 31
0.0
  0
LINE
  5
6F4
330
18
100
AcDbEntity
  8
GUIDE
100
AcDbLine
 10
-420.5
 20
-55.78
 30
0.0
 11
-441.5
 21
-55.78
 31
0.0
  0
LINE
  5
6F5
330
18
100
AcDbEntity
  8
GUIDE
100
AcDbLine
 10
-428.0
 20
-70.5
 30
0.0
 11
-428.0
 21
-55.78
 31
0.0
  0
LINE
  5
6F6
330
18
100
AcDbEntity
  8
GUIDE
100
AcDbLine
 10
-434.0
 20
-70.5
 30
0.0
 11
-434.0
 21
-55.78
 31
0.0
  0
LINE
  5
6F7
330
18
100
AcDbEntity
  8
GUIDE
100
AcDbLine
 10
-434.0
 20
-48.26
 30
0.0
 11
-434.0
 21
-44.5
 31
0.0
  0
LINE
  5
6F8
330
18
100
AcDbEntity
  8
GUIDE
100
AcDbLine
 10
-428.0
 20
-48.26
 30
0.0
 11
-428.0
 21
-44.5
 31
0.0
  0
LINE
  5
6F9
330
18
100
AcDbEntity
  8
GUIDE
100
AcDbLine
 10
-445.5
 20
-67.09999999999999
 30
0.0
 11
-445.5
 21
-70.5
 31
0.0
  0
LINE
  5
6FA
330
18
100
AcDbEntity
  8
GUIDE
100
AcDbLine
 10
-451.5
 20
-67.09999999999999
 30
0.0
 11
-451.5
 21
-70.5
 31
0.0
  0
LINE
  5
6FB
330
18
100
AcDbEntity
  8
GUIDE
100
AcDbLine
 10
-438.0
 20
-67.09999999999999
 30
0.0
 11
-438.0
 21
-59.58
 31
0.0
  0
LINE
  5
6FC
330
18
100
AcDbEntity
  8
GUIDE
100
AcDbLine
 10
-451.5
 20
-44.5
 30
0.0
 11
-451.5
 21
-59.58
 31
0.0
  0
LINE
  5
6FD
330
18
100
AcDbEntity
  8
GUIDE
100
AcDbLine
 10
-445.5
 20
-44.5
 30
0.0
 11
-445.5
 21
-59.58
 31
0.0
  0
LINE
  5
6FE
330
18
100
AcDbEntity
  8
GUIDE
100
AcDbLine
 10
-494.0
 20
-67.09999999999999
 30
0.0
 11
-494.0
 21
-59.58
 31
0.0
  0
LINE
  5
6FF
330
18
100
AcDbEntity
  8
GUIDE
100
AcDbLine
 10
-473.0
 20
-59.58
 30
0.0
 11
-494.0
 21
-59.58
 31
0.0
  0
LINE
  5
700
330
18
100
AcDbEntity
  8
GUIDE
100
AcDbLine
 10
-473.0
 20
-67.09999999999999
 30
0.0
 11
-494.0
 21
-67.09999999999999
 31
0.0
  0
LINE
  5
701
330
18
100
AcDbEntity
  8
GUIDE
100
AcDbLine
 10
-455.5
 20
-48.26
 30
0.0
 11
-455.5
 21
-55.78
 31
0.0
  0
LINE
  5
702
330
18
100
AcDbEntity
  8
GUIDE
100
AcDbLine
 10
-476.5
 20
-48.26
 30
0.0
 11
-476.5
 21
-55.78
 31
0.0
  0
LINE
  5
703
330
18
100
AcDbEntity
  8
GUIDE
100
AcDbLine
 10
-455.5
 20
-48.26
 30
0.0
 11
-476.5
 21
-48.26
 31
0.0
  0
LINE
  5
704
330
18
100
AcDbEntity
  8
GUIDE
100
AcDbLine
 10
-455.5
 20
-55.78
 30
0.0
 11
-476.5
 21
-55.78
 31
0.0
  0
LINE
  5
705
330
18
100
AcDbEntity
  8
GUIDE
100
AcDbLine
 10
-463.0
 20
-70.5
 30
0.0
 11
-463.0
 21
-55.78
 31
0.0
  0
LINE
  5
706
330
18
100
AcDbEntity
  8
GUIDE
100
AcDbLine
 10
-469.0
 20
-70.5
 30
0.0
 11
-469.0
 21
-55.78
 31
0.0
  0
LINE
  5
707
330
18
100
AcDbEntity
  8
GUIDE
100
AcDbLine
 10
-469.0
 20
-48.26
 30
0.0
 11
-469.0
 21
-44.5
 31
0.0
  0
LINE
  5
708
330
18
100
AcDbEntity
  8
GUIDE
100
AcDbLine
 10
-463.0
 20
-48.26
 30
0.0
 11
-463.0
 21
-44.5
 31
0.0
  0
LINE
  5
709
330
18
100
AcDbEntity
  8
GUIDE
100
AcDbLine
 10
-480.5
 20
-67.09999999999999
 30
0.0
 11
-480.5
 21
-70.5
 31
0.0
  0
LINE
  5
70A
330
18
100
AcDbEntity
  8
GUIDE
100
AcDbLine
 10
-486.5
 20
-67.09999999999999
 30
0.0
 11
-486.5
 21
-70.5
 31
0.0
  0
LINE
  5
70B
330
18
100
AcDbEntity
  8
GUIDE
100
AcDbLine
 10
-473.0
 20
-67.09999999999999
 30
0.0
 11
-473.0
 21
-59.58
 31
0.0
  0
LINE
  5
70C
330
18
100
AcDbEntity
  8
GUIDE
100
AcDbLine
 10
-486.5
 20
-44.5
 30
0.0
 11
-486.5
 21
-59.58
 31
0.0
  0
LINE
  5
70D
330
18
100
AcDbEntity
  8
GUIDE
100
AcDbLine
 10
-480.5
 20
-44.5
 30
0.0
 11
-480.5
 21
-59.58
 31
0.0
  0
LINE
  5
70E
330
18
100
AcDbEntity
  8
GUIDE
100
AcDbLine
 10
-529.0
 20
-67.09999999999999
 30
0.0
 11
-529.0
 21
-59.58
 31
0.0
  0
LINE
  5
70F
330
18
100
AcDbEntity
  8
GUIDE
100
AcDbLine
 10
-508.0
 20
-59.58
 30
0.0
 11
-529.0
 21
-59.58
 31
0.0
  0
LINE
  5
710
330
18
100
AcDbEntity
  8
GUIDE
100
AcDbLine
 10
-508.0
 20
-67.09999999999999
 30
0.0
 11
-529.0
 21
-67.09999999999999
 31
0.0
  0
LINE
  5
711
330
18
100
AcDbEntity
  8
GUIDE
100
AcDbLine
 10
-490.5
 20
-48.26
 30
0.0
 11
-490.5
 21
-55.78
 31
0.0
  0
LINE
  5
712
330
18
100
AcDbEntity
  8
GUIDE
100
AcDbLine
 10
-511.5
 20
-48.26
 30
0.0
 11
-511.5
 21
-55.78
 31
0.0
  0
LINE
  5
713
330
18
100
AcDbEntity
  8
GUIDE
100
AcDbLine
 10
-490.5
 20
-48.26
 30
0.0
 11
-511.5
 21
-48.26
 31
0.0
  0
LINE
  5
714
330
18
100
AcDbEntity
  8
GUIDE
100
AcDbLine
 10
-490.5
 20
-55.78
 30
0.0
 11
-511.5
 21
-55.78
 31
0.0
  0
LINE
  5
715
330
18
100
AcDbEntity
  8
GUIDE
100
AcDbLine
 10
-498.0
 20
-70.5
 30
0.0
 11
-498.0
 21
-55.78
 31
0.0
  0
LINE
  5
716
330
18
100
AcDbEntity
  8
GUIDE
100
AcDbLine
 10
-504.0
 20
-70.5
 30
0.0
 11
-504.0
 21
-55.78
 31
0.0
  0
LINE
  5
717
330
18
100
AcDbEntity
  8
GUIDE
100
AcDbLine
 10
-504.0
 20
-48.26
 30
0.0
 11
-504.0
 21
-44.5
 31
0.0
  0
LINE
  5
718
330
18
100
AcDbEntity
  8
GUIDE
100
AcDbLine
 10
-498.0
 20
-48.26
 30
0.0
 11
-498.0
 21
-44.5
 31
0.0
  0
LINE
  5
719
330
18
100
AcDbEntity
  8
GUIDE
100
AcDbLine
 10
-515.5
 20
-67.09999999999999
 30
0.0
 11
-515.5
 21
-70.5
 31
0.0
  0
LINE
  5
71A
330
18
100
AcDbEntity
  8
GUIDE
100
AcDbLine
 10
-521.5
 20
-67.09999999999999
 30
0.0
 11
-521.5
 21
-70.5
 31
0.0
  0
LINE
  5
71B
330
18
100
AcDbEntity
  8
GUIDE
100
AcDbLine
 10
-508.0
 20
-67.09999999999999
 30
0.0
 11
-508.0
 21
-59.58
 31
0.0
  0
LINE
  5
71C
330
18
100
AcDbEntity
  8
GUIDE
100
AcDbLine
 10
-521.5
 20
-44.5
 30
0.0
 11
-521.5
 21
-59.58
 31
0.0
  0
LINE
  5
71D
330
18
100
AcDbEntity
  8
GUIDE
100
AcDbLine
 10
-515.5
 20
-44.5
 30
0.0
 11
-515.5
 21
-59.58
 31
0.0
  0
LINE
  5
71E
330
18
100
AcDbEntity
  8
GUIDE
100
AcDbLine
 10
-564.0
 20
-67.09999999999999
 30
0.0
 11
-564.0
 21
-59.58
 31
0.0
  0
LINE
  5
71F
330
18
100
AcDbEntity
  8
GUIDE
100
AcDbLine
 10
-543.0
 20
-59.58
 30
0.0
 11
-564.0
 21
-59.58
 31
0.0
  0
LINE
  5
720
330
18
100
AcDbEntity
  8
GUIDE
100
AcDbLine
 10
-543.0
 20
-67.09999999999999
 30
0.0
 11
-564.0
 21
-67.09999999999999
 31
0.0
  0
LINE
  5
721
330
18
100
AcDbEntity
  8
GUIDE
100
AcDbLine
 10
-525.5
 20
-48.26
 30
0.0
 11
-525.5
 21
-55.78
 31
0.0
  0
LINE
  5
722
330
18
100
AcDbEntity
  8
GUIDE
100
AcDbLine
 10
-546.5
 20
-48.26
 30
0.0
 11
-546.5
 21
-55.78
 31
0.0
  0
LINE
  5
723
330
18
100
AcDbEntity
  8
GUIDE
100
AcDbLine
 10
-525.5
 20
-48.26
 30
0.0
 11
-546.5
 21
-48.26
 31
0.0
  0
LINE
  5
724
330
18
100
AcDbEntity
  8
GUIDE
100
AcDbLine
 10
-525.5
 20
-55.78
 30
0.0
 11
-546.5
 21
-55.78
 31
0.0
  0
LINE
  5
725
330
18
100
AcDbEntity
  8
GUIDE
100
AcDbLine
 10
-533.0
 20
-70.5
 30
0.0
 11
-533.0
 21
-55.78
 31
0.0
  0
LINE
  5
726
330
18
100
AcDbEntity
  8
GUIDE
100
AcDbLine
 10
-539.0
 20
-70.5
 30
0.0
 11
-539.0
 21
-55.78
 31
0.0
  0
LINE
  5
727
330
18
100
AcDbEntity
  8
GUIDE
100
AcDbLine
 10
-539.0
 20
-48.26
 30
0.0
 11
-539.0
 21
-44.5
 31
0.0
  0
LINE
  5
728
330
18
100
AcDbEntity
  8
GUIDE
100
AcDbLine
 10
-533.0
 20
-48.26
 30
0.0
 11
-533.0
 21
-44.5
 31
0.0
  0
LINE
  5
729
330
18
100
AcDbEntity
  8
GUIDE
100
AcDbLine
 10
-550.5
 20
-67.09999999999999
 30
0.0
 11
-550.5
 21
-70.5
 31
0.0
  0
LINE
  5
72A
330
18
100
AcDbEntity
  8
GUIDE
100
AcDbLine
 10
-556.5
 20
-67.09999999999999
 30
0.0
 11
-556.5
 21
-70.5
 31
0.0
  0
LINE
  5
72B
330
18
100
AcDbEntity
  8
GUIDE
100
AcDbLine
 10
-543.0
 20
-67.09999999999999
 30
0.0
 11
-543.0
 21
-59.58
 31
0.0
  0
LINE
  5
72C
330
18
100
AcDbEntity
  8
GUIDE
100
AcDbLine
 10
-556.5
 20
-44.5
 30
0.0
 11
-556.5
 21
-59.58
 31
0.0
  0
LINE
  5
72D
330
18
100
AcDbEntity
  8
GUIDE
100
AcDbLine
 10
-550.5
 20
-44.5
 30
0.0
 11
-550.5
 21
-59.58
 31
0.0
  0
LINE
  5
72E
330
18
100
AcDbEntity
  8
GUIDE
100
AcDbLine
 10
-599.0
 20
-67.09999999999999
 30
0.0
 11
-599.0
 21
-59.58
 31
0.0
  0
LINE
  5
72F
330
18
100
AcDbEntity
  8
GUIDE
100
AcDbLine
 10
-578.0
 20
-59.58
 30
0.0
 11
-599.0
 21
-59.58
 31
0.0
  0
LINE
  5
730
330
18
100
AcDbEntity
  8
GUIDE
100
AcDbLine
 10
-578.0
 20
-67.09999999999999
 30
0.0
 11
-599.0
 21
-67.09999999999999
 31
0.0
  0
LINE
  5
731
330
18
100
AcDbEntity
  8
GUIDE
100
AcDbLine
 10
-560.5
 20
-48.26
 30
0.0
 11
-560.5
 21
-55.78
 31
0.0
  0
LINE
  5
732
330
18
100
AcDbEntity
  8
GUIDE
100
AcDbLine
 10
-581.5
 20
-48.26
 30
0.0
 11
-581.5
 21
-55.78
 31
0.0
  0
LINE
  5
733
330
18
100
AcDbEntity
  8
GUIDE
100
AcDbLine
 10
-560.5
 20
-48.26
 30
0.0
 11
-581.5
 21
-48.26
 31
0.0
  0
LINE
  5
734
330
18
100
AcDbEntity
  8
GUIDE
100
AcDbLine
 10
-560.5
 20
-55.78
 30
0.0
 11
-581.5
 21
-55.78
 31
0.0
  0
LINE
  5
735
330
18
100
AcDbEntity
  8
GUIDE
100
AcDbLine
 10
-568.0
 20
-70.5
 30
0.0
 11
-568.0
 21
-55.78
 31
0.0
  0
LINE
  5
736
330
18
100
AcDbEntity
  8
GUIDE
100
AcDbLine
 10
-574.0
 20
-70.5
 30
0.0
 11
-574.0
 21
-55.78
 31
0.0
  0
LINE
  5
737
330
18
100
AcDbEntity
  8
GUIDE
100
AcDbLine
 10
-574.0
 20
-48.26
 30
0.0
 11
-574.0
 21
-44.5
 31
0.0
  0
LINE
  5
738
330
18
100
AcDbEntity
  8
GUIDE
100
AcDbLine
 10
-568.0
 20
-48.26
 30
0.0
 11
-568.0
 21
-44.5
 31
0.0
  0
LINE
  5
739
330
18
100
AcDbEntity
  8
GUIDE
100
AcDbLine
 10
-585.5
 20
-67.09999999999999
 30
0.0
 11
-585.5
 21
-70.5
 31
0.0
  0
LINE
  5
73A
330
18
100
AcDbEntity
  8
GUIDE
100
AcDbLine
 10
-591.5
 20
-67.09999999999999
 30
0.0
 11
-591.5
 21
-70.5
 31
0.0
  0
LINE
  5
73B
330
18
100
AcDbEntity
  8
GUIDE
100
AcDbLine
 10
-578.0
 20
-67.09999999999999
 30
0.0
 11
-578.0
 21
-59.58
 31
0.0
  0
LINE
  5
73C
330
18
100
AcDbEntity
  8
GUIDE
100
AcDbLine
 10
-591.5
 20
-44.5
 30
0.0
 11
-591.5
 21
-59.58
 31
0.0
  0
LINE
  5
73D
330
18
100
AcDbEntity
  8
GUIDE
100
AcDbLine
 10
-585.5
 20
-44.5
 30
0.0
 11
-585.5
 21
-59.58
 31
0.0
  0
LINE
  5
73E
330
18
100
AcDbEntity
  8
GUIDE
100
AcDbLine
 10
483.0
 20
-34.5
 30
0.0
 11
483.0
 21
-48.26
 31
0.0
  0
LINE
  5
73F
330
18
100
AcDbEntity
  8
GUIDE
100
AcDbLine
 10
-1610.0
 20
-70.5
 30
0.0
 11
483.0
 21
-70.5
 31
0.0
  0
LINE
  5
740
330
18
100
AcDbEntity
  8
GUIDE
100
AcDbLine
 10
-1610.0
 20
-80.5
 30
0.0
 11
483.0
 21
-80.5
 31
0.0
  0
LINE
  5
741
330
18
100
AcDbEntity
  8
GUIDE
100
AcDbLine
 10
-620.5
 20
-44.5
 30
0.0
 11
-620.5
 21
-59.58
 31
0.0
  0
LINE
  5
742
330
18
100
AcDbEntity
  8
GUIDE
100
AcDbLine
 10
-626.5
 20
-44.5
 30
0.0
 11
-626.5
 21
-59.58
 31
0.0
  0
LINE
  5
743
330
18
100
AcDbEntity
  8
GUIDE
100
AcDbLine
 10
-613.0
 20
-67.09999999999999
 30
0.0
 11
-634.0
 21
-67.09999999999999
 31
0.0
  0
LINE
  5
744
330
18
100
AcDbEntity
  8
GUIDE
100
AcDbLine
 10
-613.0
 20
-59.58
 30
0.0
 11
-634.0
 21
-59.58
 31
0.0
  0
LINE
  5
745
330
18
100
AcDbEntity
  8
GUIDE
100
AcDbLine
 10
-634.0
 20
-67.09999999999999
 30
0.0
 11
-634.0
 21
-59.58
 31
0.0
  0
LINE
  5
746
330
18
100
AcDbEntity
  8
GUIDE
100
AcDbLine
 10
-613.0
 20
-67.09999999999999
 30
0.0
 11
-613.0
 21
-59.58
 31
0.0
  0
LINE
  5
747
330
18
100
AcDbEntity
  8
GUIDE
100
AcDbLine
 10
-626.5
 20
-67.09999999999999
 30
0.0
 11
-626.5
 21
-70.5
 31
0.0
  0
LINE
  5
748
330
18
100
AcDbEntity
  8
GUIDE
100
AcDbLine
 10
-620.5
 20
-67.09999999999999
 30
0.0
 11
-620.5
 21
-70.5
 31
0.0
  0
LINE
  5
749
330
18
100
AcDbEntity
  8
GUIDE
100
AcDbLine
 10
-603.0
 20
-48.26
 30
0.0
 11
-603.0
 21
-44.5
 31
0.0
  0
LINE
  5
74A
330
18
100
AcDbEntity
  8
GUIDE
100
AcDbLine
 10
-609.0
 20
-48.26
 30
0.0
 11
-609.0
 21
-44.5
 31
0.0
  0
LINE
  5
74B
330
18
100
AcDbEntity
  8
GUIDE
100
AcDbLine
 10
-609.0
 20
-70.5
 30
0.0
 11
-609.0
 21
-55.78
 31
0.0
  0
LINE
  5
74C
330
18
100
AcDbEntity
  8
GUIDE
100
AcDbLine
 10
-603.0
 20
-70.5
 30
0.0
 11
-603.0
 21
-55.78
 31
0.0
  0
LINE
  5
74D
330
18
100
AcDbEntity
  8
GUIDE
100
AcDbLine
 10
-595.5
 20
-55.78
 30
0.0
 11
-616.5
 21
-55.78
 31
0.0
  0
LINE
  5
74E
330
18
100
AcDbEntity
  8
GUIDE
100
AcDbLine
 10
-595.5
 20
-48.26
 30
0.0
 11
-616.5
 21
-48.26
 31
0.0
  0
LINE
  5
74F
330
18
100
AcDbEntity
  8
GUIDE
100
AcDbLine
 10
-616.5
 20
-48.26
 30
0.0
 11
-616.5
 21
-55.78
 31
0.0
  0
LINE
  5
750
330
18
100
AcDbEntity
  8
GUIDE
100
AcDbLine
 10
-595.5
 20
-48.26
 30
0.0
 11
-595.5
 21
-55.78
 31
0.0
  0
LINE
  5
751
330
18
100
AcDbEntity
  8
GUIDE
100
AcDbLine
 10
-655.5
 20
-44.5
 30
0.0
 11
-655.5
 21
-59.58
 31
0.0
  0
LINE
  5
752
330
18
100
AcDbEntity
  8
GUIDE
100
AcDbLine
 10
-661.5
 20
-44.5
 30
0.0
 11
-661.5
 21
-59.58
 31
0.0
  0
LINE
  5
753
330
18
100
AcDbEntity
  8
GUIDE
100
AcDbLine
 10
-648.0
 20
-67.09999999999999
 30
0.0
 11
-669.0
 21
-67.09999999999999
 31
0.0
  0
LINE
  5
754
330
18
100
AcDbEntity
  8
GUIDE
100
AcDbLine
 10
-648.0
 20
-59.58
 30
0.0
 11
-669.0
 21
-59.58
 31
0.0
  0
LINE
  5
755
330
18
100
AcDbEntity
  8
GUIDE
100
AcDbLine
 10
-669.0
 20
-67.09999999999999
 30
0.0
 11
-669.0
 21
-59.58
 31
0.0
  0
LINE
  5
756
330
18
100
AcDbEntity
  8
GUIDE
100
AcDbLine
 10
-648.0
 20
-67.09999999999999
 30
0.0
 11
-648.0
 21
-59.58
 31
0.0
  0
LINE
  5
757
330
18
100
AcDbEntity
  8
GUIDE
100
AcDbLine
 10
-661.5
 20
-67.09999999999999
 30
0.0
 11
-661.5
 21
-70.5
 31
0.0
  0
LINE
  5
758
330
18
100
AcDbEntity
  8
GUIDE
100
AcDbLine
 10
-655.5
 20
-67.09999999999999
 30
0.0
 11
-655.5
 21
-70.5
 31
0.0
  0
LINE
  5
759
330
18
100
AcDbEntity
  8
GUIDE
100
AcDbLine
 10
-638.0
 20
-48.26
 30
0.0
 11
-638.0
 21
-44.5
 31
0.0
  0
LINE
  5
75A
330
18
100
AcDbEntity
  8
GUIDE
100
AcDbLine
 10
-644.0
 20
-48.26
 30
0.0
 11
-644.0
 21
-44.5
 31
0.0
  0
LINE
  5
75B
330
18
100
AcDbEntity
  8
GUIDE
100
AcDbLine
 10
-644.0
 20
-70.5
 30
0.0
 11
-644.0
 21
-55.78
 31
0.0
  0
LINE
  5
75C
330
18
100
AcDbEntity
  8
GUIDE
100
AcDbLine
 10
-638.0
 20
-70.5
 30
0.0
 11
-638.0
 21
-55.78
 31
0.0
  0
LINE
  5
75D
330
18
100
AcDbEntity
  8
GUIDE
100
AcDbLine
 10
-630.5
 20
-55.78
 30
0.0
 11
-651.5
 21
-55.78
 31
0.0
  0
LINE
  5
75E
330
18
100
AcDbEntity
  8
GUIDE
100
AcDbLine
 10
-630.5
 20
-48.26
 30
0.0
 11
-651.5
 21
-48.26
 31
0.0
  0
LINE
  5
75F
330
18
100
AcDbEntity
  8
GUIDE
100
AcDbLine
 10
-651.5
 20
-48.26
 30
0.0
 11
-651.5
 21
-55.78
 31
0.0
  0
LINE
  5
760
330
18
100
AcDbEntity
  8
GUIDE
100
AcDbLine
 10
-630.5
 20
-48.26
 30
0.0
 11
-630.5
 21
-55.78
 31
0.0
  0
LINE
  5
761
330
18
100
AcDbEntity
  8
GUIDE
100
AcDbLine
 10
-690.5
 20
-44.5
 30
0.0
 11
-690.5
 21
-59.58
 31
0.0
  0
LINE
  5
762
330
18
100
AcDbEntity
  8
GUIDE
100
AcDbLine
 10
-696.5
 20
-44.5
 30
0.0
 11
-696.5
 21
-59.58
 31
0.0
  0
LINE
  5
763
330
18
100
AcDbEntity
  8
GUIDE
100
AcDbLine
 10
-683.0
 20
-67.09999999999999
 30
0.0
 11
-704.0
 21
-67.09999999999999
 31
0.0
  0
LINE
  5
764
330
18
100
AcDbEntity
  8
GUIDE
100
AcDbLine
 10
-683.0
 20
-59.58
 30
0.0
 11
-704.0
 21
-59.58
 31
0.0
  0
LINE
  5
765
330
18
100
AcDbEntity
  8
GUIDE
100
AcDbLine
 10
-704.0
 20
-67.09999999999999
 30
0.0
 11
-704.0
 21
-59.58
 31
0.0
  0
LINE
  5
766
330
18
100
AcDbEntity
  8
GUIDE
100
AcDbLine
 10
-683.0
 20
-67.09999999999999
 30
0.0
 11
-683.0
 21
-59.58
 31
0.0
  0
LINE
  5
767
330
18
100
AcDbEntity
  8
GUIDE
100
AcDbLine
 10
-696.5
 20
-67.09999999999999
 30
0.0
 11
-696.5
 21
-70.5
 31
0.0
  0
LINE
  5
768
330
18
100
AcDbEntity
  8
GUIDE
100
AcDbLine
 10
-690.5
 20
-67.09999999999999
 30
0.0
 11
-690.5
 21
-70.5
 31
0.0
  0
LINE
  5
769
330
18
100
AcDbEntity
  8
GUIDE
100
AcDbLine
 10
-673.0
 20
-48.26
 30
0.0
 11
-673.0
 21
-44.5
 31
0.0
  0
LINE
  5
76A
330
18
100
AcDbEntity
  8
GUIDE
100
AcDbLine
 10
-679.0
 20
-48.26
 30
0.0
 11
-679.0
 21
-44.5
 31
0.0
  0
LINE
  5
76B
330
18
100
AcDbEntity
  8
GUIDE
100
AcDbLine
 10
-679.0
 20
-70.5
 30
0.0
 11
-679.0
 21
-55.78
 31
0.0
  0
LINE
  5
76C
330
18
100
AcDbEntity
  8
GUIDE
100
AcDbLine
 10
-673.0
 20
-70.5
 30
0.0
 11
-673.0
 21
-55.78
 31
0.0
  0
LINE
  5
76D
330
18
100
AcDbEntity
  8
GUIDE
100
AcDbLine
 10
-665.5
 20
-55.78
 30
0.0
 11
-686.5
 21
-55.78
 31
0.0
  0
LINE
  5
76E
330
18
100
AcDbEntity
  8
GUIDE
100
AcDbLine
 10
-665.5
 20
-48.26
 30
0.0
 11
-686.5
 21
-48.26
 31
0.0
  0
LINE
  5
76F
330
18
100
AcDbEntity
  8
GUIDE
100
AcDbLine
 10
-686.5
 20
-48.26
 30
0.0
 11
-686.5
 21
-55.78
 31
0.0
  0
LINE
  5
770
330
18
100
AcDbEntity
  8
GUIDE
100
AcDbLine
 10
-665.5
 20
-48.26
 30
0.0
 11
-665.5
 21
-55.78
 31
0.0
  0
LINE
  5
771
330
18
100
AcDbEntity
  8
GUIDE
100
AcDbLine
 10
-725.5
 20
-44.5
 30
0.0
 11
-725.5
 21
-59.58
 31
0.0
  0
LINE
  5
772
330
18
100
AcDbEntity
  8
GUIDE
100
AcDbLine
 10
-731.5
 20
-44.5
 30
0.0
 11
-731.5
 21
-59.58
 31
0.0
  0
LINE
  5
773
330
18
100
AcDbEntity
  8
GUIDE
100
AcDbLine
 10
-718.0
 20
-67.09999999999999
 30
0.0
 11
-739.0
 21
-67.09999999999999
 31
0.0
  0
LINE
  5
774
330
18
100
AcDbEntity
  8
GUIDE
100
AcDbLine
 10
-718.0
 20
-59.58
 30
0.0
 11
-739.0
 21
-59.58
 31
0.0
  0
LINE
  5
775
330
18
100
AcDbEntity
  8
GUIDE
100
AcDbLine
 10
-739.0
 20
-67.09999999999999
 30
0.0
 11
-739.0
 21
-59.58
 31
0.0
  0
LINE
  5
776
330
18
100
AcDbEntity
  8
GUIDE
100
AcDbLine
 10
-718.0
 20
-67.09999999999999
 30
0.0
 11
-718.0
 21
-59.58
 31
0.0
  0
LINE
  5
777
330
18
100
AcDbEntity
  8
GUIDE
100
AcDbLine
 10
-731.5
 20
-67.09999999999999
 30
0.0
 11
-731.5
 21
-70.5
 31
0.0
  0
LINE
  5
778
330
18
100
AcDbEntity
  8
GUIDE
100
AcDbLine
 10
-725.5
 20
-67.09999999999999
 30
0.0
 11
-725.5
 21
-70.5
 31
0.0
  0
LINE
  5
779
330
18
100
AcDbEntity
  8
GUIDE
100
AcDbLine
 10
-708.0
 20
-48.26
 30
0.0
 11
-708.0
 21
-44.5
 31
0.0
  0
LINE
  5
77A
330
18
100
AcDbEntity
  8
GUIDE
100
AcDbLine
 10
-714.0
 20
-48.26
 30
0.0
 11
-714.0
 21
-44.5
 31
0.0
  0
LINE
  5
77B
330
18
100
AcDbEntity
  8
GUIDE
100
AcDbLine
 10
-714.0
 20
-70.5
 30
0.0
 11
-714.0
 21
-55.78
 31
0.0
  0
LINE
  5
77C
330
18
100
AcDbEntity
  8
GUIDE
100
AcDbLine
 10
-708.0
 20
-70.5
 30
0.0
 11
-708.0
 21
-55.78
 31
0.0
  0
LINE
  5
77D
330
18
100
AcDbEntity
  8
GUIDE
100
AcDbLine
 10
-700.5
 20
-55.78
 30
0.0
 11
-721.5
 21
-55.78
 31
0.0
  0
LINE
  5
77E
330
18
100
AcDbEntity
  8
GUIDE
100
AcDbLine
 10
-700.5
 20
-48.26
 30
0.0
 11
-721.5
 21
-48.26
 31
0.0
  0
LINE
  5
77F
330
18
100
AcDbEntity
  8
GUIDE
100
AcDbLine
 10
-721.5
 20
-48.26
 30
0.0
 11
-721.5
 21
-55.78
 31
0.0
  0
LINE
  5
780
330
18
100
AcDbEntity
  8
GUIDE
100
AcDbLine
 10
-700.5
 20
-48.26
 30
0.0
 11
-700.5
 21
-55.78
 31
0.0
  0
LINE
  5
781
330
18
100
AcDbEntity
  8
GUIDE
100
AcDbLine
 10
-760.5
 20
-44.5
 30
0.0
 11
-760.5
 21
-59.58
 31
0.0
  0
LINE
  5
782
330
18
100
AcDbEntity
  8
GUIDE
100
AcDbLine
 10
-766.5
 20
-44.5
 30
0.0
 11
-766.5
 21
-59.58
 31
0.0
  0
LINE
  5
783
330
18
100
AcDbEntity
  8
GUIDE
100
AcDbLine
 10
-753.0
 20
-67.09999999999999
 30
0.0
 11
-774.0
 21
-67.09999999999999
 31
0.0
  0
LINE
  5
784
330
18
100
AcDbEntity
  8
GUIDE
100
AcDbLine
 10
-753.0
 20
-59.58
 30
0.0
 11
-774.0
 21
-59.58
 31
0.0
  0
LINE
  5
785
330
18
100
AcDbEntity
  8
GUIDE
100
AcDbLine
 10
-774.0
 20
-67.09999999999999
 30
0.0
 11
-774.0
 21
-59.58
 31
0.0
  0
LINE
  5
786
330
18
100
AcDbEntity
  8
GUIDE
100
AcDbLine
 10
-753.0
 20
-67.09999999999999
 30
0.0
 11
-753.0
 21
-59.58
 31
0.0
  0
LINE
  5
787
330
18
100
AcDbEntity
  8
GUIDE
100
AcDbLine
 10
-766.5
 20
-67.09999999999999
 30
0.0
 11
-766.5
 21
-70.5
 31
0.0
  0
LINE
  5
788
330
18
100
AcDbEntity
  8
GUIDE
100
AcDbLine
 10
-760.5
 20
-67.09999999999999
 30
0.0
 11
-760.5
 21
-70.5
 31
0.0
  0
LINE
  5
789
330
18
100
AcDbEntity
  8
GUIDE
100
AcDbLine
 10
-743.0
 20
-48.26
 30
0.0
 11
-743.0
 21
-44.5
 31
0.0
  0
LINE
  5
78A
330
18
100
AcDbEntity
  8
GUIDE
100
AcDbLine
 10
-749.0
 20
-48.26
 30
0.0
 11
-749.0
 21
-44.5
 31
0.0
  0
LINE
  5
78B
330
18
100
AcDbEntity
  8
GUIDE
100
AcDbLine
 10
-749.0
 20
-70.5
 30
0.0
 11
-749.0
 21
-55.78
 31
0.0
  0
LINE
  5
78C
330
18
100
AcDbEntity
  8
GUIDE
100
AcDbLine
 10
-743.0
 20
-70.5
 30
0.0
 11
-743.0
 21
-55.78
 31
0.0
  0
LINE
  5
78D
330
18
100
AcDbEntity
  8
GUIDE
100
AcDbLine
 10
-735.5
 20
-55.78
 30
0.0
 11
-756.5
 21
-55.78
 31
0.0
  0
LINE
  5
78E
330
18
100
AcDbEntity
  8
GUIDE
100
AcDbLine
 10
-735.5
 20
-48.26
 30
0.0
 11
-756.5
 21
-48.26
 31
0.0
  0
LINE
  5
78F
330
18
100
AcDbEntity
  8
GUIDE
100
AcDbLine
 10
-756.5
 20
-48.26
 30
0.0
 11
-756.5
 21
-55.78
 31
0.0
  0
LINE
  5
790
330
18
100
AcDbEntity
  8
GUIDE
100
AcDbLine
 10
-735.5
 20
-48.26
 30
0.0
 11
-735.5
 21
-55.78
 31
0.0
  0
LINE
  5
791
330
18
100
AcDbEntity
  8
GUIDE
100
AcDbLine
 10
-795.5
 20
-44.5
 30
0.0
 11
-795.5
 21
-59.58
 31
0.0
  0
LINE
  5
792
330
18
100
AcDbEntity
  8
GUIDE
100
AcDbLine
 10
-801.5
 20
-44.5
 30
0.0
 11
-801.5
 21
-59.58
 31
0.0
  0
LINE
  5
793
330
18
100
AcDbEntity
  8
GUIDE
100
AcDbLine
 10
-788.0
 20
-67.09999999999999
 30
0.0
 11
-809.0
 21
-67.09999999999999
 31
0.0
  0
LINE
  5
794
330
18
100
AcDbEntity
  8
GUIDE
100
AcDbLine
 10
-788.0
 20
-59.58
 30
0.0
 11
-809.0
 21
-59.58
 31
0.0
  0
LINE
  5
795
330
18
100
AcDbEntity
  8
GUIDE
100
AcDbLine
 10
-809.0
 20
-67.09999999999999
 30
0.0
 11
-809.0
 21
-59.58
 31
0.0
  0
LINE
  5
796
330
18
100
AcDbEntity
  8
GUIDE
100
AcDbLine
 10
-788.0
 20
-67.09999999999999
 30
0.0
 11
-788.0
 21
-59.58
 31
0.0
  0
LINE
  5
797
330
18
100
AcDbEntity
  8
GUIDE
100
AcDbLine
 10
-801.5
 20
-67.09999999999999
 30
0.0
 11
-801.5
 21
-70.5
 31
0.0
  0
LINE
  5
798
330
18
100
AcDbEntity
  8
GUIDE
100
AcDbLine
 10
-795.5
 20
-67.09999999999999
 30
0.0
 11
-795.5
 21
-70.5
 31
0.0
  0
LINE
  5
799
330
18
100
AcDbEntity
  8
GUIDE
100
AcDbLine
 10
-778.0
 20
-48.26
 30
0.0
 11
-778.0
 21
-44.5
 31
0.0
  0
LINE
  5
79A
330
18
100
AcDbEntity
  8
GUIDE
100
AcDbLine
 10
-784.0
 20
-48.26
 30
0.0
 11
-784.0
 21
-44.5
 31
0.0
  0
LINE
  5
79B
330
18
100
AcDbEntity
  8
GUIDE
100
AcDbLine
 10
-784.0
 20
-70.5
 30
0.0
 11
-784.0
 21
-55.78
 31
0.0
  0
LINE
  5
79C
330
18
100
AcDbEntity
  8
GUIDE
100
AcDbLine
 10
-778.0
 20
-70.5
 30
0.0
 11
-778.0
 21
-55.78
 31
0.0
  0
LINE
  5
79D
330
18
100
AcDbEntity
  8
GUIDE
100
AcDbLine
 10
-770.5
 20
-55.78
 30
0.0
 11
-791.5
 21
-55.78
 31
0.0
  0
LINE
  5
79E
330
18
100
AcDbEntity
  8
GUIDE
100
AcDbLine
 10
-770.5
 20
-48.26
 30
0.0
 11
-791.5
 21
-48.26
 31
0.0
  0
LINE
  5
79F
330
18
100
AcDbEntity
  8
GUIDE
100
AcDbLine
 10
-791.5
 20
-48.26
 30
0.0
 11
-791.5
 21
-55.78
 31
0.0
  0
LINE
  5
7A0
330
18
100
AcDbEntity
  8
GUIDE
100
AcDbLine
 10
-770.5
 20
-48.26
 30
0.0
 11
-770.5
 21
-55.78
 31
0.0
  0
LINE
  5
7A1
330
18
100
AcDbEntity
  8
GUIDE
100
AcDbLine
 10
-830.5
 20
-44.5
 30
0.0
 11
-830.5
 21
-59.58
 31
0.0
  0
LINE
  5
7A2
330
18
100
AcDbEntity
  8
GUIDE
100
AcDbLine
 10
-836.5
 20
-44.5
 30
0.0
 11
-836.5
 21
-59.58
 31
0.0
  0
LINE
  5
7A3
330
18
100
AcDbEntity
  8
GUIDE
100
AcDbLine
 10
-823.0
 20
-67.09999999999999
 30
0.0
 11
-844.0
 21
-67.09999999999999
 31
0.0
  0
LINE
  5
7A4
330
18
100
AcDbEntity
  8
GUIDE
100
AcDbLine
 10
-823.0
 20
-59.58
 30
0.0
 11
-844.0
 21
-59.58
 31
0.0
  0
LINE
  5
7A5
330
18
100
AcDbEntity
  8
GUIDE
100
AcDbLine
 10
-844.0
 20
-67.09999999999999
 30
0.0
 11
-844.0
 21
-59.58
 31
0.0
  0
LINE
  5
7A6
330
18
100
AcDbEntity
  8
GUIDE
100
AcDbLine
 10
-823.0
 20
-67.09999999999999
 30
0.0
 11
-823.0
 21
-59.58
 31
0.0
  0
LINE
  5
7A7
330
18
100
AcDbEntity
  8
GUIDE
100
AcDbLine
 10
-836.5
 20
-67.09999999999999
 30
0.0
 11
-836.5
 21
-70.5
 31
0.0
  0
LINE
  5
7A8
330
18
100
AcDbEntity
  8
GUIDE
100
AcDbLine
 10
-830.5
 20
-67.09999999999999
 30
0.0
 11
-830.5
 21
-70.5
 31
0.0
  0
LINE
  5
7A9
330
18
100
AcDbEntity
  8
GUIDE
100
AcDbLine
 10
-813.0
 20
-48.26
 30
0.0
 11
-813.0
 21
-44.5
 31
0.0
  0
LINE
  5
7AA
330
18
100
AcDbEntity
  8
GUIDE
100
AcDbLine
 10
-819.0
 20
-48.26
 30
0.0
 11
-819.0
 21
-44.5
 31
0.0
  0
LINE
  5
7AB
330
18
100
AcDbEntity
  8
GUIDE
100
AcDbLine
 10
-819.0
 20
-70.5
 30
0.0
 11
-819.0
 21
-55.78
 31
0.0
  0
LINE
  5
7AC
330
18
100
AcDbEntity
  8
GUIDE
100
AcDbLine
 10
-813.0
 20
-70.5
 30
0.0
 11
-813.0
 21
-55.78
 31
0.0
  0
LINE
  5
7AD
330
18
100
AcDbEntity
  8
GUIDE
100
AcDbLine
 10
-805.5
 20
-55.78
 30
0.0
 11
-826.5
 21
-55.78
 31
0.0
  0
LINE
  5
7AE
330
18
100
AcDbEntity
  8
GUIDE
100
AcDbLine
 10
-805.5
 20
-48.26
 30
0.0
 11
-826.5
 21
-48.26
 31
0.0
  0
LINE
  5
7AF
330
18
100
AcDbEntity
  8
GUIDE
100
AcDbLine
 10
-826.5
 20
-48.26
 30
0.0
 11
-826.5
 21
-55.78
 31
0.0
  0
LINE
  5
7B0
330
18
100
AcDbEntity
  8
GUIDE
100
AcDbLine
 10
-805.5
 20
-48.26
 30
0.0
 11
-805.5
 21
-55.78
 31
0.0
  0
LINE
  5
7B1
330
18
100
AcDbEntity
  8
GUIDE
100
AcDbLine
 10
-865.5
 20
-44.5
 30
0.0
 11
-865.5
 21
-59.58
 31
0.0
  0
LINE
  5
7B2
330
18
100
AcDbEntity
  8
GUIDE
100
AcDbLine
 10
-871.5
 20
-44.5
 30
0.0
 11
-871.5
 21
-59.58
 31
0.0
  0
LINE
  5
7B3
330
18
100
AcDbEntity
  8
GUIDE
100
AcDbLine
 10
-858.0
 20
-67.09999999999999
 30
0.0
 11
-879.0
 21
-67.09999999999999
 31
0.0
  0
LINE
  5
7B4
330
18
100
AcDbEntity
  8
GUIDE
100
AcDbLine
 10
-858.0
 20
-59.58
 30
0.0
 11
-879.0
 21
-59.58
 31
0.0
  0
LINE
  5
7B5
330
18
100
AcDbEntity
  8
GUIDE
100
AcDbLine
 10
-879.0
 20
-67.09999999999999
 30
0.0
 11
-879.0
 21
-59.58
 31
0.0
  0
LINE
  5
7B6
330
18
100
AcDbEntity
  8
GUIDE
100
AcDbLine
 10
-858.0
 20
-67.09999999999999
 30
0.0
 11
-858.0
 21
-59.58
 31
0.0
  0
LINE
  5
7B7
330
18
100
AcDbEntity
  8
GUIDE
100
AcDbLine
 10
-871.5
 20
-67.09999999999999
 30
0.0
 11
-871.5
 21
-70.5
 31
0.0
  0
LINE
  5
7B8
330
18
100
AcDbEntity
  8
GUIDE
100
AcDbLine
 10
-865.5
 20
-67.09999999999999
 30
0.0
 11
-865.5
 21
-70.5
 31
0.0
  0
LINE
  5
7B9
330
18
100
AcDbEntity
  8
GUIDE
100
AcDbLine
 10
-848.0
 20
-48.26
 30
0.0
 11
-848.0
 21
-44.5
 31
0.0
  0
LINE
  5
7BA
330
18
100
AcDbEntity
  8
GUIDE
100
AcDbLine
 10
-854.0
 20
-48.26
 30
0.0
 11
-854.0
 21
-44.5
 31
0.0
  0
LINE
  5
7BB
330
18
100
AcDbEntity
  8
GUIDE
100
AcDbLine
 10
-854.0
 20
-70.5
 30
0.0
 11
-854.0
 21
-55.78
 31
0.0
  0
LINE
  5
7BC
330
18
100
AcDbEntity
  8
GUIDE
100
AcDbLine
 10
-848.0
 20
-70.5
 30
0.0
 11
-848.0
 21
-55.78
 31
0.0
  0
LINE
  5
7BD
330
18
100
AcDbEntity
  8
GUIDE
100
AcDbLine
 10
-840.5
 20
-55.78
 30
0.0
 11
-861.5
 21
-55.78
 31
0.0
  0
LINE
  5
7BE
330
18
100
AcDbEntity
  8
GUIDE
100
AcDbLine
 10
-840.5
 20
-48.26
 30
0.0
 11
-861.5
 21
-48.26
 31
0.0
  0
LINE
  5
7BF
330
18
100
AcDbEntity
  8
GUIDE
100
AcDbLine
 10
-861.5
 20
-48.26
 30
0.0
 11
-861.5
 21
-55.78
 31
0.0
  0
LINE
  5
7C0
330
18
100
AcDbEntity
  8
GUIDE
100
AcDbLine
 10
-840.5
 20
-48.26
 30
0.0
 11
-840.5
 21
-55.78
 31
0.0
  0
LINE
  5
7C1
330
18
100
AcDbEntity
  8
GUIDE
100
AcDbLine
 10
-900.5
 20
-44.5
 30
0.0
 11
-900.5
 21
-59.58
 31
0.0
  0
LINE
  5
7C2
330
18
100
AcDbEntity
  8
GUIDE
100
AcDbLine
 10
-906.5
 20
-44.5
 30
0.0
 11
-906.5
 21
-59.58
 31
0.0
  0
LINE
  5
7C3
330
18
100
AcDbEntity
  8
GUIDE
100
AcDbLine
 10
-893.0
 20
-67.09999999999999
 30
0.0
 11
-914.0
 21
-67.09999999999999
 31
0.0
  0
LINE
  5
7C4
330
18
100
AcDbEntity
  8
GUIDE
100
AcDbLine
 10
-893.0
 20
-59.58
 30
0.0
 11
-914.0
 21
-59.58
 31
0.0
  0
LINE
  5
7C5
330
18
100
AcDbEntity
  8
GUIDE
100
AcDbLine
 10
-914.0
 20
-67.09999999999999
 30
0.0
 11
-914.0
 21
-59.58
 31
0.0
  0
LINE
  5
7C6
330
18
100
AcDbEntity
  8
GUIDE
100
AcDbLine
 10
-893.0
 20
-67.09999999999999
 30
0.0
 11
-893.0
 21
-59.58
 31
0.0
  0
LINE
  5
7C7
330
18
100
AcDbEntity
  8
GUIDE
100
AcDbLine
 10
-906.5
 20
-67.09999999999999
 30
0.0
 11
-906.5
 21
-70.5
 31
0.0
  0
LINE
  5
7C8
330
18
100
AcDbEntity
  8
GUIDE
100
AcDbLine
 10
-900.5
 20
-67.09999999999999
 30
0.0
 11
-900.5
 21
-70.5
 31
0.0
  0
LINE
  5
7C9
330
18
100
AcDbEntity
  8
GUIDE
100
AcDbLine
 10
-883.0
 20
-48.26
 30
0.0
 11
-883.0
 21
-44.5
 31
0.0
  0
LINE
  5
7CA
330
18
100
AcDbEntity
  8
GUIDE
100
AcDbLine
 10
-889.0
 20
-48.26
 30
0.0
 11
-889.0
 21
-44.5
 31
0.0
  0
LINE
  5
7CB
330
18
100
AcDbEntity
  8
GUIDE
100
AcDbLine
 10
-889.0
 20
-70.5
 30
0.0
 11
-889.0
 21
-55.78
 31
0.0
  0
LINE
  5
7CC
330
18
100
AcDbEntity
  8
GUIDE
100
AcDbLine
 10
-883.0
 20
-70.5
 30
0.0
 11
-883.0
 21
-55.78
 31
0.0
  0
LINE
  5
7CD
330
18
100
AcDbEntity
  8
GUIDE
100
AcDbLine
 10
-875.5
 20
-55.78
 30
0.0
 11
-896.5
 21
-55.78
 31
0.0
  0
LINE
  5
7CE
330
18
100
AcDbEntity
  8
GUIDE
100
AcDbLine
 10
-875.5
 20
-48.26
 30
0.0
 11
-896.5
 21
-48.26
 31
0.0
  0
LINE
  5
7CF
330
18
100
AcDbEntity
  8
GUIDE
100
AcDbLine
 10
-896.5
 20
-48.26
 30
0.0
 11
-896.5
 21
-55.78
 31
0.0
  0
LINE
  5
7D0
330
18
100
AcDbEntity
  8
GUIDE
100
AcDbLine
 10
-875.5
 20
-48.26
 30
0.0
 11
-875.5
 21
-55.78
 31
0.0
  0
LINE
  5
7D1
330
18
100
AcDbEntity
  8
GUIDE
100
AcDbLine
 10
-935.5
 20
-44.5
 30
0.0
 11
-935.5
 21
-59.58
 31
0.0
  0
LINE
  5
7D2
330
18
100
AcDbEntity
  8
GUIDE
100
AcDbLine
 10
-941.5
 20
-44.5
 30
0.0
 11
-941.5
 21
-59.58
 31
0.0
  0
LINE
  5
7D3
330
18
100
AcDbEntity
  8
GUIDE
100
AcDbLine
 10
-928.0
 20
-67.09999999999999
 30
0.0
 11
-949.0
 21
-67.09999999999999
 31
0.0
  0
LINE
  5
7D4
330
18
100
AcDbEntity
  8
GUIDE
100
AcDbLine
 10
-928.0
 20
-59.58
 30
0.0
 11
-949.0
 21
-59.58
 31
0.0
  0
LINE
  5
7D5
330
18
100
AcDbEntity
  8
GUIDE
100
AcDbLine
 10
-949.0
 20
-67.09999999999999
 30
0.0
 11
-949.0
 21
-59.58
 31
0.0
  0
LINE
  5
7D6
330
18
100
AcDbEntity
  8
GUIDE
100
AcDbLine
 10
-928.0
 20
-67.09999999999999
 30
0.0
 11
-928.0
 21
-59.58
 31
0.0
  0
LINE
  5
7D7
330
18
100
AcDbEntity
  8
GUIDE
100
AcDbLine
 10
-941.5
 20
-67.09999999999999
 30
0.0
 11
-941.5
 21
-70.5
 31
0.0
  0
LINE
  5
7D8
330
18
100
AcDbEntity
  8
GUIDE
100
AcDbLine
 10
-935.5
 20
-67.09999999999999
 30
0.0
 11
-935.5
 21
-70.5
 31
0.0
  0
LINE
  5
7D9
330
18
100
AcDbEntity
  8
GUIDE
100
AcDbLine
 10
-918.0
 20
-48.26
 30
0.0
 11
-918.0
 21
-44.5
 31
0.0
  0
LINE
  5
7DA
330
18
100
AcDbEntity
  8
GUIDE
100
AcDbLine
 10
-924.0
 20
-48.26
 30
0.0
 11
-924.0
 21
-44.5
 31
0.0
  0
LINE
  5
7DB
330
18
100
AcDbEntity
  8
GUIDE
100
AcDbLine
 10
-924.0
 20
-70.5
 30
0.0
 11
-924.0
 21
-55.78
 31
0.0
  0
LINE
  5
7DC
330
18
100
AcDbEntity
  8
GUIDE
100
AcDbLine
 10
-918.0
 20
-70.5
 30
0.0
 11
-918.0
 21
-55.78
 31
0.0
  0
LINE
  5
7DD
330
18
100
AcDbEntity
  8
GUIDE
100
AcDbLine
 10
-910.5
 20
-55.78
 30
0.0
 11
-931.5
 21
-55.78
 31
0.0
  0
LINE
  5
7DE
330
18
100
AcDbEntity
  8
GUIDE
100
AcDbLine
 10
-910.5
 20
-48.26
 30
0.0
 11
-931.5
 21
-48.26
 31
0.0
  0
LINE
  5
7DF
330
18
100
AcDbEntity
  8
GUIDE
100
AcDbLine
 10
-931.5
 20
-48.26
 30
0.0
 11
-931.5
 21
-55.78
 31
0.0
  0
LINE
  5
7E0
330
18
100
AcDbEntity
  8
GUIDE
100
AcDbLine
 10
-910.5
 20
-48.26
 30
0.0
 11
-910.5
 21
-55.78
 31
0.0
  0
LINE
  5
7E1
330
18
100
AcDbEntity
  8
GUIDE
100
AcDbLine
 10
-970.5
 20
-44.5
 30
0.0
 11
-970.5
 21
-59.58
 31
0.0
  0
LINE
  5
7E2
330
18
100
AcDbEntity
  8
GUIDE
100
AcDbLine
 10
-976.5
 20
-44.5
 30
0.0
 11
-976.5
 21
-59.58
 31
0.0
  0
LINE
  5
7E3
330
18
100
AcDbEntity
  8
GUIDE
100
AcDbLine
 10
-963.0
 20
-67.09999999999999
 30
0.0
 11
-984.0
 21
-67.09999999999999
 31
0.0
  0
LINE
  5
7E4
330
18
100
AcDbEntity
  8
GUIDE
100
AcDbLine
 10
-963.0
 20
-59.58
 30
0.0
 11
-984.0
 21
-59.58
 31
0.0
  0
LINE
  5
7E5
330
18
100
AcDbEntity
  8
GUIDE
100
AcDbLine
 10
-984.0
 20
-67.09999999999999
 30
0.0
 11
-984.0
 21
-59.58
 31
0.0
  0
LINE
  5
7E6
330
18
100
AcDbEntity
  8
GUIDE
100
AcDbLine
 10
-963.0
 20
-67.09999999999999
 30
0.0
 11
-963.0
 21
-59.58
 31
0.0
  0
LINE
  5
7E7
330
18
100
AcDbEntity
  8
GUIDE
100
AcDbLine
 10
-976.5
 20
-67.09999999999999
 30
0.0
 11
-976.5
 21
-70.5
 31
0.0
  0
LINE
  5
7E8
330
18
100
AcDbEntity
  8
GUIDE
100
AcDbLine
 10
-970.5
 20
-67.09999999999999
 30
0.0
 11
-970.5
 21
-70.5
 31
0.0
  0
LINE
  5
7E9
330
18
100
AcDbEntity
  8
GUIDE
100
AcDbLine
 10
-953.0
 20
-48.26
 30
0.0
 11
-953.0
 21
-44.5
 31
0.0
  0
LINE
  5
7EA
330
18
100
AcDbEntity
  8
GUIDE
100
AcDbLine
 10
-959.0
 20
-48.26
 30
0.0
 11
-959.0
 21
-44.5
 31
0.0
  0
LINE
  5
7EB
330
18
100
AcDbEntity
  8
GUIDE
100
AcDbLine
 10
-959.0
 20
-70.5
 30
0.0
 11
-959.0
 21
-55.78
 31
0.0
  0
LINE
  5
7EC
330
18
100
AcDbEntity
  8
GUIDE
100
AcDbLine
 10
-953.0
 20
-70.5
 30
0.0
 11
-953.0
 21
-55.78
 31
0.0
  0
LINE
  5
7ED
330
18
100
AcDbEntity
  8
GUIDE
100
AcDbLine
 10
-945.5
 20
-55.78
 30
0.0
 11
-966.5
 21
-55.78
 31
0.0
  0
LINE
  5
7EE
330
18
100
AcDbEntity
  8
GUIDE
100
AcDbLine
 10
-945.5
 20
-48.26
 30
0.0
 11
-966.5
 21
-48.26
 31
0.0
  0
LINE
  5
7EF
330
18
100
AcDbEntity
  8
GUIDE
100
AcDbLine
 10
-966.5
 20
-48.26
 30
0.0
 11
-966.5
 21
-55.78
 31
0.0
  0
LINE
  5
7F0
330
18
100
AcDbEntity
  8
GUIDE
100
AcDbLine
 10
-945.5
 20
-48.26
 30
0.0
 11
-945.5
 21
-55.78
 31
0.0
  0
LINE
  5
7F1
330
18
100
AcDbEntity
  8
GUIDE
100
AcDbLine
 10
-1005.5
 20
-44.5
 30
0.0
 11
-1005.5
 21
-59.58
 31
0.0
  0
LINE
  5
7F2
330
18
100
AcDbEntity
  8
GUIDE
100
AcDbLine
 10
-1011.5
 20
-44.5
 30
0.0
 11
-1011.5
 21
-59.58
 31
0.0
  0
LINE
  5
7F3
330
18
100
AcDbEntity
  8
GUIDE
100
AcDbLine
 10
-998.0
 20
-67.09999999999999
 30
0.0
 11
-1019.0
 21
-67.09999999999999
 31
0.0
  0
LINE
  5
7F4
330
18
100
AcDbEntity
  8
GUIDE
100
AcDbLine
 10
-998.0
 20
-59.58
 30
0.0
 11
-1019.0
 21
-59.58
 31
0.0
  0
LINE
  5
7F5
330
18
100
AcDbEntity
  8
GUIDE
100
AcDbLine
 10
-1019.0
 20
-67.09999999999999
 30
0.0
 11
-1019.0
 21
-59.58
 31
0.0
  0
LINE
  5
7F6
330
18
100
AcDbEntity
  8
GUIDE
100
AcDbLine
 10
-998.0
 20
-67.09999999999999
 30
0.0
 11
-998.0
 21
-59.58
 31
0.0
  0
LINE
  5
7F7
330
18
100
AcDbEntity
  8
GUIDE
100
AcDbLine
 10
-1011.5
 20
-67.09999999999999
 30
0.0
 11
-1011.5
 21
-70.5
 31
0.0
  0
LINE
  5
7F8
330
18
100
AcDbEntity
  8
GUIDE
100
AcDbLine
 10
-1005.5
 20
-67.09999999999999
 30
0.0
 11
-1005.5
 21
-70.5
 31
0.0
  0
LINE
  5
7F9
330
18
100
AcDbEntity
  8
GUIDE
100
AcDbLine
 10
-988.0
 20
-48.26
 30
0.0
 11
-988.0
 21
-44.5
 31
0.0
  0
LINE
  5
7FA
330
18
100
AcDbEntity
  8
GUIDE
100
AcDbLine
 10
-994.0
 20
-48.26
 30
0.0
 11
-994.0
 21
-44.5
 31
0.0
  0
LINE
  5
7FB
330
18
100
AcDbEntity
  8
GUIDE
100
AcDbLine
 10
-994.0
 20
-70.5
 30
0.0
 11
-994.0
 21
-55.78
 31
0.0
  0
LINE
  5
7FC
330
18
100
AcDbEntity
  8
GUIDE
100
AcDbLine
 10
-988.0
 20
-70.5
 30
0.0
 11
-988.0
 21
-55.78
 31
0.0
  0
LINE
  5
7FD
330
18
100
AcDbEntity
  8
GUIDE
100
AcDbLine
 10
-980.5
 20
-55.78
 30
0.0
 11
-1001.5
 21
-55.78
 31
0.0
  0
LINE
  5
7FE
330
18
100
AcDbEntity
  8
GUIDE
100
AcDbLine
 10
-980.5
 20
-48.26
 30
0.0
 11
-1001.5
 21
-48.26
 31
0.0
  0
LINE
  5
7FF
330
18
100
AcDbEntity
  8
GUIDE
100
AcDbLine
 10
-1001.5
 20
-48.26
 30
0.0
 11
-1001.5
 21
-55.78
 31
0.0
  0
LINE
  5
800
330
18
100
AcDbEntity
  8
GUIDE
100
AcDbLine
 10
-980.5
 20
-48.26
 30
0.0
 11
-980.5
 21
-55.78
 31
0.0
  0
LINE
  5
801
330
18
100
AcDbEntity
  8
GUIDE
100
AcDbLine
 10
-1040.5
 20
-44.5
 30
0.0
 11
-1040.5
 21
-59.58
 31
0.0
  0
LINE
  5
802
330
18
100
AcDbEntity
  8
GUIDE
100
AcDbLine
 10
-1046.5
 20
-44.5
 30
0.0
 11
-1046.5
 21
-59.58
 31
0.0
  0
LINE
  5
803
330
18
100
AcDbEntity
  8
GUIDE
100
AcDbLine
 10
-1033.0
 20
-67.09999999999999
 30
0.0
 11
-1054.0
 21
-67.09999999999999
 31
0.0
  0
LINE
  5
804
330
18
100
AcDbEntity
  8
GUIDE
100
AcDbLine
 10
-1033.0
 20
-59.58
 30
0.0
 11
-1054.0
 21
-59.58
 31
0.0
  0
LINE
  5
805
330
18
100
AcDbEntity
  8
GUIDE
100
AcDbLine
 10
-1054.0
 20
-67.09999999999999
 30
0.0
 11
-1054.0
 21
-59.58
 31
0.0
  0
LINE
  5
806
330
18
100
AcDbEntity
  8
GUIDE
100
AcDbLine
 10
-1033.0
 20
-67.09999999999999
 30
0.0
 11
-1033.0
 21
-59.58
 31
0.0
  0
LINE
  5
807
330
18
100
AcDbEntity
  8
GUIDE
100
AcDbLine
 10
-1046.5
 20
-67.09999999999999
 30
0.0
 11
-1046.5
 21
-70.5
 31
0.0
  0
LINE
  5
808
330
18
100
AcDbEntity
  8
GUIDE
100
AcDbLine
 10
-1040.5
 20
-67.09999999999999
 30
0.0
 11
-1040.5
 21
-70.5
 31
0.0
  0
LINE
  5
809
330
18
100
AcDbEntity
  8
GUIDE
100
AcDbLine
 10
-1023.0
 20
-48.26
 30
0.0
 11
-1023.0
 21
-44.5
 31
0.0
  0
LINE
  5
80A
330
18
100
AcDbEntity
  8
GUIDE
100
AcDbLine
 10
-1029.0
 20
-48.26
 30
0.0
 11
-1029.0
 21
-44.5
 31
0.0
  0
LINE
  5
80B
330
18
100
AcDbEntity
  8
GUIDE
100
AcDbLine
 10
-1029.0
 20
-70.5
 30
0.0
 11
-1029.0
 21
-55.78
 31
0.0
  0
LINE
  5
80C
330
18
100
AcDbEntity
  8
GUIDE
100
AcDbLine
 10
-1023.0
 20
-70.5
 30
0.0
 11
-1023.0
 21
-55.78
 31
0.0
  0
LINE
  5
80D
330
18
100
AcDbEntity
  8
GUIDE
100
AcDbLine
 10
-1015.5
 20
-55.78
 30
0.0
 11
-1036.5
 21
-55.78
 31
0.0
  0
LINE
  5
80E
330
18
100
AcDbEntity
  8
GUIDE
100
AcDbLine
 10
-1015.5
 20
-48.26
 30
0.0
 11
-1036.5
 21
-48.26
 31
0.0
  0
LINE
  5
80F
330
18
100
AcDbEntity
  8
GUIDE
100
AcDbLine
 10
-1036.5
 20
-48.26
 30
0.0
 11
-1036.5
 21
-55.78
 31
0.0
  0
LINE
  5
810
330
18
100
AcDbEntity
  8
GUIDE
100
AcDbLine
 10
-1015.5
 20
-48.26
 30
0.0
 11
-1015.5
 21
-55.78
 31
0.0
  0
LINE
  5
811
330
18
100
AcDbEntity
  8
GUIDE
100
AcDbLine
 10
-1075.5
 20
-44.5
 30
0.0
 11
-1075.5
 21
-59.58
 31
0.0
  0
LINE
  5
812
330
18
100
AcDbEntity
  8
GUIDE
100
AcDbLine
 10
-1081.5
 20
-44.5
 30
0.0
 11
-1081.5
 21
-59.58
 31
0.0
  0
LINE
  5
813
330
18
100
AcDbEntity
  8
GUIDE
100
AcDbLine
 10
-1068.0
 20
-67.09999999999999
 30
0.0
 11
-1089.0
 21
-67.09999999999999
 31
0.0
  0
LINE
  5
814
330
18
100
AcDbEntity
  8
GUIDE
100
AcDbLine
 10
-1068.0
 20
-59.58
 30
0.0
 11
-1089.0
 21
-59.58
 31
0.0
  0
LINE
  5
815
330
18
100
AcDbEntity
  8
GUIDE
100
AcDbLine
 10
-1089.0
 20
-67.09999999999999
 30
0.0
 11
-1089.0
 21
-59.58
 31
0.0
  0
LINE
  5
816
330
18
100
AcDbEntity
  8
GUIDE
100
AcDbLine
 10
-1068.0
 20
-67.09999999999999
 30
0.0
 11
-1068.0
 21
-59.58
 31
0.0
  0
LINE
  5
817
330
18
100
AcDbEntity
  8
GUIDE
100
AcDbLine
 10
-1081.5
 20
-67.09999999999999
 30
0.0
 11
-1081.5
 21
-70.5
 31
0.0
  0
LINE
  5
818
330
18
100
AcDbEntity
  8
GUIDE
100
AcDbLine
 10
-1075.5
 20
-67.09999999999999
 30
0.0
 11
-1075.5
 21
-70.5
 31
0.0
  0
LINE
  5
819
330
18
100
AcDbEntity
  8
GUIDE
100
AcDbLine
 10
-1058.0
 20
-48.26
 30
0.0
 11
-1058.0
 21
-44.5
 31
0.0
  0
LINE
  5
81A
330
18
100
AcDbEntity
  8
GUIDE
100
AcDbLine
 10
-1064.0
 20
-48.26
 30
0.0
 11
-1064.0
 21
-44.5
 31
0.0
  0
LINE
  5
81B
330
18
100
AcDbEntity
  8
GUIDE
100
AcDbLine
 10
-1064.0
 20
-70.5
 30
0.0
 11
-1064.0
 21
-55.78
 31
0.0
  0
LINE
  5
81C
330
18
100
AcDbEntity
  8
GUIDE
100
AcDbLine
 10
-1058.0
 20
-70.5
 30
0.0
 11
-1058.0
 21
-55.78
 31
0.0
  0
LINE
  5
81D
330
18
100
AcDbEntity
  8
GUIDE
100
AcDbLine
 10
-1050.5
 20
-55.78
 30
0.0
 11
-1071.5
 21
-55.78
 31
0.0
  0
LINE
  5
81E
330
18
100
AcDbEntity
  8
GUIDE
100
AcDbLine
 10
-1050.5
 20
-48.26
 30
0.0
 11
-1071.5
 21
-48.26
 31
0.0
  0
LINE
  5
81F
330
18
100
AcDbEntity
  8
GUIDE
100
AcDbLine
 10
-1071.5
 20
-48.26
 30
0.0
 11
-1071.5
 21
-55.78
 31
0.0
  0
LINE
  5
820
330
18
100
AcDbEntity
  8
GUIDE
100
AcDbLine
 10
-1050.5
 20
-48.26
 30
0.0
 11
-1050.5
 21
-55.78
 31
0.0
  0
LINE
  5
821
330
18
100
AcDbEntity
  8
GUIDE
100
AcDbLine
 10
-1110.5
 20
-44.5
 30
0.0
 11
-1110.5
 21
-59.58
 31
0.0
  0
LINE
  5
822
330
18
100
AcDbEntity
  8
GUIDE
100
AcDbLine
 10
-1116.5
 20
-44.5
 30
0.0
 11
-1116.5
 21
-59.58
 31
0.0
  0
LINE
  5
823
330
18
100
AcDbEntity
  8
GUIDE
100
AcDbLine
 10
-1103.0
 20
-67.09999999999999
 30
0.0
 11
-1124.0
 21
-67.09999999999999
 31
0.0
  0
LINE
  5
824
330
18
100
AcDbEntity
  8
GUIDE
100
AcDbLine
 10
-1103.0
 20
-59.58
 30
0.0
 11
-1124.0
 21
-59.58
 31
0.0
  0
LINE
  5
825
330
18
100
AcDbEntity
  8
GUIDE
100
AcDbLine
 10
-1124.0
 20
-67.09999999999999
 30
0.0
 11
-1124.0
 21
-59.58
 31
0.0
  0
LINE
  5
826
330
18
100
AcDbEntity
  8
GUIDE
100
AcDbLine
 10
-1103.0
 20
-67.09999999999999
 30
0.0
 11
-1103.0
 21
-59.58
 31
0.0
  0
LINE
  5
827
330
18
100
AcDbEntity
  8
GUIDE
100
AcDbLine
 10
-1116.5
 20
-67.09999999999999
 30
0.0
 11
-1116.5
 21
-70.5
 31
0.0
  0
LINE
  5
828
330
18
100
AcDbEntity
  8
GUIDE
100
AcDbLine
 10
-1110.5
 20
-67.09999999999999
 30
0.0
 11
-1110.5
 21
-70.5
 31
0.0
  0
LINE
  5
829
330
18
100
AcDbEntity
  8
GUIDE
100
AcDbLine
 10
-1093.0
 20
-48.26
 30
0.0
 11
-1093.0
 21
-44.5
 31
0.0
  0
LINE
  5
82A
330
18
100
AcDbEntity
  8
GUIDE
100
AcDbLine
 10
-1099.0
 20
-48.26
 30
0.0
 11
-1099.0
 21
-44.5
 31
0.0
  0
LINE
  5
82B
330
18
100
AcDbEntity
  8
GUIDE
100
AcDbLine
 10
-1099.0
 20
-70.5
 30
0.0
 11
-1099.0
 21
-55.78
 31
0.0
  0
LINE
  5
82C
330
18
100
AcDbEntity
  8
GUIDE
100
AcDbLine
 10
-1093.0
 20
-70.5
 30
0.0
 11
-1093.0
 21
-55.78
 31
0.0
  0
LINE
  5
82D
330
18
100
AcDbEntity
  8
GUIDE
100
AcDbLine
 10
-1085.5
 20
-55.78
 30
0.0
 11
-1106.5
 21
-55.78
 31
0.0
  0
LINE
  5
82E
330
18
100
AcDbEntity
  8
GUIDE
100
AcDbLine
 10
-1085.5
 20
-48.26
 30
0.0
 11
-1106.5
 21
-48.26
 31
0.0
  0
LINE
  5
82F
330
18
100
AcDbEntity
  8
GUIDE
100
AcDbLine
 10
-1106.5
 20
-48.26
 30
0.0
 11
-1106.5
 21
-55.78
 31
0.0
  0
LINE
  5
830
330
18
100
AcDbEntity
  8
GUIDE
100
AcDbLine
 10
-1085.5
 20
-48.26
 30
0.0
 11
-1085.5
 21
-55.78
 31
0.0
  0
LINE
  5
831
330
18
100
AcDbEntity
  8
GUIDE
100
AcDbLine
 10
-1145.5
 20
-44.5
 30
0.0
 11
-1145.5
 21
-59.58
 31
0.0
  0
LINE
  5
832
330
18
100
AcDbEntity
  8
GUIDE
100
AcDbLine
 10
-1151.5
 20
-44.5
 30
0.0
 11
-1151.5
 21
-59.58
 31
0.0
  0
LINE
  5
833
330
18
100
AcDbEntity
  8
GUIDE
100
AcDbLine
 10
-1138.0
 20
-67.09999999999999
 30
0.0
 11
-1159.0
 21
-67.09999999999999
 31
0.0
  0
LINE
  5
834
330
18
100
AcDbEntity
  8
GUIDE
100
AcDbLine
 10
-1138.0
 20
-59.58
 30
0.0
 11
-1159.0
 21
-59.58
 31
0.0
  0
LINE
  5
835
330
18
100
AcDbEntity
  8
GUIDE
100
AcDbLine
 10
-1159.0
 20
-67.09999999999999
 30
0.0
 11
-1159.0
 21
-59.58
 31
0.0
  0
LINE
  5
836
330
18
100
AcDbEntity
  8
GUIDE
100
AcDbLine
 10
-1138.0
 20
-67.09999999999999
 30
0.0
 11
-1138.0
 21
-59.58
 31
0.0
  0
LINE
  5
837
330
18
100
AcDbEntity
  8
GUIDE
100
AcDbLine
 10
-1151.5
 20
-67.09999999999999
 30
0.0
 11
-1151.5
 21
-70.5
 31
0.0
  0
LINE
  5
838
330
18
100
AcDbEntity
  8
GUIDE
100
AcDbLine
 10
-1145.5
 20
-67.09999999999999
 30
0.0
 11
-1145.5
 21
-70.5
 31
0.0
  0
LINE
  5
839
330
18
100
AcDbEntity
  8
GUIDE
100
AcDbLine
 10
-1128.0
 20
-48.26
 30
0.0
 11
-1128.0
 21
-44.5
 31
0.0
  0
LINE
  5
83A
330
18
100
AcDbEntity
  8
GUIDE
100
AcDbLine
 10
-1134.0
 20
-48.26
 30
0.0
 11
-1134.0
 21
-44.5
 31
0.0
  0
LINE
  5
83B
330
18
100
AcDbEntity
  8
GUIDE
100
AcDbLine
 10
-1134.0
 20
-70.5
 30
0.0
 11
-1134.0
 21
-55.78
 31
0.0
  0
LINE
  5
83C
330
18
100
AcDbEntity
  8
GUIDE
100
AcDbLine
 10
-1128.0
 20
-70.5
 30
0.0
 11
-1128.0
 21
-55.78
 31
0.0
  0
LINE
  5
83D
330
18
100
AcDbEntity
  8
GUIDE
100
AcDbLine
 10
-1120.5
 20
-55.78
 30
0.0
 11
-1141.5
 21
-55.78
 31
0.0
  0
LINE
  5
83E
330
18
100
AcDbEntity
  8
GUIDE
100
AcDbLine
 10
-1120.5
 20
-48.26
 30
0.0
 11
-1141.5
 21
-48.26
 31
0.0
  0
LINE
  5
83F
330
18
100
AcDbEntity
  8
GUIDE
100
AcDbLine
 10
-1141.5
 20
-48.26
 30
0.0
 11
-1141.5
 21
-55.78
 31
0.0
  0
LINE
  5
840
330
18
100
AcDbEntity
  8
GUIDE
100
AcDbLine
 10
-1120.5
 20
-48.26
 30
0.0
 11
-1120.5
 21
-55.78
 31
0.0
  0
LINE
  5
841
330
18
100
AcDbEntity
  8
GUIDE
100
AcDbLine
 10
-1180.5
 20
-44.5
 30
0.0
 11
-1180.5
 21
-59.58
 31
0.0
  0
LINE
  5
842
330
18
100
AcDbEntity
  8
GUIDE
100
AcDbLine
 10
-1186.5
 20
-44.5
 30
0.0
 11
-1186.5
 21
-59.58
 31
0.0
  0
LINE
  5
843
330
18
100
AcDbEntity
  8
GUIDE
100
AcDbLine
 10
-1173.0
 20
-67.09999999999999
 30
0.0
 11
-1194.0
 21
-67.09999999999999
 31
0.0
  0
LINE
  5
844
330
18
100
AcDbEntity
  8
GUIDE
100
AcDbLine
 10
-1173.0
 20
-59.58
 30
0.0
 11
-1194.0
 21
-59.58
 31
0.0
  0
LINE
  5
845
330
18
100
AcDbEntity
  8
GUIDE
100
AcDbLine
 10
-1194.0
 20
-67.09999999999999
 30
0.0
 11
-1194.0
 21
-59.58
 31
0.0
  0
LINE
  5
846
330
18
100
AcDbEntity
  8
GUIDE
100
AcDbLine
 10
-1173.0
 20
-67.09999999999999
 30
0.0
 11
-1173.0
 21
-59.58
 31
0.0
  0
LINE
  5
847
330
18
100
AcDbEntity
  8
GUIDE
100
AcDbLine
 10
-1186.5
 20
-67.09999999999999
 30
0.0
 11
-1186.5
 21
-70.5
 31
0.0
  0
LINE
  5
848
330
18
100
AcDbEntity
  8
GUIDE
100
AcDbLine
 10
-1180.5
 20
-67.09999999999999
 30
0.0
 11
-1180.5
 21
-70.5
 31
0.0
  0
LINE
  5
849
330
18
100
AcDbEntity
  8
GUIDE
100
AcDbLine
 10
-1163.0
 20
-48.26
 30
0.0
 11
-1163.0
 21
-44.5
 31
0.0
  0
LINE
  5
84A
330
18
100
AcDbEntity
  8
GUIDE
100
AcDbLine
 10
-1169.0
 20
-48.26
 30
0.0
 11
-1169.0
 21
-44.5
 31
0.0
  0
LINE
  5
84B
330
18
100
AcDbEntity
  8
GUIDE
100
AcDbLine
 10
-1169.0
 20
-70.5
 30
0.0
 11
-1169.0
 21
-55.78
 31
0.0
  0
LINE
  5
84C
330
18
100
AcDbEntity
  8
GUIDE
100
AcDbLine
 10
-1163.0
 20
-70.5
 30
0.0
 11
-1163.0
 21
-55.78
 31
0.0
  0
LINE
  5
84D
330
18
100
AcDbEntity
  8
GUIDE
100
AcDbLine
 10
-1155.5
 20
-55.78
 30
0.0
 11
-1176.5
 21
-55.78
 31
0.0
  0
LINE
  5
84E
330
18
100
AcDbEntity
  8
GUIDE
100
AcDbLine
 10
-1155.5
 20
-48.26
 30
0.0
 11
-1176.5
 21
-48.26
 31
0.0
  0
LINE
  5
84F
330
18
100
AcDbEntity
  8
GUIDE
100
AcDbLine
 10
-1176.5
 20
-48.26
 30
0.0
 11
-1176.5
 21
-55.78
 31
0.0
  0
LINE
  5
850
330
18
100
AcDbEntity
  8
GUIDE
100
AcDbLine
 10
-1155.5
 20
-48.26
 30
0.0
 11
-1155.5
 21
-55.78
 31
0.0
  0
LINE
  5
851
330
18
100
AcDbEntity
  8
GUIDE
100
AcDbLine
 10
-1215.5
 20
-44.5
 30
0.0
 11
-1215.5
 21
-59.58
 31
0.0
  0
LINE
  5
852
330
18
100
AcDbEntity
  8
GUIDE
100
AcDbLine
 10
-1221.5
 20
-44.5
 30
0.0
 11
-1221.5
 21
-59.58
 31
0.0
  0
LINE
  5
853
330
18
100
AcDbEntity
  8
GUIDE
100
AcDbLine
 10
-1208.0
 20
-67.09999999999999
 30
0.0
 11
-1229.0
 21
-67.09999999999999
 31
0.0
  0
LINE
  5
854
330
18
100
AcDbEntity
  8
GUIDE
100
AcDbLine
 10
-1208.0
 20
-59.58
 30
0.0
 11
-1229.0
 21
-59.58
 31
0.0
  0
LINE
  5
855
330
18
100
AcDbEntity
  8
GUIDE
100
AcDbLine
 10
-1229.0
 20
-67.09999999999999
 30
0.0
 11
-1229.0
 21
-59.58
 31
0.0
  0
LINE
  5
856
330
18
100
AcDbEntity
  8
GUIDE
100
AcDbLine
 10
-1208.0
 20
-67.09999999999999
 30
0.0
 11
-1208.0
 21
-59.58
 31
0.0
  0
LINE
  5
857
330
18
100
AcDbEntity
  8
GUIDE
100
AcDbLine
 10
-1221.5
 20
-67.09999999999999
 30
0.0
 11
-1221.5
 21
-70.5
 31
0.0
  0
LINE
  5
858
330
18
100
AcDbEntity
  8
GUIDE
100
AcDbLine
 10
-1215.5
 20
-67.09999999999999
 30
0.0
 11
-1215.5
 21
-70.5
 31
0.0
  0
LINE
  5
859
330
18
100
AcDbEntity
  8
GUIDE
100
AcDbLine
 10
-1198.0
 20
-48.26
 30
0.0
 11
-1198.0
 21
-44.5
 31
0.0
  0
LINE
  5
85A
330
18
100
AcDbEntity
  8
GUIDE
100
AcDbLine
 10
-1204.0
 20
-48.26
 30
0.0
 11
-1204.0
 21
-44.5
 31
0.0
  0
LINE
  5
85B
330
18
100
AcDbEntity
  8
GUIDE
100
AcDbLine
 10
-1204.0
 20
-70.5
 30
0.0
 11
-1204.0
 21
-55.78
 31
0.0
  0
LINE
  5
85C
330
18
100
AcDbEntity
  8
GUIDE
100
AcDbLine
 10
-1198.0
 20
-70.5
 30
0.0
 11
-1198.0
 21
-55.78
 31
0.0
  0
LINE
  5
85D
330
18
100
AcDbEntity
  8
GUIDE
100
AcDbLine
 10
-1190.5
 20
-55.78
 30
0.0
 11
-1211.5
 21
-55.78
 31
0.0
  0
LINE
  5
85E
330
18
100
AcDbEntity
  8
GUIDE
100
AcDbLine
 10
-1190.5
 20
-48.26
 30
0.0
 11
-1211.5
 21
-48.26
 31
0.0
  0
LINE
  5
85F
330
18
100
AcDbEntity
  8
GUIDE
100
AcDbLine
 10
-1211.5
 20
-48.26
 30
0.0
 11
-1211.5
 21
-55.78
 31
0.0
  0
LINE
  5
860
330
18
100
AcDbEntity
  8
GUIDE
100
AcDbLine
 10
-1190.5
 20
-48.26
 30
0.0
 11
-1190.5
 21
-55.78
 31
0.0
  0
LINE
  5
861
330
18
100
AcDbEntity
  8
GUIDE
100
AcDbLine
 10
-1250.5
 20
-44.5
 30
0.0
 11
-1250.5
 21
-59.58
 31
0.0
  0
LINE
  5
862
330
18
100
AcDbEntity
  8
GUIDE
100
AcDbLine
 10
-1256.5
 20
-44.5
 30
0.0
 11
-1256.5
 21
-59.58
 31
0.0
  0
LINE
  5
863
330
18
100
AcDbEntity
  8
GUIDE
100
AcDbLine
 10
-1243.0
 20
-67.09999999999999
 30
0.0
 11
-1264.0
 21
-67.09999999999999
 31
0.0
  0
LINE
  5
864
330
18
100
AcDbEntity
  8
GUIDE
100
AcDbLine
 10
-1243.0
 20
-59.58
 30
0.0
 11
-1264.0
 21
-59.58
 31
0.0
  0
LINE
  5
865
330
18
100
AcDbEntity
  8
GUIDE
100
AcDbLine
 10
-1264.0
 20
-67.09999999999999
 30
0.0
 11
-1264.0
 21
-59.58
 31
0.0
  0
LINE
  5
866
330
18
100
AcDbEntity
  8
GUIDE
100
AcDbLine
 10
-1243.0
 20
-67.09999999999999
 30
0.0
 11
-1243.0
 21
-59.58
 31
0.0
  0
LINE
  5
867
330
18
100
AcDbEntity
  8
GUIDE
100
AcDbLine
 10
-1256.5
 20
-67.09999999999999
 30
0.0
 11
-1256.5
 21
-70.5
 31
0.0
  0
LINE
  5
868
330
18
100
AcDbEntity
  8
GUIDE
100
AcDbLine
 10
-1250.5
 20
-67.09999999999999
 30
0.0
 11
-1250.5
 21
-70.5
 31
0.0
  0
LINE
  5
869
330
18
100
AcDbEntity
  8
GUIDE
100
AcDbLine
 10
-1233.0
 20
-48.26
 30
0.0
 11
-1233.0
 21
-44.5
 31
0.0
  0
LINE
  5
86A
330
18
100
AcDbEntity
  8
GUIDE
100
AcDbLine
 10
-1239.0
 20
-48.26
 30
0.0
 11
-1239.0
 21
-44.5
 31
0.0
  0
LINE
  5
86B
330
18
100
AcDbEntity
  8
GUIDE
100
AcDbLine
 10
-1239.0
 20
-70.5
 30
0.0
 11
-1239.0
 21
-55.78
 31
0.0
  0
LINE
  5
86C
330
18
100
AcDbEntity
  8
GUIDE
100
AcDbLine
 10
-1233.0
 20
-70.5
 30
0.0
 11
-1233.0
 21
-55.78
 31
0.0
  0
LINE
  5
86D
330
18
100
AcDbEntity
  8
GUIDE
100
AcDbLine
 10
-1225.5
 20
-55.78
 30
0.0
 11
-1246.5
 21
-55.78
 31
0.0
  0
LINE
  5
86E
330
18
100
AcDbEntity
  8
GUIDE
100
AcDbLine
 10
-1225.5
 20
-48.26
 30
0.0
 11
-1246.5
 21
-48.26
 31
0.0
  0
LINE
  5
86F
330
18
100
AcDbEntity
  8
GUIDE
100
AcDbLine
 10
-1246.5
 20
-48.26
 30
0.0
 11
-1246.5
 21
-55.78
 31
0.0
  0
LINE
  5
870
330
18
100
AcDbEntity
  8
GUIDE
100
AcDbLine
 10
-1225.5
 20
-48.26
 30
0.0
 11
-1225.5
 21
-55.78
 31
0.0
  0
LINE
  5
871
330
18
100
AcDbEntity
  8
GUIDE
100
AcDbLine
 10
-1285.5
 20
-44.5
 30
0.0
 11
-1285.5
 21
-59.58
 31
0.0
  0
LINE
  5
872
330
18
100
AcDbEntity
  8
GUIDE
100
AcDbLine
 10
-1291.5
 20
-44.5
 30
0.0
 11
-1291.5
 21
-59.58
 31
0.0
  0
LINE
  5
873
330
18
100
AcDbEntity
  8
GUIDE
100
AcDbLine
 10
-1278.0
 20
-67.09999999999999
 30
0.0
 11
-1299.0
 21
-67.09999999999999
 31
0.0
  0
LINE
  5
874
330
18
100
AcDbEntity
  8
GUIDE
100
AcDbLine
 10
-1278.0
 20
-59.58
 30
0.0
 11
-1299.0
 21
-59.58
 31
0.0
  0
LINE
  5
875
330
18
100
AcDbEntity
  8
GUIDE
100
AcDbLine
 10
-1299.0
 20
-67.09999999999999
 30
0.0
 11
-1299.0
 21
-59.58
 31
0.0
  0
LINE
  5
876
330
18
100
AcDbEntity
  8
GUIDE
100
AcDbLine
 10
-1278.0
 20
-67.09999999999999
 30
0.0
 11
-1278.0
 21
-59.58
 31
0.0
  0
LINE
  5
877
330
18
100
AcDbEntity
  8
GUIDE
100
AcDbLine
 10
-1291.5
 20
-67.09999999999999
 30
0.0
 11
-1291.5
 21
-70.5
 31
0.0
  0
LINE
  5
878
330
18
100
AcDbEntity
  8
GUIDE
100
AcDbLine
 10
-1285.5
 20
-67.09999999999999
 30
0.0
 11
-1285.5
 21
-70.5
 31
0.0
  0
LINE
  5
879
330
18
100
AcDbEntity
  8
GUIDE
100
AcDbLine
 10
-1268.0
 20
-48.26
 30
0.0
 11
-1268.0
 21
-44.5
 31
0.0
  0
LINE
  5
87A
330
18
100
AcDbEntity
  8
GUIDE
100
AcDbLine
 10
-1274.0
 20
-48.26
 30
0.0
 11
-1274.0
 21
-44.5
 31
0.0
  0
LINE
  5
87B
330
18
100
AcDbEntity
  8
GUIDE
100
AcDbLine
 10
-1274.0
 20
-70.5
 30
0.0
 11
-1274.0
 21
-55.78
 31
0.0
  0
LINE
  5
87C
330
18
100
AcDbEntity
  8
GUIDE
100
AcDbLine
 10
-1268.0
 20
-70.5
 30
0.0
 11
-1268.0
 21
-55.78
 31
0.0
  0
LINE
  5
87D
330
18
100
AcDbEntity
  8
GUIDE
100
AcDbLine
 10
-1260.5
 20
-55.78
 30
0.0
 11
-1281.5
 21
-55.78
 31
0.0
  0
LINE
  5
87E
330
18
100
AcDbEntity
  8
GUIDE
100
AcDbLine
 10
-1260.5
 20
-48.26
 30
0.0
 11
-1281.5
 21
-48.26
 31
0.0
  0
LINE
  5
87F
330
18
100
AcDbEntity
  8
GUIDE
100
AcDbLine
 10
-1281.5
 20
-48.26
 30
0.0
 11
-1281.5
 21
-55.78
 31
0.0
  0
LINE
  5
880
330
18
100
AcDbEntity
  8
GUIDE
100
AcDbLine
 10
-1260.5
 20
-48.26
 30
0.0
 11
-1260.5
 21
-55.78
 31
0.0
  0
LINE
  5
881
330
18
100
AcDbEntity
  8
GUIDE
100
AcDbLine
 10
-1320.5
 20
-44.5
 30
0.0
 11
-1320.5
 21
-59.58
 31
0.0
  0
LINE
  5
882
330
18
100
AcDbEntity
  8
GUIDE
100
AcDbLine
 10
-1326.5
 20
-44.5
 30
0.0
 11
-1326.5
 21
-59.58
 31
0.0
  0
LINE
  5
883
330
18
100
AcDbEntity
  8
GUIDE
100
AcDbLine
 10
-1313.0
 20
-67.09999999999999
 30
0.0
 11
-1334.0
 21
-67.09999999999999
 31
0.0
  0
LINE
  5
884
330
18
100
AcDbEntity
  8
GUIDE
100
AcDbLine
 10
-1313.0
 20
-59.58
 30
0.0
 11
-1334.0
 21
-59.58
 31
0.0
  0
LINE
  5
885
330
18
100
AcDbEntity
  8
GUIDE
100
AcDbLine
 10
-1334.0
 20
-67.09999999999999
 30
0.0
 11
-1334.0
 21
-59.58
 31
0.0
  0
LINE
  5
886
330
18
100
AcDbEntity
  8
GUIDE
100
AcDbLine
 10
-1313.0
 20
-67.09999999999999
 30
0.0
 11
-1313.0
 21
-59.58
 31
0.0
  0
LINE
  5
887
330
18
100
AcDbEntity
  8
GUIDE
100
AcDbLine
 10
-1326.5
 20
-67.09999999999999
 30
0.0
 11
-1326.5
 21
-70.5
 31
0.0
  0
LINE
  5
888
330
18
100
AcDbEntity
  8
GUIDE
100
AcDbLine
 10
-1320.5
 20
-67.09999999999999
 30
0.0
 11
-1320.5
 21
-70.5
 31
0.0
  0
LINE
  5
889
330
18
100
AcDbEntity
  8
GUIDE
100
AcDbLine
 10
-1303.0
 20
-48.26
 30
0.0
 11
-1303.0
 21
-44.5
 31
0.0
  0
LINE
  5
88A
330
18
100
AcDbEntity
  8
GUIDE
100
AcDbLine
 10
-1309.0
 20
-48.26
 30
0.0
 11
-1309.0
 21
-44.5
 31
0.0
  0
LINE
  5
88B
330
18
100
AcDbEntity
  8
GUIDE
100
AcDbLine
 10
-1309.0
 20
-70.5
 30
0.0
 11
-1309.0
 21
-55.78
 31
0.0
  0
LINE
  5
88C
330
18
100
AcDbEntity
  8
GUIDE
100
AcDbLine
 10
-1303.0
 20
-70.5
 30
0.0
 11
-1303.0
 21
-55.78
 31
0.0
  0
LINE
  5
88D
330
18
100
AcDbEntity
  8
GUIDE
100
AcDbLine
 10
-1295.5
 20
-55.78
 30
0.0
 11
-1316.5
 21
-55.78
 31
0.0
  0
LINE
  5
88E
330
18
100
AcDbEntity
  8
GUIDE
100
AcDbLine
 10
-1295.5
 20
-48.26
 30
0.0
 11
-1316.5
 21
-48.26
 31
0.0
  0
LINE
  5
88F
330
18
100
AcDbEntity
  8
GUIDE
100
AcDbLine
 10
-1316.5
 20
-48.26
 30
0.0
 11
-1316.5
 21
-55.78
 31
0.0
  0
LINE
  5
890
330
18
100
AcDbEntity
  8
GUIDE
100
AcDbLine
 10
-1295.5
 20
-48.26
 30
0.0
 11
-1295.5
 21
-55.78
 31
0.0
  0
LINE
  5
891
330
18
100
AcDbEntity
  8
GUIDE
100
AcDbLine
 10
-1355.5
 20
-44.5
 30
0.0
 11
-1355.5
 21
-59.58
 31
0.0
  0
LINE
  5
892
330
18
100
AcDbEntity
  8
GUIDE
100
AcDbLine
 10
-1361.5
 20
-44.5
 30
0.0
 11
-1361.5
 21
-59.58
 31
0.0
  0
LINE
  5
893
330
18
100
AcDbEntity
  8
GUIDE
100
AcDbLine
 10
-1348.0
 20
-67.09999999999999
 30
0.0
 11
-1369.0
 21
-67.09999999999999
 31
0.0
  0
LINE
  5
894
330
18
100
AcDbEntity
  8
GUIDE
100
AcDbLine
 10
-1348.0
 20
-59.58
 30
0.0
 11
-1369.0
 21
-59.58
 31
0.0
  0
LINE
  5
895
330
18
100
AcDbEntity
  8
GUIDE
100
AcDbLine
 10
-1369.0
 20
-67.09999999999999
 30
0.0
 11
-1369.0
 21
-59.58
 31
0.0
  0
LINE
  5
896
330
18
100
AcDbEntity
  8
GUIDE
100
AcDbLine
 10
-1348.0
 20
-67.09999999999999
 30
0.0
 11
-1348.0
 21
-59.58
 31
0.0
  0
LINE
  5
897
330
18
100
AcDbEntity
  8
GUIDE
100
AcDbLine
 10
-1361.5
 20
-67.09999999999999
 30
0.0
 11
-1361.5
 21
-70.5
 31
0.0
  0
LINE
  5
898
330
18
100
AcDbEntity
  8
GUIDE
100
AcDbLine
 10
-1355.5
 20
-67.09999999999999
 30
0.0
 11
-1355.5
 21
-70.5
 31
0.0
  0
LINE
  5
899
330
18
100
AcDbEntity
  8
GUIDE
100
AcDbLine
 10
-1338.0
 20
-48.26
 30
0.0
 11
-1338.0
 21
-44.5
 31
0.0
  0
LINE
  5
89A
330
18
100
AcDbEntity
  8
GUIDE
100
AcDbLine
 10
-1344.0
 20
-48.26
 30
0.0
 11
-1344.0
 21
-44.5
 31
0.0
  0
LINE
  5
89B
330
18
100
AcDbEntity
  8
GUIDE
100
AcDbLine
 10
-1344.0
 20
-70.5
 30
0.0
 11
-1344.0
 21
-55.78
 31
0.0
  0
LINE
  5
89C
330
18
100
AcDbEntity
  8
GUIDE
100
AcDbLine
 10
-1338.0
 20
-70.5
 30
0.0
 11
-1338.0
 21
-55.78
 31
0.0
  0
LINE
  5
89D
330
18
100
AcDbEntity
  8
GUIDE
100
AcDbLine
 10
-1330.5
 20
-55.78
 30
0.0
 11
-1351.5
 21
-55.78
 31
0.0
  0
LINE
  5
89E
330
18
100
AcDbEntity
  8
GUIDE
100
AcDbLine
 10
-1330.5
 20
-48.26
 30
0.0
 11
-1351.5
 21
-48.26
 31
0.0
  0
LINE
  5
89F
330
18
100
AcDbEntity
  8
GUIDE
100
AcDbLine
 10
-1351.5
 20
-48.26
 30
0.0
 11
-1351.5
 21
-55.78
 31
0.0
  0
LINE
  5
8A0
330
18
100
AcDbEntity
  8
GUIDE
100
AcDbLine
 10
-1330.5
 20
-48.26
 30
0.0
 11
-1330.5
 21
-55.78
 31
0.0
  0
LINE
  5
8A1
330
18
100
AcDbEntity
  8
GUIDE
100
AcDbLine
 10
-1390.5
 20
-44.5
 30
0.0
 11
-1390.5
 21
-59.58
 31
0.0
  0
LINE
  5
8A2
330
18
100
AcDbEntity
  8
GUIDE
100
AcDbLine
 10
-1396.5
 20
-44.5
 30
0.0
 11
-1396.5
 21
-59.58
 31
0.0
  0
LINE
  5
8A3
330
18
100
AcDbEntity
  8
GUIDE
100
AcDbLine
 10
-1383.0
 20
-67.09999999999999
 30
0.0
 11
-1404.0
 21
-67.09999999999999
 31
0.0
  0
LINE
  5
8A4
330
18
100
AcDbEntity
  8
GUIDE
100
AcDbLine
 10
-1383.0
 20
-59.58
 30
0.0
 11
-1404.0
 21
-59.58
 31
0.0
  0
LINE
  5
8A5
330
18
100
AcDbEntity
  8
GUIDE
100
AcDbLine
 10
-1404.0
 20
-67.09999999999999
 30
0.0
 11
-1404.0
 21
-59.58
 31
0.0
  0
LINE
  5
8A6
330
18
100
AcDbEntity
  8
GUIDE
100
AcDbLine
 10
-1383.0
 20
-67.09999999999999
 30
0.0
 11
-1383.0
 21
-59.58
 31
0.0
  0
LINE
  5
8A7
330
18
100
AcDbEntity
  8
GUIDE
100
AcDbLine
 10
-1396.5
 20
-67.09999999999999
 30
0.0
 11
-1396.5
 21
-70.5
 31
0.0
  0
LINE
  5
8A8
330
18
100
AcDbEntity
  8
GUIDE
100
AcDbLine
 10
-1390.5
 20
-67.09999999999999
 30
0.0
 11
-1390.5
 21
-70.5
 31
0.0
  0
LINE
  5
8A9
330
18
100
AcDbEntity
  8
GUIDE
100
AcDbLine
 10
-1373.0
 20
-48.26
 30
0.0
 11
-1373.0
 21
-44.5
 31
0.0
  0
LINE
  5
8AA
330
18
100
AcDbEntity
  8
GUIDE
100
AcDbLine
 10
-1379.0
 20
-48.26
 30
0.0
 11
-1379.0
 21
-44.5
 31
0.0
  0
LINE
  5
8AB
330
18
100
AcDbEntity
  8
GUIDE
100
AcDbLine
 10
-1379.0
 20
-70.5
 30
0.0
 11
-1379.0
 21
-55.78
 31
0.0
  0
LINE
  5
8AC
330
18
100
AcDbEntity
  8
GUIDE
100
AcDbLine
 10
-1373.0
 20
-70.5
 30
0.0
 11
-1373.0
 21
-55.78
 31
0.0
  0
LINE
  5
8AD
330
18
100
AcDbEntity
  8
GUIDE
100
AcDbLine
 10
-1365.5
 20
-55.78
 30
0.0
 11
-1386.5
 21
-55.78
 31
0.0
  0
LINE
  5
8AE
330
18
100
AcDbEntity
  8
GUIDE
100
AcDbLine
 10
-1365.5
 20
-48.26
 30
0.0
 11
-1386.5
 21
-48.26
 31
0.0
  0
LINE
  5
8AF
330
18
100
AcDbEntity
  8
GUIDE
100
AcDbLine
 10
-1386.5
 20
-48.26
 30
0.0
 11
-1386.5
 21
-55.78
 31
0.0
  0
LINE
  5
8B0
330
18
100
AcDbEntity
  8
GUIDE
100
AcDbLine
 10
-1365.5
 20
-48.26
 30
0.0
 11
-1365.5
 21
-55.78
 31
0.0
  0
LINE
  5
8B1
330
18
100
AcDbEntity
  8
GUIDE
100
AcDbLine
 10
-1425.5
 20
-44.5
 30
0.0
 11
-1425.5
 21
-59.58
 31
0.0
  0
LINE
  5
8B2
330
18
100
AcDbEntity
  8
GUIDE
100
AcDbLine
 10
-1431.5
 20
-44.5
 30
0.0
 11
-1431.5
 21
-59.58
 31
0.0
  0
LINE
  5
8B3
330
18
100
AcDbEntity
  8
GUIDE
100
AcDbLine
 10
-1418.0
 20
-67.09999999999999
 30
0.0
 11
-1439.0
 21
-67.09999999999999
 31
0.0
  0
LINE
  5
8B4
330
18
100
AcDbEntity
  8
GUIDE
100
AcDbLine
 10
-1418.0
 20
-59.58
 30
0.0
 11
-1439.0
 21
-59.58
 31
0.0
  0
LINE
  5
8B5
330
18
100
AcDbEntity
  8
GUIDE
100
AcDbLine
 10
-1439.0
 20
-67.09999999999999
 30
0.0
 11
-1439.0
 21
-59.58
 31
0.0
  0
LINE
  5
8B6
330
18
100
AcDbEntity
  8
GUIDE
100
AcDbLine
 10
-1418.0
 20
-67.09999999999999
 30
0.0
 11
-1418.0
 21
-59.58
 31
0.0
  0
LINE
  5
8B7
330
18
100
AcDbEntity
  8
GUIDE
100
AcDbLine
 10
-1431.5
 20
-67.09999999999999
 30
0.0
 11
-1431.5
 21
-70.5
 31
0.0
  0
LINE
  5
8B8
330
18
100
AcDbEntity
  8
GUIDE
100
AcDbLine
 10
-1425.5
 20
-67.09999999999999
 30
0.0
 11
-1425.5
 21
-70.5
 31
0.0
  0
LINE
  5
8B9
330
18
100
AcDbEntity
  8
GUIDE
100
AcDbLine
 10
-1408.0
 20
-48.26
 30
0.0
 11
-1408.0
 21
-44.5
 31
0.0
  0
LINE
  5
8BA
330
18
100
AcDbEntity
  8
GUIDE
100
AcDbLine
 10
-1414.0
 20
-48.26
 30
0.0
 11
-1414.0
 21
-44.5
 31
0.0
  0
LINE
  5
8BB
330
18
100
AcDbEntity
  8
GUIDE
100
AcDbLine
 10
-1414.0
 20
-70.5
 30
0.0
 11
-1414.0
 21
-55.78
 31
0.0
  0
LINE
  5
8BC
330
18
100
AcDbEntity
  8
GUIDE
100
AcDbLine
 10
-1408.0
 20
-70.5
 30
0.0
 11
-1408.0
 21
-55.78
 31
0.0
  0
LINE
  5
8BD
330
18
100
AcDbEntity
  8
GUIDE
100
AcDbLine
 10
-1400.5
 20
-55.78
 30
0.0
 11
-1421.5
 21
-55.78
 31
0.0
  0
LINE
  5
8BE
330
18
100
AcDbEntity
  8
GUIDE
100
AcDbLine
 10
-1400.5
 20
-48.26
 30
0.0
 11
-1421.5
 21
-48.26
 31
0.0
  0
LINE
  5
8BF
330
18
100
AcDbEntity
  8
GUIDE
100
AcDbLine
 10
-1421.5
 20
-48.26
 30
0.0
 11
-1421.5
 21
-55.78
 31
0.0
  0
LINE
  5
8C0
330
18
100
AcDbEntity
  8
GUIDE
100
AcDbLine
 10
-1400.5
 20
-48.26
 30
0.0
 11
-1400.5
 21
-55.78
 31
0.0
  0
LINE
  5
8C1
330
18
100
AcDbEntity
  8
GUIDE
100
AcDbLine
 10
-1460.5
 20
-44.5
 30
0.0
 11
-1460.5
 21
-59.58
 31
0.0
  0
LINE
  5
8C2
330
18
100
AcDbEntity
  8
GUIDE
100
AcDbLine
 10
-1466.5
 20
-44.5
 30
0.0
 11
-1466.5
 21
-59.58
 31
0.0
  0
LINE
  5
8C3
330
18
100
AcDbEntity
  8
GUIDE
100
AcDbLine
 10
-1453.0
 20
-67.09999999999999
 30
0.0
 11
-1474.0
 21
-67.09999999999999
 31
0.0
  0
LINE
  5
8C4
330
18
100
AcDbEntity
  8
GUIDE
100
AcDbLine
 10
-1453.0
 20
-59.58
 30
0.0
 11
-1474.0
 21
-59.58
 31
0.0
  0
LINE
  5
8C5
330
18
100
AcDbEntity
  8
GUIDE
100
AcDbLine
 10
-1474.0
 20
-67.09999999999999
 30
0.0
 11
-1474.0
 21
-59.58
 31
0.0
  0
LINE
  5
8C6
330
18
100
AcDbEntity
  8
GUIDE
100
AcDbLine
 10
-1453.0
 20
-67.09999999999999
 30
0.0
 11
-1453.0
 21
-59.58
 31
0.0
  0
LINE
  5
8C7
330
18
100
AcDbEntity
  8
GUIDE
100
AcDbLine
 10
-1466.5
 20
-67.09999999999999
 30
0.0
 11
-1466.5
 21
-70.5
 31
0.0
  0
LINE
  5
8C8
330
18
100
AcDbEntity
  8
GUIDE
100
AcDbLine
 10
-1460.5
 20
-67.09999999999999
 30
0.0
 11
-1460.5
 21
-70.5
 31
0.0
  0
LINE
  5
8C9
330
18
100
AcDbEntity
  8
GUIDE
100
AcDbLine
 10
-1443.0
 20
-48.26
 30
0.0
 11
-1443.0
 21
-44.5
 31
0.0
  0
LINE
  5
8CA
330
18
100
AcDbEntity
  8
GUIDE
100
AcDbLine
 10
-1449.0
 20
-48.26
 30
0.0
 11
-1449.0
 21
-44.5
 31
0.0
  0
LINE
  5
8CB
330
18
100
AcDbEntity
  8
GUIDE
100
AcDbLine
 10
-1449.0
 20
-70.5
 30
0.0
 11
-1449.0
 21
-55.78
 31
0.0
  0
LINE
  5
8CC
330
18
100
AcDbEntity
  8
GUIDE
100
AcDbLine
 10
-1443.0
 20
-70.5
 30
0.0
 11
-1443.0
 21
-55.78
 31
0.0
  0
LINE
  5
8CD
330
18
100
AcDbEntity
  8
GUIDE
100
AcDbLine
 10
-1435.5
 20
-55.78
 30
0.0
 11
-1456.5
 21
-55.78
 31
0.0
  0
LINE
  5
8CE
330
18
100
AcDbEntity
  8
GUIDE
100
AcDbLine
 10
-1435.5
 20
-48.26
 30
0.0
 11
-1456.5
 21
-48.26
 31
0.0
  0
LINE
  5
8CF
330
18
100
AcDbEntity
  8
GUIDE
100
AcDbLine
 10
-1456.5
 20
-48.26
 30
0.0
 11
-1456.5
 21
-55.78
 31
0.0
  0
LINE
  5
8D0
330
18
100
AcDbEntity
  8
GUIDE
100
AcDbLine
 10
-1435.5
 20
-48.26
 30
0.0
 11
-1435.5
 21
-55.78
 31
0.0
  0
LINE
  5
8D1
330
18
100
AcDbEntity
  8
GUIDE
100
AcDbLine
 10
-1495.5
 20
-44.5
 30
0.0
 11
-1495.5
 21
-59.58
 31
0.0
  0
LINE
  5
8D2
330
18
100
AcDbEntity
  8
GUIDE
100
AcDbLine
 10
-1501.5
 20
-44.5
 30
0.0
 11
-1501.5
 21
-59.58
 31
0.0
  0
LINE
  5
8D3
330
18
100
AcDbEntity
  8
GUIDE
100
AcDbLine
 10
-1488.0
 20
-67.09999999999999
 30
0.0
 11
-1509.0
 21
-67.09999999999999
 31
0.0
  0
LINE
  5
8D4
330
18
100
AcDbEntity
  8
GUIDE
100
AcDbLine
 10
-1488.0
 20
-59.58
 30
0.0
 11
-1509.0
 21
-59.58
 31
0.0
  0
LINE
  5
8D5
330
18
100
AcDbEntity
  8
GUIDE
100
AcDbLine
 10
-1509.0
 20
-67.09999999999999
 30
0.0
 11
-1509.0
 21
-59.58
 31
0.0
  0
LINE
  5
8D6
330
18
100
AcDbEntity
  8
GUIDE
100
AcDbLine
 10
-1488.0
 20
-67.09999999999999
 30
0.0
 11
-1488.0
 21
-59.58
 31
0.0
  0
LINE
  5
8D7
330
18
100
AcDbEntity
  8
GUIDE
100
AcDbLine
 10
-1501.5
 20
-67.09999999999999
 30
0.0
 11
-1501.5
 21
-70.5
 31
0.0
  0
LINE
  5
8D8
330
18
100
AcDbEntity
  8
GUIDE
100
AcDbLine
 10
-1495.5
 20
-67.09999999999999
 30
0.0
 11
-1495.5
 21
-70.5
 31
0.0
  0
LINE
  5
8D9
330
18
100
AcDbEntity
  8
GUIDE
100
AcDbLine
 10
-1478.0
 20
-48.26
 30
0.0
 11
-1478.0
 21
-44.5
 31
0.0
  0
LINE
  5
8DA
330
18
100
AcDbEntity
  8
GUIDE
100
AcDbLine
 10
-1484.0
 20
-48.26
 30
0.0
 11
-1484.0
 21
-44.5
 31
0.0
  0
LINE
  5
8DB
330
18
100
AcDbEntity
  8
GUIDE
100
AcDbLine
 10
-1484.0
 20
-70.5
 30
0.0
 11
-1484.0
 21
-55.78
 31
0.0
  0
LINE
  5
8DC
330
18
100
AcDbEntity
  8
GUIDE
100
AcDbLine
 10
-1478.0
 20
-70.5
 30
0.0
 11
-1478.0
 21
-55.78
 31
0.0
  0
LINE
  5
8DD
330
18
100
AcDbEntity
  8
GUIDE
100
AcDbLine
 10
-1470.5
 20
-55.78
 30
0.0
 11
-1491.5
 21
-55.78
 31
0.0
  0
LINE
  5
8DE
330
18
100
AcDbEntity
  8
GUIDE
100
AcDbLine
 10
-1470.5
 20
-48.26
 30
0.0
 11
-1491.5
 21
-48.26
 31
0.0
  0
LINE
  5
8DF
330
18
100
AcDbEntity
  8
GUIDE
100
AcDbLine
 10
-1491.5
 20
-48.26
 30
0.0
 11
-1491.5
 21
-55.78
 31
0.0
  0
LINE
  5
8E0
330
18
100
AcDbEntity
  8
GUIDE
100
AcDbLine
 10
-1470.5
 20
-48.26
 30
0.0
 11
-1470.5
 21
-55.78
 31
0.0
  0
LINE
  5
8E1
330
18
100
AcDbEntity
  8
GUIDE
100
AcDbLine
 10
-1530.5
 20
-44.5
 30
0.0
 11
-1530.5
 21
-59.58
 31
0.0
  0
LINE
  5
8E2
330
18
100
AcDbEntity
  8
GUIDE
100
AcDbLine
 10
-1536.5
 20
-44.5
 30
0.0
 11
-1536.5
 21
-59.58
 31
0.0
  0
LINE
  5
8E3
330
18
100
AcDbEntity
  8
GUIDE
100
AcDbLine
 10
-1523.0
 20
-67.09999999999999
 30
0.0
 11
-1544.0
 21
-67.09999999999999
 31
0.0
  0
LINE
  5
8E4
330
18
100
AcDbEntity
  8
GUIDE
100
AcDbLine
 10
-1523.0
 20
-59.58
 30
0.0
 11
-1544.0
 21
-59.58
 31
0.0
  0
LINE
  5
8E5
330
18
100
AcDbEntity
  8
GUIDE
100
AcDbLine
 10
-1544.0
 20
-67.09999999999999
 30
0.0
 11
-1544.0
 21
-59.58
 31
0.0
  0
LINE
  5
8E6
330
18
100
AcDbEntity
  8
GUIDE
100
AcDbLine
 10
-1523.0
 20
-67.09999999999999
 30
0.0
 11
-1523.0
 21
-59.58
 31
0.0
  0
LINE
  5
8E7
330
18
100
AcDbEntity
  8
GUIDE
100
AcDbLine
 10
-1536.5
 20
-67.09999999999999
 30
0.0
 11
-1536.5
 21
-70.5
 31
0.0
  0
LINE
  5
8E8
330
18
100
AcDbEntity
  8
GUIDE
100
AcDbLine
 10
-1530.5
 20
-67.09999999999999
 30
0.0
 11
-1530.5
 21
-70.5
 31
0.0
  0
LINE
  5
8E9
330
18
100
AcDbEntity
  8
GUIDE
100
AcDbLine
 10
-1513.0
 20
-48.26
 30
0.0
 11
-1513.0
 21
-44.5
 31
0.0
  0
LINE
  5
8EA
330
18
100
AcDbEntity
  8
GUIDE
100
AcDbLine
 10
-1519.0
 20
-48.26
 30
0.0
 11
-1519.0
 21
-44.5
 31
0.0
  0
LINE
  5
8EB
330
18
100
AcDbEntity
  8
GUIDE
100
AcDbLine
 10
-1519.0
 20
-70.5
 30
0.0
 11
-1519.0
 21
-55.78
 31
0.0
  0
LINE
  5
8EC
330
18
100
AcDbEntity
  8
GUIDE
100
AcDbLine
 10
-1513.0
 20
-70.5
 30
0.0
 11
-1513.0
 21
-55.78
 31
0.0
  0
LINE
  5
8ED
330
18
100
AcDbEntity
  8
GUIDE
100
AcDbLine
 10
-1505.5
 20
-55.78
 30
0.0
 11
-1526.5
 21
-55.78
 31
0.0
  0
LINE
  5
8EE
330
18
100
AcDbEntity
  8
GUIDE
100
AcDbLine
 10
-1505.5
 20
-48.26
 30
0.0
 11
-1526.5
 21
-48.26
 31
0.0
  0
LINE
  5
8EF
330
18
100
AcDbEntity
  8
GUIDE
100
AcDbLine
 10
-1526.5
 20
-48.26
 30
0.0
 11
-1526.5
 21
-55.78
 31
0.0
  0
LINE
  5
8F0
330
18
100
AcDbEntity
  8
GUIDE
100
AcDbLine
 10
-1505.5
 20
-48.26
 30
0.0
 11
-1505.5
 21
-55.78
 31
0.0
  0
LINE
  5
8F1
330
18
100
AcDbEntity
  8
GUIDE
100
AcDbLine
 10
-1565.5
 20
-44.5
 30
0.0
 11
-1565.5
 21
-59.58
 31
0.0
  0
LINE
  5
8F2
330
18
100
AcDbEntity
  8
GUIDE
100
AcDbLine
 10
-1571.5
 20
-44.5
 30
0.0
 11
-1571.5
 21
-59.58
 31
0.0
  0
LINE
  5
8F3
330
18
100
AcDbEntity
  8
GUIDE
100
AcDbLine
 10
-1558.0
 20
-67.09999999999999
 30
0.0
 11
-1579.0
 21
-67.09999999999999
 31
0.0
  0
LINE
  5
8F4
330
18
100
AcDbEntity
  8
GUIDE
100
AcDbLine
 10
-1558.0
 20
-59.58
 30
0.0
 11
-1579.0
 21
-59.58
 31
0.0
  0
LINE
  5
8F5
330
18
100
AcDbEntity
  8
GUIDE
100
AcDbLine
 10
-1579.0
 20
-67.09999999999999
 30
0.0
 11
-1579.0
 21
-59.58
 31
0.0
  0
LINE
  5
8F6
330
18
100
AcDbEntity
  8
GUIDE
100
AcDbLine
 10
-1558.0
 20
-67.09999999999999
 30
0.0
 11
-1558.0
 21
-59.58
 31
0.0
  0
LINE
  5
8F7
330
18
100
AcDbEntity
  8
GUIDE
100
AcDbLine
 10
-1571.5
 20
-67.09999999999999
 30
0.0
 11
-1571.5
 21
-70.5
 31
0.0
  0
LINE
  5
8F8
330
18
100
AcDbEntity
  8
GUIDE
100
AcDbLine
 10
-1565.5
 20
-67.09999999999999
 30
0.0
 11
-1565.5
 21
-70.5
 31
0.0
  0
LINE
  5
8F9
330
18
100
AcDbEntity
  8
GUIDE
100
AcDbLine
 10
-1548.0
 20
-48.26
 30
0.0
 11
-1548.0
 21
-44.5
 31
0.0
  0
LINE
  5
8FA
330
18
100
AcDbEntity
  8
GUIDE
100
AcDbLine
 10
-1554.0
 20
-48.26
 30
0.0
 11
-1554.0
 21
-44.5
 31
0.0
  0
LINE
  5
8FB
330
18
100
AcDbEntity
  8
GUIDE
100
AcDbLine
 10
-1554.0
 20
-70.5
 30
0.0
 11
-1554.0
 21
-55.78
 31
0.0
  0
LINE
  5
8FC
330
18
100
AcDbEntity
  8
GUIDE
100
AcDbLine
 10
-1548.0
 20
-70.5
 30
0.0
 11
-1548.0
 21
-55.78
 31
0.0
  0
LINE
  5
8FD
330
18
100
AcDbEntity
  8
GUIDE
100
AcDbLine
 10
-1540.5
 20
-55.78
 30
0.0
 11
-1561.5
 21
-55.78
 31
0.0
  0
LINE
  5
8FE
330
18
100
AcDbEntity
  8
GUIDE
100
AcDbLine
 10
-1540.5
 20
-48.26
 30
0.0
 11
-1561.5
 21
-48.26
 31
0.0
  0
LINE
  5
8FF
330
18
100
AcDbEntity
  8
GUIDE
100
AcDbLine
 10
-1561.5
 20
-48.26
 30
0.0
 11
-1561.5
 21
-55.78
 31
0.0
  0
LINE
  5
900
330
18
100
AcDbEntity
  8
GUIDE
100
AcDbLine
 10
-1540.5
 20
-48.26
 30
0.0
 11
-1540.5
 21
-55.78
 31
0.0
  0
LINE
  5
901
330
18
100
AcDbEntity
  8
GUIDE
100
AcDbLine
 10
-1575.5
 20
-48.26
 30
0.0
 11
-1575.5
 21
-55.78
 31
0.0
  0
LINE
  5
902
330
18
100
AcDbEntity
  8
GUIDE
100
AcDbLine
 10
-1596.5
 20
-48.26
 30
0.0
 11
-1596.5
 21
-55.78
 31
0.0
  0
LINE
  5
903
330
18
100
AcDbEntity
  8
GUIDE
100
AcDbLine
 10
-1575.5
 20
-48.26
 30
0.0
 11
-1596.5
 21
-48.26
 31
0.0
  0
LINE
  5
904
330
18
100
AcDbEntity
  8
GUIDE
100
AcDbLine
 10
-1575.5
 20
-55.78
 30
0.0
 11
-1596.5
 21
-55.78
 31
0.0
  0
LINE
  5
905
330
18
100
AcDbEntity
  8
GUIDE
100
AcDbLine
 10
-1583.0
 20
-70.5
 30
0.0
 11
-1583.0
 21
-55.78
 31
0.0
  0
LINE
  5
906
330
18
100
AcDbEntity
  8
GUIDE
100
AcDbLine
 10
-1589.0
 20
-70.5
 30
0.0
 11
-1589.0
 21
-55.78
 31
0.0
  0
LINE
  5
907
330
18
100
AcDbEntity
  8
GUIDE
100
AcDbLine
 10
-1589.0
 20
-48.26
 30
0.0
 11
-1589.0
 21
-44.5
 31
0.0
  0
LINE
  5
908
330
18
100
AcDbEntity
  8
GUIDE
100
AcDbLine
 10
-1583.0
 20
-48.26
 30
0.0
 11
-1583.0
 21
-44.5
 31
0.0
  0
LINE
  5
909
330
18
100
AcDbEntity
  8
GUIDE
100
AcDbLine
 10
-1610.0
 20
-67.09999999999999
 30
0.0
 11
-1610.0
 21
-80.5
 31
0.0
  0
LINE
  5
90A
330
18
100
AcDbEntity
  8
GUIDE
100
AcDbLine
 10
-1600.5
 20
-67.09999999999999
 30
0.0
 11
-1600.5
 21
-70.5
 31
0.0
  0
LINE
  5
90B
330
18
100
AcDbEntity
  8
GUIDE
100
AcDbLine
 10
-1606.5
 20
-67.09999999999999
 30
0.0
 11
-1606.5
 21
-70.5
 31
0.0
  0
LINE
  5
90C
330
18
100
AcDbEntity
  8
GUIDE
100
AcDbLine
 10
-1593.0
 20
-67.09999999999999
 30
0.0
 11
-1593.0
 21
-59.58
 31
0.0
  0
LINE
  5
90D
330
18
100
AcDbEntity
  8
GUIDE
100
AcDbLine
 10
-1614.0
 20
-67.09999999999999
 30
0.0
 11
-1614.0
 21
-59.58
 31
0.0
  0
LINE
  5
90E
330
18
100
AcDbEntity
  8
GUIDE
100
AcDbLine
 10
-1593.0
 20
-59.58
 30
0.0
 11
-1614.0
 21
-59.58
 31
0.0
  0
LINE
  5
90F
330
18
100
AcDbEntity
  8
GUIDE
100
AcDbLine
 10
-1593.0
 20
-67.09999999999999
 30
0.0
 11
-1614.0
 21
-67.09999999999999
 31
0.0
  0
LINE
  5
910
330
18
100
AcDbEntity
  8
GUIDE
100
AcDbLine
 10
-1610.0
 20
-44.5
 30
0.0
 11
483.0
 21
-44.5
 31
0.0
  0
LINE
  5
911
330
18
100
AcDbEntity
  8
GUIDE
100
AcDbLine
 10
-1606.5
 20
-44.5
 30
0.0
 11
-1606.5
 21
-59.58
 31
0.0
  0
LINE
  5
912
330
18
100
AcDbEntity
  8
GUIDE
100
AcDbLine
 10
-1600.5
 20
-44.5
 30
0.0
 11
-1600.5
 21
-59.58
 31
0.0
  0
LINE
  5
913
330
18
100
AcDbEntity
  8
GUIDE
100
AcDbLine
 10
-1610.0
 20
-34.5
 30
0.0
 11
483.0
 21
-34.5
 31
0.0
  0
LINE
  5
914
330
18
100
AcDbEntity
  8
GUIDE
100
AcDbLine
 10
-1610.0
 20
-34.5
 30
0.0
 11
-1610.0
 21
-59.58
 31
0.0
  0
LINE
  5
915
330
18
100
AcDbEntity
  8
GUIDE
100
AcDbLine
 10
-1610.0
 20
-36.9
 30
0.0
 11
483.0
 21
-36.9
 31
0.0
  0
LINE
  5
916
330
18
100
AcDbEntity
  8
GUIDE
100
AcDbLine
 10
-1610.0
 20
-78.09999999999999
 30
0.0
 11
483.0
 21
-78.09999999999999
 31
0.0
  0
LINE
  5
917
330
18
100
AcDbEntity
  8
GUIDE
100
AcDbLine
 10
555.5
 20
-44.5
 30
0.0
 11
558.5
 21
-41.5
 31
0.0
  0
LINE
  5
918
330
18
100
AcDbEntity
  8
GUIDE
100
AcDbLine
 10
558.5
 20
-47.5
 30
0.0
 11
561.5
 21
-44.5
 31
0.0
  0
LINE
  5
919
330
18
100
AcDbEntity
  8
GUIDE
100
AcDbLine
 10
561.5
 20
-70.5
 30
0.0
 11
558.5
 21
-67.5
 31
0.0
  0
LINE
  5
91A
330
18
100
AcDbEntity
  8
GUIDE
100
AcDbLine
 10
555.5
 20
-70.5
 30
0.0
 11
558.5
 21
-73.5
 31
0.0
  0
LINE
  5
91B
330
18
100
AcDbEntity
  8
GUIDE
100
AcDbLine
 10
582.5
 20
-67.09999999999999
 30
0.0
 11
590.0
 21
-67.09999999999999
 31
0.0
  0
LINE
  5
91C
330
18
100
AcDbEntity
  8
GUIDE
100
AcDbLine
 10
582.5
 20
-59.58
 30
0.0
 11
590.0
 21
-59.58
 31
0.0
  0
LINE
  5
91D
330
18
100
AcDbEntity
  8
GUIDE
100
AcDbLine
 10
569.0
 20
-59.58
 30
0.0
 11
576.5
 21
-59.58
 31
0.0
  0
LINE
  5
91E
330
18
100
AcDbEntity
  8
GUIDE
100
AcDbLine
 10
569.0
 20
-67.09999999999999
 30
0.0
 11
576.5
 21
-67.09999999999999
 31
0.0
  0
LINE
  5
91F
330
18
100
AcDbEntity
  8
GUIDE
100
AcDbLine
 10
590.0
 20
-48.26
 30
0.0
 11
590.0
 21
-55.78
 31
0.0
  0
LINE
  5
920
330
18
100
AcDbEntity
  8
GUIDE
100
AcDbLine
 10
569.0
 20
-48.26
 30
0.0
 11
569.0
 21
-55.78
 31
0.0
  0
LINE
  5
921
330
18
100
AcDbEntity
  8
GUIDE
100
AcDbLine
 10
590.0
 20
-48.26
 30
0.0
 11
569.0
 21
-48.26
 31
0.0
  0
LINE
  5
922
330
18
100
AcDbEntity
  8
GUIDE
100
AcDbLine
 10
590.0
 20
-55.78
 30
0.0
 11
569.0
 21
-55.78
 31
0.0
  0
LINE
  5
923
330
18
100
AcDbEntity
  8
GUIDE
100
AcDbLine
 10
582.5
 20
-70.5
 30
0.0
 11
582.5
 21
-55.78
 31
0.0
  0
LINE
  5
924
330
18
100
AcDbEntity
  8
GUIDE
100
AcDbLine
 10
576.5
 20
-70.5
 30
0.0
 11
576.5
 21
-55.78
 31
0.0
  0
LINE
  5
925
330
18
100
AcDbEntity
  8
GUIDE
100
AcDbLine
 10
576.5
 20
-48.26
 30
0.0
 11
576.5
 21
-44.5
 31
0.0
  0
LINE
  5
926
330
18
100
AcDbEntity
  8
GUIDE
100
AcDbLine
 10
582.5
 20
-48.26
 30
0.0
 11
582.5
 21
-44.5
 31
0.0
  0
LINE
  5
927
330
18
100
AcDbEntity
  8
GUIDE
100
AcDbLine
 10
569.0
 20
-67.09999999999999
 30
0.0
 11
569.0
 21
-59.58
 31
0.0
  0
LINE
  5
928
330
18
100
AcDbEntity
  8
GUIDE
100
AcDbLine
 10
590.0
 20
-59.58
 30
0.0
 11
590.0
 21
-67.09999999999999
 31
0.0
  0
LINE
  5
929
330
18
100
AcDbEntity
  8
GUIDE
100
AcDbLine
 10
565.5
 20
-73.5
 30
0.0
 11
565.5
 21
-80.5
 31
0.0
  0
LINE
  5
92A
330
18
100
AcDbEntity
  8
GUIDE
100
AcDbLine
 10
576.5
 20
-70.5
 30
0.0
 11
576.5
 21
-73.5
 31
0.0
  0
LINE
  5
92B
330
18
100
AcDbEntity
  8
GUIDE
100
AcDbLine
 10
576.5
 20
-41.5
 30
0.0
 11
576.5
 21
-44.5
 31
0.0
  0
LINE
  5
92C
330
18
100
AcDbEntity
  8
GUIDE
100
AcDbLine
 10
576.5
 20
-73.5
 30
0.0
 11
558.5
 21
-73.5
 31
0.0
  0
LINE
  5
92D
330
18
100
AcDbEntity
  8
GUIDE
100
AcDbLine
 10
558.5
 20
-47.5
 30
0.0
 11
558.5
 21
-67.5
 31
0.0
  0
LINE
  5
92E
330
18
100
AcDbEntity
  8
GUIDE
100
AcDbLine
 10
576.5
 20
-41.5
 30
0.0
 11
558.5
 21
-41.5
 31
0.0
  0
LINE
  5
92F
330
18
100
AcDbEntity
  8
GUIDE
100
AcDbLine
 10
586.0
 20
-70.5
 30
0.0
 11
586.0
 21
-78.09999999999999
 31
0.0
  0
LINE
  5
930
330
18
100
AcDbEntity
  8
GUIDE
100
AcDbLine
 10
586.0
 20
-36.9
 30
0.0
 11
586.0
 21
-44.5
 31
0.0
  0
LINE
  5
931
330
18
100
AcDbEntity
  8
GUIDE
100
AcDbLine
 10
586.0
 20
-70.5
 30
0.0
 11
561.5
 21
-70.5
 31
0.0
  0
LINE
  5
932
330
18
100
AcDbEntity
  8
GUIDE
100
AcDbLine
 10
586.0
 20
-44.5
 30
0.0
 11
561.5
 21
-44.5
 31
0.0
  0
LINE
  5
933
330
18
100
AcDbEntity
  8
GUIDE
100
AcDbLine
 10
582.0
 20
-80.5
 30
0.0
 11
565.5
 21
-80.5
 31
0.0
  0
LINE
  5
934
330
18
100
AcDbEntity
  8
GUIDE
100
AcDbLine
 10
582.0
 20
-34.5
 30
0.0
 11
565.5
 21
-34.5
 31
0.0
  0
LINE
  5
935
330
18
100
AcDbEntity
  8
GUIDE
100
AcDbLine
 10
565.5
 20
-34.5
 30
0.0
 11
565.5
 21
-41.5
 31
0.0
  0
LINE
  5
936
330
18
100
AcDbEntity
  8
GUIDE
100
AcDbLine
 10
555.5
 20
-44.5
 30
0.0
 11
555.5
 21
-70.5
 31
0.0
  0
POLYLINE
  5
937
330
18
100
AcDbEntity
  8
0
100
AcDb2dPolyline
 66
     1
 10
0.0
 20
0.0
 30
0.0
  0
VERTEX
  5
98C
330
937
100
AcDbEntity
  8
0
100
AcDbVertex
100
AcDb2dVertex
 10
545.5
 20
-31.0
 30
0.0
  0
VERTEX
  5
98D
330
937
100
AcDbEntity
  8
0
100
AcDbVertex
100
AcDb2dVertex
 10
545.5
 20
-31.0
 30
0.0
  0
SEQEND
  5
98B
330
937
100
AcDbEntity
  8
0
  0
POLYLINE
  5
93A
330
18
100
AcDbEntity
  8
GUIDE
100
AcDb2dPolyline
 66
     1
 10
0.0
 20
0.0
 30
0.0
  0
VERTEX
  5
98F
330
93A
100
AcDbEntity
  8
GUIDE
100
AcDbVertex
100
AcDb2dVertex
 10
586.0
 20
-36.9
 30
0.0
  0
VERTEX
  5
990
330
93A
100
AcDbEntity
  8
GUIDE
100
AcDbVertex
100
AcDb2dVertex
 10
582.0
 20
-36.9
 30
0.0
  0
VERTEX
  5
991
330
93A
100
AcDbEntity
  8
GUIDE
100
AcDbVertex
100
AcDb2dVertex
 10
582.0
 20
-34.5
 30
0.0
  0
SEQEND
  5
98E
330
93A
100
AcDbEntity
  8
GUIDE
  0
POLYLINE
  5
93F
330
18
100
AcDbEntity
  8
GUIDE
100
AcDb2dPolyline
 66
     1
 10
0.0
 20
0.0
 30
0.0
  0
VERTEX
  5
993
330
93F
100
AcDbEntity
  8
GUIDE
100
AcDbVertex
100
AcDb2dVertex
 10
582.0
 20
-78.09999999999999
 30
0.0
  0
VERTEX
  5
994
330
93F
100
AcDbEntity
  8
GUIDE
100
AcDbVertex
100
AcDb2dVertex
 10
586.0
 20
-78.09999999999999
 30
0.0
  0
SEQEND
  5
992
330
93F
100
AcDbEntity
  8
GUIDE
  0
POLYLINE
  5
943
330
18
100
AcDbEntity
  8
GUIDE
100
AcDb2dPolyline
 66
     1
 10
0.0
 20
0.0
 30
0.0
  0
VERTEX
  5
996
330
943
100
AcDbEntity
  8
GUIDE
100
AcDbVertex
100
AcDb2dVertex
 10
582.0
 20
-80.5
 30
0.0
  0
VERTEX
  5
997
330
943
100
AcDbEntity
  8
GUIDE
100
AcDbVertex
100
AcDb2dVertex
 10
582.0
 20
-78.09999999999999
 30
0.0
  0
SEQEND
  5
995
330
943
100
AcDbEntity
  8
GUIDE
  0
ENDSEC
  0
SECTION
  2
OBJECTS
  0
DICTIONARY
  5
C
330
0
100
AcDbDictionary
  3
ACAD_GROUP
350
D
  3
ACAD_LAYOUT
350
948
  3
ACAD_MLINESTYLE
350
E
1001
ACAD
1000
TREAT_AS_HARD
1070
     0
  0
DICTIONARY
  5
998
330
947
100
AcDbDictionary
  3
ACAD_XREC_ROUNDTRIP
360
999
  0
DICTIONARY
  5
D
102
{ACAD_REACTORS
330
C
102
}
330
C
100
AcDbDictionary
1001
ACAD
1000
TREAT_AS_HARD
1070
     0
  0
DICTIONARY
  5
948
102
{ACAD_REACTORS
330
C
102
}
330
C
100
AcDbDictionary
1001
ACAD
1000
TREAT_AS_HARD
1070
     0
  0
DICTIONARY
  5
E
102
{ACAD_REACTORS
330
C
102
}
330
C
100
AcDbDictionary
  3
STANDARD
350
1B
1001
ACAD
1000
TREAT_AS_HARD
1070
     0
  0
XRECORD
  5
999
102
{ACAD_REACTORS
330
998
102
}
330
998
100
AcDbXrecord
102
UCS
 74
     0
 71
     1
 10
0.0
 20
0.0
 30
0.0
 10
1.0
 20
0.0
 30
0.0
 10
0.0
 20
1.0
 30
0.0
146
0.0
 79
     0
102
VIEW
281
     0
  0
MLINESTYLE
  5
1B
102
{ACAD_REACTORS
330
E
102
}
330
E
100
AcDbMlineStyle
  2
STANDARD
 70
     0
  3

 62
     0
 51
90.0
 52
90.0
 71
     2
 49
0.5
 62
   256
  6
BYLAYER
 49
-0.5
 62
   256
  6
BYLAYER
  0
ENDSEC
  0
EOF
