  0
SECTION
  2
HEADER
  9
$ACADVER
  1
AC1012
  9
$DWGCODEPAGE
  3
ansi_1252
  9
$INSBASE
 10
0.0
 20
0.0
 30
0.0
  9
$EXTMIN
 10
-1723.0
 20
-18.14
 30
0.0
  9
$EXTMAX
 10
425.481537
 20
139.0
 30
0.0
  9
$LIMMIN
 10
0.0
 20
0.0
  9
$LIMMAX
 10
12.0
 20
9.0
  9
$ORTHOMODE
 70
     1
  9
$REGENMODE
 70
     1
  9
$FILLMODE
 70
     1
  9
$QTEXTMODE
 70
     0
  9
$MIRRTEXT
 70
     1
  9
$DRAGMODE
 70
     2
  9
$LTSCALE
 40
1.0
  9
$OSMODE
 70
    37
  9
$ATTMODE
 70
     1
  9
$TEXTSIZE
 40
0.2
  9
$TRACEWID
 40
0.05
  9
$TEXTSTYLE
  7
STANDARD
  9
$CLAYER
  8
0
  9
$CELTYPE
  6
BYLAYER
  9
$CECOLOR
 62
   256
  9
$CELTSCALE
 40
1.0
  9
$DELOBJ
 70
     1
  9
$DISPSILH
 70
     0
  9
$DIMSCALE
 40
1.0
  9
$DIMASZ
 40
0.18
  9
$DIMEXO
 40
0.0625
  9
$DIMDLI
 40
0.38
  9
$DIMRND
 40
0.0
  9
$DIMDLE
 40
0.0
  9
$DIMEXE
 40
0.18
  9
$DIMTP
 40
0.0
  9
$DIMTM
 40
0.0
  9
$DIMTXT
 40
0.18
  9
$DIMCEN
 40
0.09
  9
$DIMTSZ
 40
0.0
  9
$DIMTOL
 70
     0
  9
$DIMLIM
 70
     0
  9
$DIMTIH
 70
     1
  9
$DIMTOH
 70
     1
  9
$DIMSE1
 70
     0
  9
$DIMSE2
 70
     0
  9
$DIMTAD
 70
     0
  9
$DIMZIN
 70
     0
  9
$DIMBLK
  1

  9
$DIMASO
 70
     1
  9
$DIMSHO
 70
     1
  9
$DIMPOST
  1

  9
$DIMAPOST
  1

  9
$DIMALT
 70
     0
  9
$DIMALTD
 70
     2
  9
$DIMALTF
 40
25.4
  9
$DIMLFAC
 40
1.0
  9
$DIMTOFL
 70
     0
  9
$DIMTVP
 40
0.0
  9
$DIMTIX
 70
     0
  9
$DIMSOXD
 70
     0
  9
$DIMSAH
 70
     0
  9
$DIMBLK1
  1

  9
$DIMBLK2
  1

  9
$DIMSTYLE
  2
STANDARD
  9
$DIMCLRD
 70
     0
  9
$DIMCLRE
 70
     0
  9
$DIMCLRT
 70
     0
  9
$DIMTFAC
 40
1.0
  9
$DIMGAP
 40
0.09
  9
$DIMJUST
 70
     0
  9
$DIMSD1
 70
     0
  9
$DIMSD2
 70
     0
  9
$DIMTOLJ
 70
     1
  9
$DIMTZIN
 70
     0
  9
$DIMALTZ
 70
     0
  9
$DIMALTTZ
 70
     0
  9
$DIMFIT
 70
     3
  9
$DIMUPT
 70
     0
  9
$DIMUNIT
 70
     2
  9
$DIMDEC
 70
     4
  9
$DIMTDEC
 70
     4
  9
$DIMALTU
 70
     2
  9
$DIMALTTD
 70
     2
  9
$DIMTXSTY
  7
STANDARD
  9
$DIMAUNIT
 70
     0
  9
$LUNITS
 70
     2
  9
$LUPREC
 70
     4
  9
$SKETCHINC
 40
0.1
  9
$FILLETRAD
 40
0.0
  9
$AUNITS
 70
     0
  9
$AUPREC
 70
     0
  9
$MENU
  1
acad
  9
$ELEVATION
 40
0.0
  9
$PELEVATION
 40
0.0
  9
$THICKNESS
 40
0.0
  9
$LIMCHECK
 70
     0
  9
$CHAMFERA
 40
0.0
  9
$CHAMFERB
 40
0.0
  9
$CHAMFERC
 40
0.0
  9
$CHAMFERD
 40
0.0
  9
$SKPOLY
 70
     0
  9
$TDCREATE
 40
2447893.083333334
  9
$TDUPDATE
 40
2447893.083333334
  9
$TDINDWG
 40
0.0028716435
  9
$TDUSRTIMER
 40
0.0028716435
  9
$USRTIMER
 70
     1
  9
$ANGBASE
 50
0.0
  9
$ANGDIR
 70
     0
  9
$PDMODE
 70
     0
  9
$PDSIZE
 40
0.0
  9
$PLINEWID
 40
0.0
  9
$COORDS
 70
     1
  9
$SPLFRAME
 70
     0
  9
$SPLINETYPE
 70
     6
  9
$SPLINESEGS
 70
     8
  9
$ATTDIA
 70
     0
  9
$ATTREQ
 70
     1
  9
$HANDLING
 70
     1
  9
$HANDSEED
  5
102E
  9
$SURFTAB1
 70
     6
  9
$SURFTAB2
 70
     6
  9
$SURFTYPE
 70
     6
  9
$SURFU
 70
     6
  9
$SURFV
 70
     6
  9
$UCSNAME
  2

  9
$UCSORG
 10
0.0
 20
0.0
 30
0.0
  9
$UCSXDIR
 10
1.0
 20
0.0
 30
0.0
  9
$UCSYDIR
 10
0.0
 20
1.0
 30
0.0
  9
$PUCSNAME
  2

  9
$PUCSORG
 10
0.0
 20
0.0
 30
0.0
  9
$PUCSXDIR
 10
1.0
 20
0.0
 30
0.0
  9
$PUCSYDIR
 10
0.0
 20
1.0
 30
0.0
  9
$USERI1
 70
     0
  9
$USERI2
 70
     0
  9
$USERI3
 70
     0
  9
$USERI4
 70
     0
  9
$USERI5
 70
     0
  9
$USERR1
 40
0.0
  9
$USERR2
 40
0.0
  9
$USERR3
 40
0.0
  9
$USERR4
 40
0.0
  9
$USERR5
 40
0.0
  9
$WORLDVIEW
 70
     1
  9
$SHADEDGE
 70
     3
  9
$SHADEDIF
 70
    70
  9
$TILEMODE
 70
     1
  9
$MAXACTVP
 70
    16
  9
$PINSBASE
 10
0.0
 20
0.0
 30
0.0
  9
$PLIMCHECK
 70
     0
  9
$PEXTMIN
 10
1.000000000000000E+20
 20
1.000000000000000E+20
 30
1.000000000000000E+20
  9
$PEXTMAX
 10
-1.000000000000000E+20
 20
-1.000000000000000E+20
 30
-1.000000000000000E+20
  9
$PLIMMIN
 10
0.0
 20
0.0
  9
$PLIMMAX
 10
12.0
 20
9.0
  9
$UNITMODE
 70
     0
  9
$VISRETAIN
 70
     0
  9
$PLINEGEN
 70
     0
  9
$PSLTSCALE
 70
     1
  9
$TREEDEPTH
 70
  3020
  9
$PICKSTYLE
 70
     1
  9
$CMLSTYLE
  2
STANDARD
  9
$CMLJUST
 70
     0
  9
$CMLSCALE
 40
1.0
  9
$SAVEIMAGES
 70
     1
  0
ENDSEC
  0
SECTION
  2
CLASSES
  0
CLASS
  1
XRECORD
  2
AcDbXrecord
  3
AutoCAD 2000
 90
    32768
280
     0
281
     0
  0
CLASS
  1
LWPOLYLINE
  2
AcDbPolyline
  3
AutoCAD 2000
 90
    32768
280
     0
281
     1
  0
CLASS
  1
HATCH
  2
AcDbHatch
  3
AutoCAD 2000
 90
    32768
280
     0
281
     1
  0
CLASS
  1
ACDBPLACEHOLDER
  2
AcDbPlaceHolder
  3
ObjectDBX Classes
 90
        0
280
     0
281
     0
  0
CLASS
  1
LAYOUT
  2
AcDbLayout
  3
ObjectDBX Classes
 90
        0
280
     0
281
     0
  0
ENDSEC
  0
SECTION
  2
TABLES
  0
TABLE
  2
VPORT
  5
8
330
0
100
AcDbSymbolTable
 70
     1
  0
VPORT
  5
FE1
102
{ACAD_XDICTIONARY
360
102C
102
}
330
8
100
AcDbSymbolTableRecord
100
AcDbViewportTableRecord
  2
*ACTIVE
 70
     0
 10
0.0
 20
0.0
 11
1.0
 21
1.0
 12
-648.759231
 22
542.717462
 13
0.0
 23
0.0
 14
1.0
 24
1.0
 15
0.0
 25
0.0
 16
0.0
 26
0.0
 36
1.0
 17
0.0
 27
0.0
 37
0.0
 40
1121.714924
 41
1.915354
 42
50.0
 43
0.0
 44
0.0
 50
0.0
 51
0.0
 71
     0
 72
   100
 73
     1
 74
     1
 75
     0
 76
     0
 77
     0
 78
     0
  0
ENDTAB
  0
TABLE
  2
LTYPE
  5
5
330
0
100
AcDbSymbolTable
 70
     1
  0
LTYPE
  5
14
330
5
100
AcDbSymbolTableRecord
100
AcDbLinetypeTableRecord
  2
BYBLOCK
 70
     0
  3

 72
    65
 73
     0
 40
0.0
  0
LTYPE
  5
15
330
5
100
AcDbSymbolTableRecord
100
AcDbLinetypeTableRecord
  2
BYLAYER
 70
     0
  3

 72
    65
 73
     0
 40
0.0
  0
LTYPE
  5
16
330
5
100
AcDbSymbolTableRecord
100
AcDbLinetypeTableRecord
  2
CONTINUOUS
 70
     0
  3
Solid line
 72
    65
 73
     0
 40
0.0
  0
ENDTAB
  0
TABLE
  2
LAYER
  5
2
330
0
100
AcDbSymbolTable
 70
     2
  0
LAYER
  5
F
330
2
100
AcDbSymbolTableRecord
100
AcDbLayerTableRecord
  2
0
 70
     0
 62
     7
  6
CONTINUOUS
  0
LAYER
  5
28
330
2
100
AcDbSymbolTableRecord
100
AcDbLayerTableRecord
  2
GUIDE
 70
     0
 62
     7
  6
CONTINUOUS
  0
ENDTAB
  0
TABLE
  2
STYLE
  5
3
330
0
100
AcDbSymbolTable
 70
     1
  0
STYLE
  5
10
330
3
100
AcDbSymbolTableRecord
100
AcDbTextStyleTableRecord
  2
STANDARD
 70
     0
 40
0.0
 41
1.0
 50
0.0
 71
     0
 42
0.2
  3
txt
  4

  0
ENDTAB
  0
TABLE
  2
VIEW
  5
6
330
0
100
AcDbSymbolTable
 70
     0
  0
ENDTAB
  0
TABLE
  2
UCS
  5
7
330
0
100
AcDbSymbolTable
 70
     0
  0
ENDTAB
  0
TABLE
  2
APPID
  5
9
330
0
100
AcDbSymbolTable
 70
     1
  0
APPID
  5
11
330
9
100
AcDbSymbolTableRecord
100
AcDbRegAppTableRecord
  2
ACAD
 70
     0
  0
ENDTAB
  0
TABLE
  2
DIMSTYLE
  5
A
330
0
100
AcDbSymbolTable
 70
     1
  0
DIMSTYLE
105
1D
330
A
100
AcDbSymbolTableRecord
100
AcDbDimStyleTableRecord
  2
STANDARD
 70
     0
  3

  4

  5

  6

  7

 40
1.0
 41
0.18
 42
0.0625
 43
0.38
 44
0.18
 45
0.0
 46
0.0
 47
0.0
 48
0.0
140
0.18
141
0.09
142
0.0
143
25.4
144
1.0
145
0.0
146
1.0
147
0.09
 71
     0
 72
     0
 73
     1
 74
     1
 75
     0
 76
     0
 77
     0
 78
     0
170
     0
171
     2
172
     0
173
     0
174
     0
175
     0
176
     0
177
     0
178
     0
270
     2
271
     4
272
     4
273
     2
274
     2
340
10
275
     0
280
     0
281
     0
282
     0
283
     1
284
     0
285
     0
286
     0
287
     3
288
     0
  0
ENDTAB
  0
TABLE
  2
BLOCK_RECORD
  5
1
330
0
100
AcDbSymbolTable
 70
     0
  0
BLOCK_RECORD
  5
1A
330
1
100
AcDbSymbolTableRecord
100
AcDbBlockTableRecord
  2
*MODEL_SPACE
  0
BLOCK_RECORD
  5
17
330
1
100
AcDbSymbolTableRecord
100
AcDbBlockTableRecord
  2
*PAPER_SPACE
  0
ENDTAB
  0
ENDSEC
  0
SECTION
  2
BLOCKS
  0
BLOCK
  5
1B
330
1A
100
AcDbEntity
  8
0
100
AcDbBlockBegin
  2
*MODEL_SPACE
 70
     0
 71
     0
 10
0.0
 20
0.0
 30
0.0
  3
*MODEL_SPACE
  1

  0
ENDBLK
  5
1C
330
1A
100
AcDbEntity
  8
0
100
AcDbBlockEnd
  0
BLOCK
  5
18
330
17
100
AcDbEntity
 67
     1
  8
0
100
AcDbBlockBegin
  2
*PAPER_SPACE
 70
     0
 71
     0
 10
0.0
 20
0.0
 30
0.0
  3
*PAPER_SPACE
  1

  0
ENDBLK
  5
19
330
17
100
AcDbEntity
 67
     1
  8
0
100
AcDbBlockEnd
  0
ENDSEC
  0
SECTION
  2
ENTITIES
  0
POLYLINE
  5
80E
330
1A
100
AcDbEntity
  8
GUIDE
100
AcDb2dPolyline
 66
     1
 10
0.0
 20
0.0
 30
0.0
  0
VERTEX
  5
101D
330
80E
100
AcDbEntity
  8
GUIDE
100
AcDbVertex
100
AcDb2dVertex
 10
374.0
 20
118.791756
 30
0.0
 42
0.497786
  0
VERTEX
  5
101E
330
80E
100
AcDbEntity
  8
GUIDE
100
AcDbVertex
100
AcDb2dVertex
 10
378.246211
 20
135.0
 30
0.0
 42
0.485071
  0
SEQEND
  5
101C
330
80E
100
AcDbEntity
  8
GUIDE
  0
POLYLINE
  5
812
330
1A
100
AcDbEntity
  8
GUIDE
100
AcDb2dPolyline
 66
     1
 10
0.0
 20
0.0
 30
0.0
  0
VERTEX
  5
1020
330
812
100
AcDbEntity
  8
GUIDE
100
AcDbVertex
100
AcDb2dVertex
 10
378.246211
 20
135.0
 30
0.0
 42
0.485071
  0
VERTEX
  5
1021
330
812
100
AcDbEntity
  8
GUIDE
100
AcDbVertex
100
AcDb2dVertex
 10
361.753789
 20
135.0
 30
0.0
 42
2.061553
  0
SEQEND
  5
101F
330
812
100
AcDbEntity
  8
GUIDE
  0
ARC
  5
816
330
1A
100
AcDbEntity
  8
GUIDE
100
AcDbCircle
 10
352.5
 20
128.5
 30
0.0
 40
10.5
100
AcDbArc
 50
38.24662
 51
141.75338
  0
ARC
  5
817
330
1A
100
AcDbEntity
  8
GUIDE
100
AcDbCircle
 10
335.0
 20
128.5
 30
0.0
 40
10.5
100
AcDbArc
 50
38.24662
 51
141.75338
  0
ARC
  5
818
330
1A
100
AcDbEntity
  8
GUIDE
100
AcDbCircle
 10
317.5
 20
128.5
 30
0.0
 40
10.5
100
AcDbArc
 50
38.24662
 51
141.75338
  0
ARC
  5
819
330
1A
100
AcDbEntity
  8
GUIDE
100
AcDbCircle
 10
300.0
 20
128.5
 30
0.0
 40
10.5
100
AcDbArc
 50
38.24662
 51
141.75338
  0
ARC
  5
81A
330
1A
100
AcDbEntity
  8
GUIDE
100
AcDbCircle
 10
282.5
 20
128.5
 30
0.0
 40
10.5
100
AcDbArc
 50
38.24662
 51
141.75338
  0
ARC
  5
81B
330
1A
100
AcDbEntity
  8
GUIDE
100
AcDbCircle
 10
265.0
 20
128.5
 30
0.0
 40
10.5
100
AcDbArc
 50
38.24662
 51
141.75338
  0
ARC
  5
81C
330
1A
100
AcDbEntity
  8
GUIDE
100
AcDbCircle
 10
247.5
 20
128.5
 30
0.0
 40
10.5
100
AcDbArc
 50
38.24662
 51
141.75338
  0
ARC
  5
81D
330
1A
100
AcDbEntity
  8
GUIDE
100
AcDbCircle
 10
230.0
 20
128.5
 30
0.0
 40
10.5
100
AcDbArc
 50
38.24662
 51
141.75338
  0
ARC
  5
81E
330
1A
100
AcDbEntity
  8
GUIDE
100
AcDbCircle
 10
212.5
 20
128.5
 30
0.0
 40
10.5
100
AcDbArc
 50
38.24662
 51
141.75338
  0
ARC
  5
81F
330
1A
100
AcDbEntity
  8
GUIDE
100
AcDbCircle
 10
195.0
 20
128.5
 30
0.0
 40
10.5
100
AcDbArc
 50
38.24662
 51
141.75338
  0
ARC
  5
820
330
1A
100
AcDbEntity
  8
GUIDE
100
AcDbCircle
 10
177.5
 20
128.5
 30
0.0
 40
10.5
100
AcDbArc
 50
38.24662
 51
141.75338
  0
ARC
  5
821
330
1A
100
AcDbEntity
  8
GUIDE
100
AcDbCircle
 10
160.0
 20
128.5
 30
0.0
 40
10.5
100
AcDbArc
 50
38.24662
 51
141.75338
  0
ARC
  5
822
330
1A
100
AcDbEntity
  8
GUIDE
100
AcDbCircle
 10
142.5
 20
128.5
 30
0.0
 40
10.5
100
AcDbArc
 50
38.24662
 51
141.75338
  0
ARC
  5
823
330
1A
100
AcDbEntity
  8
GUIDE
100
AcDbCircle
 10
125.0
 20
128.5
 30
0.0
 40
10.5
100
AcDbArc
 50
38.24662
 51
141.75338
  0
ARC
  5
824
330
1A
100
AcDbEntity
  8
GUIDE
100
AcDbCircle
 10
107.5
 20
128.5
 30
0.0
 40
10.5
100
AcDbArc
 50
38.24662
 51
141.75338
  0
ARC
  5
825
330
1A
100
AcDbEntity
  8
GUIDE
100
AcDbCircle
 10
90.0
 20
128.5
 30
0.0
 40
10.5
100
AcDbArc
 50
38.24662
 51
141.75338
  0
ARC
  5
826
330
1A
100
AcDbEntity
  8
GUIDE
100
AcDbCircle
 10
72.5
 20
128.5
 30
0.0
 40
10.5
100
AcDbArc
 50
38.24662
 51
141.75338
  0
ARC
  5
827
330
1A
100
AcDbEntity
  8
GUIDE
100
AcDbCircle
 10
55.0
 20
128.5
 30
0.0
 40
10.5
100
AcDbArc
 50
38.24662
 51
141.75338
  0
ARC
  5
828
330
1A
100
AcDbEntity
  8
GUIDE
100
AcDbCircle
 10
37.5
 20
128.5
 30
0.0
 40
10.5
100
AcDbArc
 50
38.24662
 51
141.75338
  0
ARC
  5
829
330
1A
100
AcDbEntity
  8
GUIDE
100
AcDbCircle
 10
20.0
 20
128.5
 30
0.0
 40
10.5
100
AcDbArc
 50
38.24662
 51
141.75338
  0
ARC
  5
82A
330
1A
100
AcDbEntity
  8
GUIDE
100
AcDbCircle
 10
2.5
 20
128.5
 30
0.0
 40
10.5
100
AcDbArc
 50
38.24662
 51
141.75338
  0
ARC
  5
82B
330
1A
100
AcDbEntity
  8
GUIDE
100
AcDbCircle
 10
-15.0
 20
128.5
 30
0.0
 40
10.5
100
AcDbArc
 50
38.24662
 51
141.75338
  0
ARC
  5
82C
330
1A
100
AcDbEntity
  8
GUIDE
100
AcDbCircle
 10
-32.5
 20
128.5
 30
0.0
 40
10.5
100
AcDbArc
 50
38.24662
 51
141.75338
  0
ARC
  5
82D
330
1A
100
AcDbEntity
  8
GUIDE
100
AcDbCircle
 10
-50.0
 20
128.5
 30
0.0
 40
10.5
100
AcDbArc
 50
38.24662
 51
141.75338
  0
ARC
  5
82E
330
1A
100
AcDbEntity
  8
GUIDE
100
AcDbCircle
 10
-67.5
 20
128.5
 30
0.0
 40
10.5
100
AcDbArc
 50
38.24662
 51
141.75338
  0
ARC
  5
82F
330
1A
100
AcDbEntity
  8
GUIDE
100
AcDbCircle
 10
-85.0
 20
128.5
 30
0.0
 40
10.5
100
AcDbArc
 50
38.24662
 51
141.75338
  0
ARC
  5
830
330
1A
100
AcDbEntity
  8
GUIDE
100
AcDbCircle
 10
-102.5
 20
128.5
 30
0.0
 40
10.5
100
AcDbArc
 50
38.24662
 51
141.75338
  0
ARC
  5
831
330
1A
100
AcDbEntity
  8
GUIDE
100
AcDbCircle
 10
-120.0
 20
128.5
 30
0.0
 40
10.5
100
AcDbArc
 50
38.24662
 51
141.75338
  0
ARC
  5
832
330
1A
100
AcDbEntity
  8
GUIDE
100
AcDbCircle
 10
-137.5
 20
128.5
 30
0.0
 40
10.5
100
AcDbArc
 50
38.24662
 51
141.75338
  0
ARC
  5
833
330
1A
100
AcDbEntity
  8
GUIDE
100
AcDbCircle
 10
-155.0
 20
128.5
 30
0.0
 40
10.5
100
AcDbArc
 50
38.24662
 51
141.75338
  0
ARC
  5
834
330
1A
100
AcDbEntity
  8
GUIDE
100
AcDbCircle
 10
-172.5
 20
128.5
 30
0.0
 40
10.5
100
AcDbArc
 50
38.24662
 51
141.75338
  0
ARC
  5
835
330
1A
100
AcDbEntity
  8
GUIDE
100
AcDbCircle
 10
-190.0
 20
128.5
 30
0.0
 40
10.5
100
AcDbArc
 50
38.24662
 51
141.75338
  0
ARC
  5
836
330
1A
100
AcDbEntity
  8
GUIDE
100
AcDbCircle
 10
-207.5
 20
128.5
 30
0.0
 40
10.5
100
AcDbArc
 50
38.24662
 51
141.75338
  0
ARC
  5
837
330
1A
100
AcDbEntity
  8
GUIDE
100
AcDbCircle
 10
-225.0
 20
128.5
 30
0.0
 40
10.5
100
AcDbArc
 50
38.24662
 51
141.75338
  0
ARC
  5
838
330
1A
100
AcDbEntity
  8
GUIDE
100
AcDbCircle
 10
-242.5
 20
128.5
 30
0.0
 40
10.5
100
AcDbArc
 50
38.24662
 51
141.75338
  0
ARC
  5
839
330
1A
100
AcDbEntity
  8
GUIDE
100
AcDbCircle
 10
-260.0
 20
128.5
 30
0.0
 40
10.5
100
AcDbArc
 50
38.24662
 51
141.75338
  0
ARC
  5
83A
330
1A
100
AcDbEntity
  8
GUIDE
100
AcDbCircle
 10
-277.5
 20
128.5
 30
0.0
 40
10.5
100
AcDbArc
 50
38.24662
 51
141.75338
  0
ARC
  5
83B
330
1A
100
AcDbEntity
  8
GUIDE
100
AcDbCircle
 10
-295.0
 20
128.5
 30
0.0
 40
10.5
100
AcDbArc
 50
38.24662
 51
141.75338
  0
ARC
  5
83C
330
1A
100
AcDbEntity
  8
GUIDE
100
AcDbCircle
 10
-312.5
 20
128.5
 30
0.0
 40
10.5
100
AcDbArc
 50
38.24662
 51
141.75338
  0
ARC
  5
83D
330
1A
100
AcDbEntity
  8
GUIDE
100
AcDbCircle
 10
-330.0
 20
128.5
 30
0.0
 40
10.5
100
AcDbArc
 50
38.24662
 51
141.75338
  0
ARC
  5
83E
330
1A
100
AcDbEntity
  8
GUIDE
100
AcDbCircle
 10
-347.5
 20
128.5
 30
0.0
 40
10.5
100
AcDbArc
 50
38.24662
 51
141.75338
  0
ARC
  5
83F
330
1A
100
AcDbEntity
  8
GUIDE
100
AcDbCircle
 10
-365.0
 20
128.5
 30
0.0
 40
10.5
100
AcDbArc
 50
38.24662
 51
141.75338
  0
ARC
  5
840
330
1A
100
AcDbEntity
  8
GUIDE
100
AcDbCircle
 10
-382.5
 20
128.5
 30
0.0
 40
10.5
100
AcDbArc
 50
38.24662
 51
141.75338
  0
ARC
  5
841
330
1A
100
AcDbEntity
  8
GUIDE
100
AcDbCircle
 10
-400.0
 20
128.5
 30
0.0
 40
10.5
100
AcDbArc
 50
38.24662
 51
141.75338
  0
ARC
  5
842
330
1A
100
AcDbEntity
  8
GUIDE
100
AcDbCircle
 10
-417.5
 20
128.5
 30
0.0
 40
10.5
100
AcDbArc
 50
38.24662
 51
141.75338
  0
ARC
  5
843
330
1A
100
AcDbEntity
  8
GUIDE
100
AcDbCircle
 10
-435.0
 20
128.5
 30
0.0
 40
10.5
100
AcDbArc
 50
38.24662
 51
141.75338
  0
ARC
  5
844
330
1A
100
AcDbEntity
  8
GUIDE
100
AcDbCircle
 10
-452.5
 20
128.5
 30
0.0
 40
10.5
100
AcDbArc
 50
38.24662
 51
141.75338
  0
ARC
  5
845
330
1A
100
AcDbEntity
  8
GUIDE
100
AcDbCircle
 10
-470.0
 20
128.5
 30
0.0
 40
10.5
100
AcDbArc
 50
38.24662
 51
141.75338
  0
ARC
  5
846
330
1A
100
AcDbEntity
  8
GUIDE
100
AcDbCircle
 10
-487.5
 20
128.5
 30
0.0
 40
10.5
100
AcDbArc
 50
38.24662
 51
141.75338
  0
ARC
  5
847
330
1A
100
AcDbEntity
  8
GUIDE
100
AcDbCircle
 10
-505.0
 20
128.5
 30
0.0
 40
10.5
100
AcDbArc
 50
38.24662
 51
141.75338
  0
ARC
  5
848
330
1A
100
AcDbEntity
  8
GUIDE
100
AcDbCircle
 10
-522.5
 20
128.5
 30
0.0
 40
10.5
100
AcDbArc
 50
38.24662
 51
141.75338
  0
ARC
  5
849
330
1A
100
AcDbEntity
  8
GUIDE
100
AcDbCircle
 10
-540.0
 20
128.5
 30
0.0
 40
10.5
100
AcDbArc
 50
38.24662
 51
141.75338
  0
ARC
  5
84A
330
1A
100
AcDbEntity
  8
GUIDE
100
AcDbCircle
 10
-557.5
 20
128.5
 30
0.0
 40
10.5
100
AcDbArc
 50
38.24662
 51
141.75338
  0
ARC
  5
84B
330
1A
100
AcDbEntity
  8
GUIDE
100
AcDbCircle
 10
-575.0
 20
128.5
 30
0.0
 40
10.5
100
AcDbArc
 50
38.24662
 51
141.75338
  0
ARC
  5
84C
330
1A
100
AcDbEntity
  8
GUIDE
100
AcDbCircle
 10
-592.5
 20
128.5
 30
0.0
 40
10.5
100
AcDbArc
 50
38.24662
 51
141.75338
  0
ARC
  5
84D
330
1A
100
AcDbEntity
  8
GUIDE
100
AcDbCircle
 10
-610.0
 20
128.5
 30
0.0
 40
10.5
100
AcDbArc
 50
38.24662
 51
141.75338
  0
ARC
  5
84E
330
1A
100
AcDbEntity
  8
GUIDE
100
AcDbCircle
 10
-627.5
 20
128.5
 30
0.0
 40
10.5
100
AcDbArc
 50
38.24662
 51
141.75338
  0
ARC
  5
84F
330
1A
100
AcDbEntity
  8
GUIDE
100
AcDbCircle
 10
-645.0
 20
128.5
 30
0.0
 40
10.5
100
AcDbArc
 50
38.24662
 51
141.75338
  0
ARC
  5
850
330
1A
100
AcDbEntity
  8
GUIDE
100
AcDbCircle
 10
-662.5
 20
128.5
 30
0.0
 40
10.5
100
AcDbArc
 50
38.24662
 51
141.75338
  0
ARC
  5
851
330
1A
100
AcDbEntity
  8
GUIDE
100
AcDbCircle
 10
-680.0
 20
128.5
 30
0.0
 40
10.5
100
AcDbArc
 50
38.24662
 51
141.75338
  0
LINE
  5
852
330
1A
100
AcDbEntity
  8
GUIDE
100
AcDbLine
 10
374.0
 20
104.5
 30
0.0
 11
374.0
 21
135.0
 31
0.0
  0
LINE
  5
853
330
1A
100
AcDbEntity
  8
GUIDE
100
AcDbLine
 10
374.0
 20
135.0
 30
0.0
 11
374.0
 21
104.5
 31
0.0
  0
ARC
  5
854
330
1A
100
AcDbEntity
  8
GUIDE
100
AcDbCircle
 10
-715.0
 20
128.5
 30
0.0
 40
10.5
100
AcDbArc
 50
38.24662
 51
141.75338
  0
ARC
  5
855
330
1A
100
AcDbEntity
  8
GUIDE
100
AcDbCircle
 10
-697.5
 20
128.5
 30
0.0
 40
10.5
100
AcDbArc
 50
38.24662
 51
141.75338
  0
ARC
  5
856
330
1A
100
AcDbEntity
  8
GUIDE
100
AcDbCircle
 10
-750.0
 20
128.5
 30
0.0
 40
10.5
100
AcDbArc
 50
38.24662
 51
141.75338
  0
ARC
  5
857
330
1A
100
AcDbEntity
  8
GUIDE
100
AcDbCircle
 10
-732.5
 20
128.5
 30
0.0
 40
10.5
100
AcDbArc
 50
38.24662
 51
141.75338
  0
ARC
  5
858
330
1A
100
AcDbEntity
  8
GUIDE
100
AcDbCircle
 10
-785.0
 20
128.5
 30
0.0
 40
10.5
100
AcDbArc
 50
38.24662
 51
141.75338
  0
ARC
  5
859
330
1A
100
AcDbEntity
  8
GUIDE
100
AcDbCircle
 10
-767.5
 20
128.5
 30
0.0
 40
10.5
100
AcDbArc
 50
38.24662
 51
141.75338
  0
ARC
  5
85A
330
1A
100
AcDbEntity
  8
GUIDE
100
AcDbCircle
 10
-820.0
 20
128.5
 30
0.0
 40
10.5
100
AcDbArc
 50
38.24662
 51
141.75338
  0
ARC
  5
85B
330
1A
100
AcDbEntity
  8
GUIDE
100
AcDbCircle
 10
-802.5
 20
128.5
 30
0.0
 40
10.5
100
AcDbArc
 50
38.24662
 51
141.75338
  0
ARC
  5
85C
330
1A
100
AcDbEntity
  8
GUIDE
100
AcDbCircle
 10
-855.0
 20
128.5
 30
0.0
 40
10.5
100
AcDbArc
 50
38.24662
 51
141.75338
  0
ARC
  5
85D
330
1A
100
AcDbEntity
  8
GUIDE
100
AcDbCircle
 10
-837.5
 20
128.5
 30
0.0
 40
10.5
100
AcDbArc
 50
38.24662
 51
141.75338
  0
ARC
  5
85E
330
1A
100
AcDbEntity
  8
GUIDE
100
AcDbCircle
 10
-890.0
 20
128.5
 30
0.0
 40
10.5
100
AcDbArc
 50
38.24662
 51
141.75338
  0
ARC
  5
85F
330
1A
100
AcDbEntity
  8
GUIDE
100
AcDbCircle
 10
-872.5
 20
128.5
 30
0.0
 40
10.5
100
AcDbArc
 50
38.24662
 51
141.75338
  0
ARC
  5
860
330
1A
100
AcDbEntity
  8
GUIDE
100
AcDbCircle
 10
-925.0
 20
128.5
 30
0.0
 40
10.5
100
AcDbArc
 50
38.24662
 51
141.75338
  0
ARC
  5
861
330
1A
100
AcDbEntity
  8
GUIDE
100
AcDbCircle
 10
-907.5
 20
128.5
 30
0.0
 40
10.5
100
AcDbArc
 50
38.24662
 51
141.75338
  0
ARC
  5
862
330
1A
100
AcDbEntity
  8
GUIDE
100
AcDbCircle
 10
-960.0
 20
128.5
 30
0.0
 40
10.5
100
AcDbArc
 50
38.24662
 51
141.75338
  0
ARC
  5
863
330
1A
100
AcDbEntity
  8
GUIDE
100
AcDbCircle
 10
-942.5
 20
128.5
 30
0.0
 40
10.5
100
AcDbArc
 50
38.24662
 51
141.75338
  0
ARC
  5
864
330
1A
100
AcDbEntity
  8
GUIDE
100
AcDbCircle
 10
-995.0
 20
128.5
 30
0.0
 40
10.5
100
AcDbArc
 50
38.24662
 51
141.75338
  0
ARC
  5
865
330
1A
100
AcDbEntity
  8
GUIDE
100
AcDbCircle
 10
-977.5
 20
128.5
 30
0.0
 40
10.5
100
AcDbArc
 50
38.24662
 51
141.75338
  0
ARC
  5
866
330
1A
100
AcDbEntity
  8
GUIDE
100
AcDbCircle
 10
-1030.0
 20
128.5
 30
0.0
 40
10.5
100
AcDbArc
 50
38.24662
 51
141.75338
  0
ARC
  5
867
330
1A
100
AcDbEntity
  8
GUIDE
100
AcDbCircle
 10
-1012.5
 20
128.5
 30
0.0
 40
10.5
100
AcDbArc
 50
38.24662
 51
141.75338
  0
ARC
  5
868
330
1A
100
AcDbEntity
  8
GUIDE
100
AcDbCircle
 10
-1065.0
 20
128.5
 30
0.0
 40
10.5
100
AcDbArc
 50
38.24662
 51
141.75338
  0
ARC
  5
869
330
1A
100
AcDbEntity
  8
GUIDE
100
AcDbCircle
 10
-1047.5
 20
128.5
 30
0.0
 40
10.5
100
AcDbArc
 50
38.24662
 51
141.75338
  0
ARC
  5
86A
330
1A
100
AcDbEntity
  8
GUIDE
100
AcDbCircle
 10
-1100.0
 20
128.5
 30
0.0
 40
10.5
100
AcDbArc
 50
38.24662
 51
141.75338
  0
ARC
  5
86B
330
1A
100
AcDbEntity
  8
GUIDE
100
AcDbCircle
 10
-1082.5
 20
128.5
 30
0.0
 40
10.5
100
AcDbArc
 50
38.24662
 51
141.75338
  0
ARC
  5
86C
330
1A
100
AcDbEntity
  8
GUIDE
100
AcDbCircle
 10
-1135.0
 20
128.5
 30
0.0
 40
10.5
100
AcDbArc
 50
38.24662
 51
141.75338
  0
ARC
  5
86D
330
1A
100
AcDbEntity
  8
GUIDE
100
AcDbCircle
 10
-1117.5
 20
128.5
 30
0.0
 40
10.5
100
AcDbArc
 50
38.24662
 51
141.75338
  0
ARC
  5
86E
330
1A
100
AcDbEntity
  8
GUIDE
100
AcDbCircle
 10
-1170.0
 20
128.5
 30
0.0
 40
10.5
100
AcDbArc
 50
38.24662
 51
141.75338
  0
ARC
  5
86F
330
1A
100
AcDbEntity
  8
GUIDE
100
AcDbCircle
 10
-1152.5
 20
128.5
 30
0.0
 40
10.5
100
AcDbArc
 50
38.24662
 51
141.75338
  0
ARC
  5
870
330
1A
100
AcDbEntity
  8
GUIDE
100
AcDbCircle
 10
-1205.0
 20
128.5
 30
0.0
 40
10.5
100
AcDbArc
 50
38.24662
 51
141.75338
  0
ARC
  5
871
330
1A
100
AcDbEntity
  8
GUIDE
100
AcDbCircle
 10
-1187.5
 20
128.5
 30
0.0
 40
10.5
100
AcDbArc
 50
38.24662
 51
141.75338
  0
ARC
  5
872
330
1A
100
AcDbEntity
  8
GUIDE
100
AcDbCircle
 10
-1240.0
 20
128.5
 30
0.0
 40
10.5
100
AcDbArc
 50
38.24662
 51
141.75338
  0
ARC
  5
873
330
1A
100
AcDbEntity
  8
GUIDE
100
AcDbCircle
 10
-1222.5
 20
128.5
 30
0.0
 40
10.5
100
AcDbArc
 50
38.24662
 51
141.75338
  0
ARC
  5
874
330
1A
100
AcDbEntity
  8
GUIDE
100
AcDbCircle
 10
-1275.0
 20
128.5
 30
0.0
 40
10.5
100
AcDbArc
 50
38.24662
 51
141.75338
  0
ARC
  5
875
330
1A
100
AcDbEntity
  8
GUIDE
100
AcDbCircle
 10
-1257.5
 20
128.5
 30
0.0
 40
10.5
100
AcDbArc
 50
38.24662
 51
141.75338
  0
ARC
  5
876
330
1A
100
AcDbEntity
  8
GUIDE
100
AcDbCircle
 10
-1310.0
 20
128.5
 30
0.0
 40
10.5
100
AcDbArc
 50
38.24662
 51
141.75338
  0
ARC
  5
877
330
1A
100
AcDbEntity
  8
GUIDE
100
AcDbCircle
 10
-1292.5
 20
128.5
 30
0.0
 40
10.5
100
AcDbArc
 50
38.24662
 51
141.75338
  0
ARC
  5
878
330
1A
100
AcDbEntity
  8
GUIDE
100
AcDbCircle
 10
-1345.0
 20
128.5
 30
0.0
 40
10.5
100
AcDbArc
 50
38.24662
 51
141.75338
  0
ARC
  5
879
330
1A
100
AcDbEntity
  8
GUIDE
100
AcDbCircle
 10
-1327.5
 20
128.5
 30
0.0
 40
10.5
100
AcDbArc
 50
38.24662
 51
141.75338
  0
ARC
  5
87A
330
1A
100
AcDbEntity
  8
GUIDE
100
AcDbCircle
 10
-1380.0
 20
128.5
 30
0.0
 40
10.5
100
AcDbArc
 50
38.24662
 51
141.75338
  0
ARC
  5
87B
330
1A
100
AcDbEntity
  8
GUIDE
100
AcDbCircle
 10
-1362.5
 20
128.5
 30
0.0
 40
10.5
100
AcDbArc
 50
38.24662
 51
141.75338
  0
ARC
  5
87C
330
1A
100
AcDbEntity
  8
GUIDE
100
AcDbCircle
 10
-1415.0
 20
128.5
 30
0.0
 40
10.5
100
AcDbArc
 50
38.24662
 51
141.75338
  0
ARC
  5
87D
330
1A
100
AcDbEntity
  8
GUIDE
100
AcDbCircle
 10
-1397.5
 20
128.5
 30
0.0
 40
10.5
100
AcDbArc
 50
38.24662
 51
141.75338
  0
ARC
  5
87E
330
1A
100
AcDbEntity
  8
GUIDE
100
AcDbCircle
 10
-1450.0
 20
128.5
 30
0.0
 40
10.5
100
AcDbArc
 50
38.24662
 51
141.75338
  0
ARC
  5
87F
330
1A
100
AcDbEntity
  8
GUIDE
100
AcDbCircle
 10
-1432.5
 20
128.5
 30
0.0
 40
10.5
100
AcDbArc
 50
38.24662
 51
141.75338
  0
ARC
  5
880
330
1A
100
AcDbEntity
  8
GUIDE
100
AcDbCircle
 10
-1485.0
 20
128.5
 30
0.0
 40
10.5
100
AcDbArc
 50
38.24662
 51
141.75338
  0
ARC
  5
881
330
1A
100
AcDbEntity
  8
GUIDE
100
AcDbCircle
 10
-1467.5
 20
128.5
 30
0.0
 40
10.5
100
AcDbArc
 50
38.24662
 51
141.75338
  0
ARC
  5
882
330
1A
100
AcDbEntity
  8
GUIDE
100
AcDbCircle
 10
-1520.0
 20
128.5
 30
0.0
 40
10.5
100
AcDbArc
 50
38.24662
 51
141.75338
  0
ARC
  5
883
330
1A
100
AcDbEntity
  8
GUIDE
100
AcDbCircle
 10
-1502.5
 20
128.5
 30
0.0
 40
10.5
100
AcDbArc
 50
38.24662
 51
141.75338
  0
ARC
  5
884
330
1A
100
AcDbEntity
  8
GUIDE
100
AcDbCircle
 10
-1555.0
 20
128.5
 30
0.0
 40
10.5
100
AcDbArc
 50
38.24662
 51
141.75338
  0
ARC
  5
885
330
1A
100
AcDbEntity
  8
GUIDE
100
AcDbCircle
 10
-1537.5
 20
128.5
 30
0.0
 40
10.5
100
AcDbArc
 50
38.24662
 51
141.75338
  0
ARC
  5
886
330
1A
100
AcDbEntity
  8
GUIDE
100
AcDbCircle
 10
-1590.0
 20
128.5
 30
0.0
 40
10.5
100
AcDbArc
 50
38.24662
 51
141.75338
  0
ARC
  5
887
330
1A
100
AcDbEntity
  8
GUIDE
100
AcDbCircle
 10
-1572.5
 20
128.5
 30
0.0
 40
10.5
100
AcDbArc
 50
38.24662
 51
141.75338
  0
ARC
  5
888
330
1A
100
AcDbEntity
  8
GUIDE
100
AcDbCircle
 10
-1625.0
 20
128.5
 30
0.0
 40
10.5
100
AcDbArc
 50
38.24662
 51
141.75338
  0
ARC
  5
889
330
1A
100
AcDbEntity
  8
GUIDE
100
AcDbCircle
 10
-1607.5
 20
128.5
 30
0.0
 40
10.5
100
AcDbArc
 50
38.24662
 51
141.75338
  0
ARC
  5
88A
330
1A
100
AcDbEntity
  8
GUIDE
100
AcDbCircle
 10
-1660.0
 20
128.5
 30
0.0
 40
10.5
100
AcDbArc
 50
38.24662
 51
141.75338
  0
ARC
  5
88B
330
1A
100
AcDbEntity
  8
GUIDE
100
AcDbCircle
 10
-1642.5
 20
128.5
 30
0.0
 40
10.5
100
AcDbArc
 50
38.24662
 51
141.75338
  0
LINE
  5
88C
330
1A
100
AcDbEntity
  8
GUIDE
100
AcDbLine
 10
-1719.0
 20
104.5
 30
0.0
 11
374.0
 21
104.5
 31
0.0
  0
LINE
  5
88D
330
1A
100
AcDbEntity
  8
GUIDE
100
AcDbLine
 10
-1719.0
 20
114.5
 30
0.0
 11
374.0
 21
114.5
 31
0.0
  0
LINE
  5
88E
330
1A
100
AcDbEntity
  8
GUIDE
100
AcDbLine
 10
-1719.0
 20
135.0
 30
0.0
 11
374.0
 21
135.0
 31
0.0
  0
ARC
  5
88F
330
1A
100
AcDbEntity
  8
GUIDE
100
AcDbCircle
 10
-1677.5
 20
128.5
 30
0.0
 40
10.5
100
AcDbArc
 50
38.24662
 51
141.75338
  0
ARC
  5
890
330
1A
100
AcDbEntity
  8
GUIDE
100
AcDbCircle
 10
-1695.0
 20
128.5
 30
0.0
 40
10.5
100
AcDbArc
 50
38.24662
 51
141.75338
  0
ARC
  5
891
330
1A
100
AcDbEntity
  8
GUIDE
100
AcDbCircle
 10
-1712.5
 20
128.5
 30
0.0
 40
10.5
100
AcDbArc
 50
38.24662
 51
231.75338
  0
LINE
  5
892
330
1A
100
AcDbEntity
  8
GUIDE
100
AcDbLine
 10
-1719.0
 20
104.5
 30
0.0
 11
-1719.0
 21
135.0
 31
0.0
  0
LINE
  5
893
330
1A
100
AcDbEntity
  8
GUIDE
100
AcDbLine
 10
374.0
 20
33.22
 30
0.0
 11
374.0
 21
14.42
 31
0.0
  0
LINE
  5
894
330
1A
100
AcDbEntity
  8
GUIDE
100
AcDbLine
 10
374.0
 20
6.9
 30
0.0
 11
374.0
 21
-18.0
 31
0.0
  0
LINE
  5
895
330
1A
100
AcDbEntity
  8
GUIDE
100
AcDbLine
 10
363.0
 20
3.1
 30
0.0
 11
342.0
 21
3.1
 31
0.0
  0
LINE
  5
896
330
1A
100
AcDbEntity
  8
GUIDE
100
AcDbLine
 10
363.0
 20
-4.42
 30
0.0
 11
342.0
 21
-4.42
 31
0.0
  0
LINE
  5
897
330
1A
100
AcDbEntity
  8
GUIDE
100
AcDbLine
 10
363.0
 20
21.9
 30
0.0
 11
342.0
 21
21.9
 31
0.0
  0
LINE
  5
898
330
1A
100
AcDbEntity
  8
GUIDE
100
AcDbLine
 10
363.0
 20
29.42
 30
0.0
 11
342.0
 21
29.42
 31
0.0
  0
LINE
  5
899
330
1A
100
AcDbEntity
  8
GUIDE
100
AcDbLine
 10
342.0
 20
-4.42
 30
0.0
 11
342.0
 21
3.1
 31
0.0
  0
LINE
  5
89A
330
1A
100
AcDbEntity
  8
GUIDE
100
AcDbLine
 10
342.0
 20
21.9
 30
0.0
 11
342.0
 21
29.42
 31
0.0
  0
LINE
  5
89B
330
1A
100
AcDbEntity
  8
GUIDE
100
AcDbLine
 10
355.5
 20
44.5
 30
0.0
 11
355.5
 21
29.42
 31
0.0
  0
LINE
  5
89C
330
1A
100
AcDbEntity
  8
GUIDE
100
AcDbLine
 10
349.5
 20
44.5
 30
0.0
 11
349.5
 21
29.42
 31
0.0
  0
LINE
  5
89D
330
1A
100
AcDbEntity
  8
GUIDE
100
AcDbLine
 10
355.5
 20
18.14
 30
0.0
 11
349.5
 21
18.14
 31
0.0
  0
LINE
  5
89E
330
1A
100
AcDbEntity
  8
GUIDE
100
AcDbLine
 10
363.0
 20
-4.42
 30
0.0
 11
363.0
 21
3.1
 31
0.0
  0
LINE
  5
89F
330
1A
100
AcDbEntity
  8
GUIDE
100
AcDbLine
 10
363.0
 20
21.9
 30
0.0
 11
363.0
 21
29.42
 31
0.0
  0
LINE
  5
8A0
330
1A
100
AcDbEntity
  8
GUIDE
100
AcDbLine
 10
349.5
 20
21.9
 30
0.0
 11
349.5
 21
3.1
 31
0.0
  0
LINE
  5
8A1
330
1A
100
AcDbEntity
  8
GUIDE
100
AcDbLine
 10
355.5
 20
21.9
 30
0.0
 11
355.5
 21
3.1
 31
0.0
  0
LINE
  5
8A2
330
1A
100
AcDbEntity
  8
GUIDE
100
AcDbLine
 10
355.5
 20
-4.42
 30
0.0
 11
355.5
 21
-8.0
 31
0.0
  0
LINE
  5
8A3
330
1A
100
AcDbEntity
  8
GUIDE
100
AcDbLine
 10
349.5
 20
-4.42
 30
0.0
 11
349.5
 21
-8.0
 31
0.0
  0
LINE
  5
8A4
330
1A
100
AcDbEntity
  8
GUIDE
100
AcDbLine
 10
373.0
 20
40.74
 30
0.0
 11
373.0
 21
44.5
 31
0.0
  0
LINE
  5
8A5
330
1A
100
AcDbEntity
  8
GUIDE
100
AcDbLine
 10
367.0
 20
40.74
 30
0.0
 11
367.0
 21
44.5
 31
0.0
  0
LINE
  5
8A6
330
1A
100
AcDbEntity
  8
GUIDE
100
AcDbLine
 10
367.0
 20
14.42
 30
0.0
 11
367.0
 21
33.22
 31
0.0
  0
LINE
  5
8A7
330
1A
100
AcDbEntity
  8
GUIDE
100
AcDbLine
 10
373.0
 20
14.42
 30
0.0
 11
373.0
 21
33.22
 31
0.0
  0
LINE
  5
8A8
330
1A
100
AcDbEntity
  8
GUIDE
100
AcDbLine
 10
373.0
 20
-8.0
 30
0.0
 11
373.0
 21
6.9
 31
0.0
  0
LINE
  5
8A9
330
1A
100
AcDbEntity
  8
GUIDE
100
AcDbLine
 10
367.0
 20
-8.0
 30
0.0
 11
367.0
 21
6.9
 31
0.0
  0
LINE
  5
8AA
330
1A
100
AcDbEntity
  8
GUIDE
100
AcDbLine
 10
359.5
 20
14.42
 30
0.0
 11
359.5
 21
6.9
 31
0.0
  0
LINE
  5
8AB
330
1A
100
AcDbEntity
  8
GUIDE
100
AcDbLine
 10
380.5
 20
14.42
 30
0.0
 11
359.5
 21
14.42
 31
0.0
  0
LINE
  5
8AC
330
1A
100
AcDbEntity
  8
GUIDE
100
AcDbLine
 10
380.5
 20
6.9
 30
0.0
 11
359.5
 21
6.9
 31
0.0
  0
LINE
  5
8AD
330
1A
100
AcDbEntity
  8
GUIDE
100
AcDbLine
 10
373.0
 20
18.18
 30
0.0
 11
367.0
 21
18.18
 31
0.0
  0
LINE
  5
8AE
330
1A
100
AcDbEntity
  8
GUIDE
100
AcDbLine
 10
380.5
 20
33.22
 30
0.0
 11
359.5
 21
33.22
 31
0.0
  0
LINE
  5
8AF
330
1A
100
AcDbEntity
  8
GUIDE
100
AcDbLine
 10
380.5
 20
40.74
 30
0.0
 11
359.5
 21
40.74
 31
0.0
  0
LINE
  5
8B0
330
1A
100
AcDbEntity
  8
GUIDE
100
AcDbLine
 10
359.5
 20
40.74
 30
0.0
 11
359.5
 21
33.22
 31
0.0
  0
LINE
  5
8B1
330
1A
100
AcDbEntity
  8
GUIDE
100
AcDbLine
 10
380.5
 20
40.74
 30
0.0
 11
380.5
 21
33.22
 31
0.0
  0
LINE
  5
8B2
330
1A
100
AcDbEntity
  8
GUIDE
100
AcDbLine
 10
380.5
 20
14.42
 30
0.0
 11
380.5
 21
6.9
 31
0.0
  0
LINE
  5
8B3
330
1A
100
AcDbEntity
  8
GUIDE
100
AcDbLine
 10
328.0
 20
3.1
 30
0.0
 11
307.0
 21
3.1
 31
0.0
  0
LINE
  5
8B4
330
1A
100
AcDbEntity
  8
GUIDE
100
AcDbLine
 10
328.0
 20
-4.42
 30
0.0
 11
307.0
 21
-4.42
 31
0.0
  0
LINE
  5
8B5
330
1A
100
AcDbEntity
  8
GUIDE
100
AcDbLine
 10
328.0
 20
21.9
 30
0.0
 11
307.0
 21
21.9
 31
0.0
  0
LINE
  5
8B6
330
1A
100
AcDbEntity
  8
GUIDE
100
AcDbLine
 10
328.0
 20
29.42
 30
0.0
 11
307.0
 21
29.42
 31
0.0
  0
LINE
  5
8B7
330
1A
100
AcDbEntity
  8
GUIDE
100
AcDbLine
 10
307.0
 20
-4.42
 30
0.0
 11
307.0
 21
3.1
 31
0.0
  0
LINE
  5
8B8
330
1A
100
AcDbEntity
  8
GUIDE
100
AcDbLine
 10
307.0
 20
21.9
 30
0.0
 11
307.0
 21
29.42
 31
0.0
  0
LINE
  5
8B9
330
1A
100
AcDbEntity
  8
GUIDE
100
AcDbLine
 10
320.5
 20
44.5
 30
0.0
 11
320.5
 21
29.42
 31
0.0
  0
LINE
  5
8BA
330
1A
100
AcDbEntity
  8
GUIDE
100
AcDbLine
 10
314.5
 20
44.5
 30
0.0
 11
314.5
 21
29.42
 31
0.0
  0
LINE
  5
8BB
330
1A
100
AcDbEntity
  8
GUIDE
100
AcDbLine
 10
320.5
 20
18.14
 30
0.0
 11
314.5
 21
18.14
 31
0.0
  0
LINE
  5
8BC
330
1A
100
AcDbEntity
  8
GUIDE
100
AcDbLine
 10
328.0
 20
-4.42
 30
0.0
 11
328.0
 21
3.1
 31
0.0
  0
LINE
  5
8BD
330
1A
100
AcDbEntity
  8
GUIDE
100
AcDbLine
 10
328.0
 20
21.9
 30
0.0
 11
328.0
 21
29.42
 31
0.0
  0
LINE
  5
8BE
330
1A
100
AcDbEntity
  8
GUIDE
100
AcDbLine
 10
314.5
 20
21.9
 30
0.0
 11
314.5
 21
3.1
 31
0.0
  0
LINE
  5
8BF
330
1A
100
AcDbEntity
  8
GUIDE
100
AcDbLine
 10
320.5
 20
21.9
 30
0.0
 11
320.5
 21
3.1
 31
0.0
  0
LINE
  5
8C0
330
1A
100
AcDbEntity
  8
GUIDE
100
AcDbLine
 10
320.5
 20
-4.42
 30
0.0
 11
320.5
 21
-8.0
 31
0.0
  0
LINE
  5
8C1
330
1A
100
AcDbEntity
  8
GUIDE
100
AcDbLine
 10
314.5
 20
-4.42
 30
0.0
 11
314.5
 21
-8.0
 31
0.0
  0
LINE
  5
8C2
330
1A
100
AcDbEntity
  8
GUIDE
100
AcDbLine
 10
338.0
 20
40.74
 30
0.0
 11
338.0
 21
44.5
 31
0.0
  0
LINE
  5
8C3
330
1A
100
AcDbEntity
  8
GUIDE
100
AcDbLine
 10
332.0
 20
40.74
 30
0.0
 11
332.0
 21
44.5
 31
0.0
  0
LINE
  5
8C4
330
1A
100
AcDbEntity
  8
GUIDE
100
AcDbLine
 10
332.0
 20
14.42
 30
0.0
 11
332.0
 21
33.22
 31
0.0
  0
LINE
  5
8C5
330
1A
100
AcDbEntity
  8
GUIDE
100
AcDbLine
 10
338.0
 20
14.42
 30
0.0
 11
338.0
 21
33.22
 31
0.0
  0
LINE
  5
8C6
330
1A
100
AcDbEntity
  8
GUIDE
100
AcDbLine
 10
338.0
 20
-8.0
 30
0.0
 11
338.0
 21
6.9
 31
0.0
  0
LINE
  5
8C7
330
1A
100
AcDbEntity
  8
GUIDE
100
AcDbLine
 10
332.0
 20
-8.0
 30
0.0
 11
332.0
 21
6.9
 31
0.0
  0
LINE
  5
8C8
330
1A
100
AcDbEntity
  8
GUIDE
100
AcDbLine
 10
324.5
 20
14.42
 30
0.0
 11
324.5
 21
6.9
 31
0.0
  0
LINE
  5
8C9
330
1A
100
AcDbEntity
  8
GUIDE
100
AcDbLine
 10
345.5
 20
14.42
 30
0.0
 11
324.5
 21
14.42
 31
0.0
  0
LINE
  5
8CA
330
1A
100
AcDbEntity
  8
GUIDE
100
AcDbLine
 10
345.5
 20
6.9
 30
0.0
 11
324.5
 21
6.9
 31
0.0
  0
LINE
  5
8CB
330
1A
100
AcDbEntity
  8
GUIDE
100
AcDbLine
 10
338.0
 20
18.18
 30
0.0
 11
332.0
 21
18.18
 31
0.0
  0
LINE
  5
8CC
330
1A
100
AcDbEntity
  8
GUIDE
100
AcDbLine
 10
345.5
 20
33.22
 30
0.0
 11
324.5
 21
33.22
 31
0.0
  0
LINE
  5
8CD
330
1A
100
AcDbEntity
  8
GUIDE
100
AcDbLine
 10
345.5
 20
40.74
 30
0.0
 11
324.5
 21
40.74
 31
0.0
  0
LINE
  5
8CE
330
1A
100
AcDbEntity
  8
GUIDE
100
AcDbLine
 10
324.5
 20
40.74
 30
0.0
 11
324.5
 21
33.22
 31
0.0
  0
LINE
  5
8CF
330
1A
100
AcDbEntity
  8
GUIDE
100
AcDbLine
 10
345.5
 20
40.74
 30
0.0
 11
345.5
 21
33.22
 31
0.0
  0
LINE
  5
8D0
330
1A
100
AcDbEntity
  8
GUIDE
100
AcDbLine
 10
345.5
 20
14.42
 30
0.0
 11
345.5
 21
6.9
 31
0.0
  0
LINE
  5
8D1
330
1A
100
AcDbEntity
  8
GUIDE
100
AcDbLine
 10
293.0
 20
3.1
 30
0.0
 11
272.0
 21
3.1
 31
0.0
  0
LINE
  5
8D2
330
1A
100
AcDbEntity
  8
GUIDE
100
AcDbLine
 10
293.0
 20
-4.42
 30
0.0
 11
272.0
 21
-4.42
 31
0.0
  0
LINE
  5
8D3
330
1A
100
AcDbEntity
  8
GUIDE
100
AcDbLine
 10
293.0
 20
21.9
 30
0.0
 11
272.0
 21
21.9
 31
0.0
  0
LINE
  5
8D4
330
1A
100
AcDbEntity
  8
GUIDE
100
AcDbLine
 10
293.0
 20
29.42
 30
0.0
 11
272.0
 21
29.42
 31
0.0
  0
LINE
  5
8D5
330
1A
100
AcDbEntity
  8
GUIDE
100
AcDbLine
 10
272.0
 20
-4.42
 30
0.0
 11
272.0
 21
3.1
 31
0.0
  0
LINE
  5
8D6
330
1A
100
AcDbEntity
  8
GUIDE
100
AcDbLine
 10
272.0
 20
21.9
 30
0.0
 11
272.0
 21
29.42
 31
0.0
  0
LINE
  5
8D7
330
1A
100
AcDbEntity
  8
GUIDE
100
AcDbLine
 10
285.5
 20
44.5
 30
0.0
 11
285.5
 21
29.42
 31
0.0
  0
LINE
  5
8D8
330
1A
100
AcDbEntity
  8
GUIDE
100
AcDbLine
 10
279.5
 20
44.5
 30
0.0
 11
279.5
 21
29.42
 31
0.0
  0
LINE
  5
8D9
330
1A
100
AcDbEntity
  8
GUIDE
100
AcDbLine
 10
285.5
 20
18.14
 30
0.0
 11
279.5
 21
18.14
 31
0.0
  0
LINE
  5
8DA
330
1A
100
AcDbEntity
  8
GUIDE
100
AcDbLine
 10
293.0
 20
-4.42
 30
0.0
 11
293.0
 21
3.1
 31
0.0
  0
LINE
  5
8DB
330
1A
100
AcDbEntity
  8
GUIDE
100
AcDbLine
 10
293.0
 20
21.9
 30
0.0
 11
293.0
 21
29.42
 31
0.0
  0
LINE
  5
8DC
330
1A
100
AcDbEntity
  8
GUIDE
100
AcDbLine
 10
279.5
 20
21.9
 30
0.0
 11
279.5
 21
3.1
 31
0.0
  0
LINE
  5
8DD
330
1A
100
AcDbEntity
  8
GUIDE
100
AcDbLine
 10
285.5
 20
21.9
 30
0.0
 11
285.5
 21
3.1
 31
0.0
  0
LINE
  5
8DE
330
1A
100
AcDbEntity
  8
GUIDE
100
AcDbLine
 10
285.5
 20
-4.42
 30
0.0
 11
285.5
 21
-8.0
 31
0.0
  0
LINE
  5
8DF
330
1A
100
AcDbEntity
  8
GUIDE
100
AcDbLine
 10
279.5
 20
-4.42
 30
0.0
 11
279.5
 21
-8.0
 31
0.0
  0
LINE
  5
8E0
330
1A
100
AcDbEntity
  8
GUIDE
100
AcDbLine
 10
303.0
 20
40.74
 30
0.0
 11
303.0
 21
44.5
 31
0.0
  0
LINE
  5
8E1
330
1A
100
AcDbEntity
  8
GUIDE
100
AcDbLine
 10
297.0
 20
40.74
 30
0.0
 11
297.0
 21
44.5
 31
0.0
  0
LINE
  5
8E2
330
1A
100
AcDbEntity
  8
GUIDE
100
AcDbLine
 10
297.0
 20
14.42
 30
0.0
 11
297.0
 21
33.22
 31
0.0
  0
LINE
  5
8E3
330
1A
100
AcDbEntity
  8
GUIDE
100
AcDbLine
 10
303.0
 20
14.42
 30
0.0
 11
303.0
 21
33.22
 31
0.0
  0
LINE
  5
8E4
330
1A
100
AcDbEntity
  8
GUIDE
100
AcDbLine
 10
303.0
 20
-8.0
 30
0.0
 11
303.0
 21
6.9
 31
0.0
  0
LINE
  5
8E5
330
1A
100
AcDbEntity
  8
GUIDE
100
AcDbLine
 10
297.0
 20
-8.0
 30
0.0
 11
297.0
 21
6.9
 31
0.0
  0
LINE
  5
8E6
330
1A
100
AcDbEntity
  8
GUIDE
100
AcDbLine
 10
289.5
 20
14.42
 30
0.0
 11
289.5
 21
6.9
 31
0.0
  0
LINE
  5
8E7
330
1A
100
AcDbEntity
  8
GUIDE
100
AcDbLine
 10
310.5
 20
14.42
 30
0.0
 11
289.5
 21
14.42
 31
0.0
  0
LINE
  5
8E8
330
1A
100
AcDbEntity
  8
GUIDE
100
AcDbLine
 10
310.5
 20
6.9
 30
0.0
 11
289.5
 21
6.9
 31
0.0
  0
LINE
  5
8E9
330
1A
100
AcDbEntity
  8
GUIDE
100
AcDbLine
 10
303.0
 20
18.18
 30
0.0
 11
297.0
 21
18.18
 31
0.0
  0
LINE
  5
8EA
330
1A
100
AcDbEntity
  8
GUIDE
100
AcDbLine
 10
310.5
 20
33.22
 30
0.0
 11
289.5
 21
33.22
 31
0.0
  0
LINE
  5
8EB
330
1A
100
AcDbEntity
  8
GUIDE
100
AcDbLine
 10
310.5
 20
40.74
 30
0.0
 11
289.5
 21
40.74
 31
0.0
  0
LINE
  5
8EC
330
1A
100
AcDbEntity
  8
GUIDE
100
AcDbLine
 10
289.5
 20
40.74
 30
0.0
 11
289.5
 21
33.22
 31
0.0
  0
LINE
  5
8ED
330
1A
100
AcDbEntity
  8
GUIDE
100
AcDbLine
 10
310.5
 20
40.74
 30
0.0
 11
310.5
 21
33.22
 31
0.0
  0
LINE
  5
8EE
330
1A
100
AcDbEntity
  8
GUIDE
100
AcDbLine
 10
310.5
 20
14.42
 30
0.0
 11
310.5
 21
6.9
 31
0.0
  0
LINE
  5
8EF
330
1A
100
AcDbEntity
  8
GUIDE
100
AcDbLine
 10
258.0
 20
3.1
 30
0.0
 11
237.0
 21
3.1
 31
0.0
  0
LINE
  5
8F0
330
1A
100
AcDbEntity
  8
GUIDE
100
AcDbLine
 10
258.0
 20
-4.42
 30
0.0
 11
237.0
 21
-4.42
 31
0.0
  0
LINE
  5
8F1
330
1A
100
AcDbEntity
  8
GUIDE
100
AcDbLine
 10
258.0
 20
21.9
 30
0.0
 11
237.0
 21
21.9
 31
0.0
  0
LINE
  5
8F2
330
1A
100
AcDbEntity
  8
GUIDE
100
AcDbLine
 10
258.0
 20
29.42
 30
0.0
 11
237.0
 21
29.42
 31
0.0
  0
LINE
  5
8F3
330
1A
100
AcDbEntity
  8
GUIDE
100
AcDbLine
 10
237.0
 20
-4.42
 30
0.0
 11
237.0
 21
3.1
 31
0.0
  0
LINE
  5
8F4
330
1A
100
AcDbEntity
  8
GUIDE
100
AcDbLine
 10
237.0
 20
21.9
 30
0.0
 11
237.0
 21
29.42
 31
0.0
  0
LINE
  5
8F5
330
1A
100
AcDbEntity
  8
GUIDE
100
AcDbLine
 10
250.5
 20
44.5
 30
0.0
 11
250.5
 21
29.42
 31
0.0
  0
LINE
  5
8F6
330
1A
100
AcDbEntity
  8
GUIDE
100
AcDbLine
 10
244.5
 20
44.5
 30
0.0
 11
244.5
 21
29.42
 31
0.0
  0
LINE
  5
8F7
330
1A
100
AcDbEntity
  8
GUIDE
100
AcDbLine
 10
250.5
 20
18.14
 30
0.0
 11
244.5
 21
18.14
 31
0.0
  0
LINE
  5
8F8
330
1A
100
AcDbEntity
  8
GUIDE
100
AcDbLine
 10
258.0
 20
-4.42
 30
0.0
 11
258.0
 21
3.1
 31
0.0
  0
LINE
  5
8F9
330
1A
100
AcDbEntity
  8
GUIDE
100
AcDbLine
 10
258.0
 20
21.9
 30
0.0
 11
258.0
 21
29.42
 31
0.0
  0
LINE
  5
8FA
330
1A
100
AcDbEntity
  8
GUIDE
100
AcDbLine
 10
244.5
 20
21.9
 30
0.0
 11
244.5
 21
3.1
 31
0.0
  0
LINE
  5
8FB
330
1A
100
AcDbEntity
  8
GUIDE
100
AcDbLine
 10
250.5
 20
21.9
 30
0.0
 11
250.5
 21
3.1
 31
0.0
  0
LINE
  5
8FC
330
1A
100
AcDbEntity
  8
GUIDE
100
AcDbLine
 10
250.5
 20
-4.42
 30
0.0
 11
250.5
 21
-8.0
 31
0.0
  0
LINE
  5
8FD
330
1A
100
AcDbEntity
  8
GUIDE
100
AcDbLine
 10
244.5
 20
-4.42
 30
0.0
 11
244.5
 21
-8.0
 31
0.0
  0
LINE
  5
8FE
330
1A
100
AcDbEntity
  8
GUIDE
100
AcDbLine
 10
268.0
 20
40.74
 30
0.0
 11
268.0
 21
44.5
 31
0.0
  0
LINE
  5
8FF
330
1A
100
AcDbEntity
  8
GUIDE
100
AcDbLine
 10
262.0
 20
40.74
 30
0.0
 11
262.0
 21
44.5
 31
0.0
  0
LINE
  5
900
330
1A
100
AcDbEntity
  8
GUIDE
100
AcDbLine
 10
262.0
 20
14.42
 30
0.0
 11
262.0
 21
33.22
 31
0.0
  0
LINE
  5
901
330
1A
100
AcDbEntity
  8
GUIDE
100
AcDbLine
 10
268.0
 20
14.42
 30
0.0
 11
268.0
 21
33.22
 31
0.0
  0
LINE
  5
902
330
1A
100
AcDbEntity
  8
GUIDE
100
AcDbLine
 10
268.0
 20
-8.0
 30
0.0
 11
268.0
 21
6.9
 31
0.0
  0
LINE
  5
903
330
1A
100
AcDbEntity
  8
GUIDE
100
AcDbLine
 10
262.0
 20
-8.0
 30
0.0
 11
262.0
 21
6.9
 31
0.0
  0
LINE
  5
904
330
1A
100
AcDbEntity
  8
GUIDE
100
AcDbLine
 10
254.5
 20
14.42
 30
0.0
 11
254.5
 21
6.9
 31
0.0
  0
LINE
  5
905
330
1A
100
AcDbEntity
  8
GUIDE
100
AcDbLine
 10
275.5
 20
14.42
 30
0.0
 11
254.5
 21
14.42
 31
0.0
  0
LINE
  5
906
330
1A
100
AcDbEntity
  8
GUIDE
100
AcDbLine
 10
275.5
 20
6.9
 30
0.0
 11
254.5
 21
6.9
 31
0.0
  0
LINE
  5
907
330
1A
100
AcDbEntity
  8
GUIDE
100
AcDbLine
 10
268.0
 20
18.18
 30
0.0
 11
262.0
 21
18.18
 31
0.0
  0
LINE
  5
908
330
1A
100
AcDbEntity
  8
GUIDE
100
AcDbLine
 10
275.5
 20
33.22
 30
0.0
 11
254.5
 21
33.22
 31
0.0
  0
LINE
  5
909
330
1A
100
AcDbEntity
  8
GUIDE
100
AcDbLine
 10
275.5
 20
40.74
 30
0.0
 11
254.5
 21
40.74
 31
0.0
  0
LINE
  5
90A
330
1A
100
AcDbEntity
  8
GUIDE
100
AcDbLine
 10
254.5
 20
40.74
 30
0.0
 11
254.5
 21
33.22
 31
0.0
  0
LINE
  5
90B
330
1A
100
AcDbEntity
  8
GUIDE
100
AcDbLine
 10
275.5
 20
40.74
 30
0.0
 11
275.5
 21
33.22
 31
0.0
  0
LINE
  5
90C
330
1A
100
AcDbEntity
  8
GUIDE
100
AcDbLine
 10
275.5
 20
14.42
 30
0.0
 11
275.5
 21
6.9
 31
0.0
  0
LINE
  5
90D
330
1A
100
AcDbEntity
  8
GUIDE
100
AcDbLine
 10
223.0
 20
3.1
 30
0.0
 11
202.0
 21
3.1
 31
0.0
  0
LINE
  5
90E
330
1A
100
AcDbEntity
  8
GUIDE
100
AcDbLine
 10
223.0
 20
-4.42
 30
0.0
 11
202.0
 21
-4.42
 31
0.0
  0
LINE
  5
90F
330
1A
100
AcDbEntity
  8
GUIDE
100
AcDbLine
 10
223.0
 20
21.9
 30
0.0
 11
202.0
 21
21.9
 31
0.0
  0
LINE
  5
910
330
1A
100
AcDbEntity
  8
GUIDE
100
AcDbLine
 10
223.0
 20
29.42
 30
0.0
 11
202.0
 21
29.42
 31
0.0
  0
LINE
  5
911
330
1A
100
AcDbEntity
  8
GUIDE
100
AcDbLine
 10
202.0
 20
-4.42
 30
0.0
 11
202.0
 21
3.1
 31
0.0
  0
LINE
  5
912
330
1A
100
AcDbEntity
  8
GUIDE
100
AcDbLine
 10
202.0
 20
21.9
 30
0.0
 11
202.0
 21
29.42
 31
0.0
  0
LINE
  5
913
330
1A
100
AcDbEntity
  8
GUIDE
100
AcDbLine
 10
215.5
 20
44.5
 30
0.0
 11
215.5
 21
29.42
 31
0.0
  0
LINE
  5
914
330
1A
100
AcDbEntity
  8
GUIDE
100
AcDbLine
 10
209.5
 20
44.5
 30
0.0
 11
209.5
 21
29.42
 31
0.0
  0
LINE
  5
915
330
1A
100
AcDbEntity
  8
GUIDE
100
AcDbLine
 10
215.5
 20
18.14
 30
0.0
 11
209.5
 21
18.14
 31
0.0
  0
LINE
  5
916
330
1A
100
AcDbEntity
  8
GUIDE
100
AcDbLine
 10
223.0
 20
-4.42
 30
0.0
 11
223.0
 21
3.1
 31
0.0
  0
LINE
  5
917
330
1A
100
AcDbEntity
  8
GUIDE
100
AcDbLine
 10
223.0
 20
21.9
 30
0.0
 11
223.0
 21
29.42
 31
0.0
  0
LINE
  5
918
330
1A
100
AcDbEntity
  8
GUIDE
100
AcDbLine
 10
209.5
 20
21.9
 30
0.0
 11
209.5
 21
3.1
 31
0.0
  0
LINE
  5
919
330
1A
100
AcDbEntity
  8
GUIDE
100
AcDbLine
 10
215.5
 20
21.9
 30
0.0
 11
215.5
 21
3.1
 31
0.0
  0
LINE
  5
91A
330
1A
100
AcDbEntity
  8
GUIDE
100
AcDbLine
 10
215.5
 20
-4.42
 30
0.0
 11
215.5
 21
-8.0
 31
0.0
  0
LINE
  5
91B
330
1A
100
AcDbEntity
  8
GUIDE
100
AcDbLine
 10
209.5
 20
-4.42
 30
0.0
 11
209.5
 21
-8.0
 31
0.0
  0
LINE
  5
91C
330
1A
100
AcDbEntity
  8
GUIDE
100
AcDbLine
 10
233.0
 20
40.74
 30
0.0
 11
233.0
 21
44.5
 31
0.0
  0
LINE
  5
91D
330
1A
100
AcDbEntity
  8
GUIDE
100
AcDbLine
 10
227.0
 20
40.74
 30
0.0
 11
227.0
 21
44.5
 31
0.0
  0
LINE
  5
91E
330
1A
100
AcDbEntity
  8
GUIDE
100
AcDbLine
 10
227.0
 20
14.42
 30
0.0
 11
227.0
 21
33.22
 31
0.0
  0
LINE
  5
91F
330
1A
100
AcDbEntity
  8
GUIDE
100
AcDbLine
 10
233.0
 20
14.42
 30
0.0
 11
233.0
 21
33.22
 31
0.0
  0
LINE
  5
920
330
1A
100
AcDbEntity
  8
GUIDE
100
AcDbLine
 10
233.0
 20
-8.0
 30
0.0
 11
233.0
 21
6.9
 31
0.0
  0
LINE
  5
921
330
1A
100
AcDbEntity
  8
GUIDE
100
AcDbLine
 10
227.0
 20
-8.0
 30
0.0
 11
227.0
 21
6.9
 31
0.0
  0
LINE
  5
922
330
1A
100
AcDbEntity
  8
GUIDE
100
AcDbLine
 10
219.5
 20
14.42
 30
0.0
 11
219.5
 21
6.9
 31
0.0
  0
LINE
  5
923
330
1A
100
AcDbEntity
  8
GUIDE
100
AcDbLine
 10
240.5
 20
14.42
 30
0.0
 11
219.5
 21
14.42
 31
0.0
  0
LINE
  5
924
330
1A
100
AcDbEntity
  8
GUIDE
100
AcDbLine
 10
240.5
 20
6.9
 30
0.0
 11
219.5
 21
6.9
 31
0.0
  0
LINE
  5
925
330
1A
100
AcDbEntity
  8
GUIDE
100
AcDbLine
 10
233.0
 20
18.18
 30
0.0
 11
227.0
 21
18.18
 31
0.0
  0
LINE
  5
926
330
1A
100
AcDbEntity
  8
GUIDE
100
AcDbLine
 10
240.5
 20
33.22
 30
0.0
 11
219.5
 21
33.22
 31
0.0
  0
LINE
  5
927
330
1A
100
AcDbEntity
  8
GUIDE
100
AcDbLine
 10
240.5
 20
40.74
 30
0.0
 11
219.5
 21
40.74
 31
0.0
  0
LINE
  5
928
330
1A
100
AcDbEntity
  8
GUIDE
100
AcDbLine
 10
219.5
 20
40.74
 30
0.0
 11
219.5
 21
33.22
 31
0.0
  0
LINE
  5
929
330
1A
100
AcDbEntity
  8
GUIDE
100
AcDbLine
 10
240.5
 20
40.74
 30
0.0
 11
240.5
 21
33.22
 31
0.0
  0
LINE
  5
92A
330
1A
100
AcDbEntity
  8
GUIDE
100
AcDbLine
 10
240.5
 20
14.42
 30
0.0
 11
240.5
 21
6.9
 31
0.0
  0
LINE
  5
92B
330
1A
100
AcDbEntity
  8
GUIDE
100
AcDbLine
 10
188.0
 20
3.1
 30
0.0
 11
167.0
 21
3.1
 31
0.0
  0
LINE
  5
92C
330
1A
100
AcDbEntity
  8
GUIDE
100
AcDbLine
 10
188.0
 20
-4.42
 30
0.0
 11
167.0
 21
-4.42
 31
0.0
  0
LINE
  5
92D
330
1A
100
AcDbEntity
  8
GUIDE
100
AcDbLine
 10
188.0
 20
21.9
 30
0.0
 11
167.0
 21
21.9
 31
0.0
  0
LINE
  5
92E
330
1A
100
AcDbEntity
  8
GUIDE
100
AcDbLine
 10
188.0
 20
29.42
 30
0.0
 11
167.0
 21
29.42
 31
0.0
  0
LINE
  5
92F
330
1A
100
AcDbEntity
  8
GUIDE
100
AcDbLine
 10
167.0
 20
-4.42
 30
0.0
 11
167.0
 21
3.1
 31
0.0
  0
LINE
  5
930
330
1A
100
AcDbEntity
  8
GUIDE
100
AcDbLine
 10
167.0
 20
21.9
 30
0.0
 11
167.0
 21
29.42
 31
0.0
  0
LINE
  5
931
330
1A
100
AcDbEntity
  8
GUIDE
100
AcDbLine
 10
180.5
 20
44.5
 30
0.0
 11
180.5
 21
29.42
 31
0.0
  0
LINE
  5
932
330
1A
100
AcDbEntity
  8
GUIDE
100
AcDbLine
 10
174.5
 20
44.5
 30
0.0
 11
174.5
 21
29.42
 31
0.0
  0
LINE
  5
933
330
1A
100
AcDbEntity
  8
GUIDE
100
AcDbLine
 10
180.5
 20
18.14
 30
0.0
 11
174.5
 21
18.14
 31
0.0
  0
LINE
  5
934
330
1A
100
AcDbEntity
  8
GUIDE
100
AcDbLine
 10
188.0
 20
-4.42
 30
0.0
 11
188.0
 21
3.1
 31
0.0
  0
LINE
  5
935
330
1A
100
AcDbEntity
  8
GUIDE
100
AcDbLine
 10
188.0
 20
21.9
 30
0.0
 11
188.0
 21
29.42
 31
0.0
  0
LINE
  5
936
330
1A
100
AcDbEntity
  8
GUIDE
100
AcDbLine
 10
174.5
 20
21.9
 30
0.0
 11
174.5
 21
3.1
 31
0.0
  0
LINE
  5
937
330
1A
100
AcDbEntity
  8
GUIDE
100
AcDbLine
 10
180.5
 20
21.9
 30
0.0
 11
180.5
 21
3.1
 31
0.0
  0
LINE
  5
938
330
1A
100
AcDbEntity
  8
GUIDE
100
AcDbLine
 10
180.5
 20
-4.42
 30
0.0
 11
180.5
 21
-8.0
 31
0.0
  0
LINE
  5
939
330
1A
100
AcDbEntity
  8
GUIDE
100
AcDbLine
 10
174.5
 20
-4.42
 30
0.0
 11
174.5
 21
-8.0
 31
0.0
  0
LINE
  5
93A
330
1A
100
AcDbEntity
  8
GUIDE
100
AcDbLine
 10
198.0
 20
40.74
 30
0.0
 11
198.0
 21
44.5
 31
0.0
  0
LINE
  5
93B
330
1A
100
AcDbEntity
  8
GUIDE
100
AcDbLine
 10
192.0
 20
40.74
 30
0.0
 11
192.0
 21
44.5
 31
0.0
  0
LINE
  5
93C
330
1A
100
AcDbEntity
  8
GUIDE
100
AcDbLine
 10
192.0
 20
14.42
 30
0.0
 11
192.0
 21
33.22
 31
0.0
  0
LINE
  5
93D
330
1A
100
AcDbEntity
  8
GUIDE
100
AcDbLine
 10
198.0
 20
14.42
 30
0.0
 11
198.0
 21
33.22
 31
0.0
  0
LINE
  5
93E
330
1A
100
AcDbEntity
  8
GUIDE
100
AcDbLine
 10
198.0
 20
-8.0
 30
0.0
 11
198.0
 21
6.9
 31
0.0
  0
LINE
  5
93F
330
1A
100
AcDbEntity
  8
GUIDE
100
AcDbLine
 10
192.0
 20
-8.0
 30
0.0
 11
192.0
 21
6.9
 31
0.0
  0
LINE
  5
940
330
1A
100
AcDbEntity
  8
GUIDE
100
AcDbLine
 10
184.5
 20
14.42
 30
0.0
 11
184.5
 21
6.9
 31
0.0
  0
LINE
  5
941
330
1A
100
AcDbEntity
  8
GUIDE
100
AcDbLine
 10
205.5
 20
14.42
 30
0.0
 11
184.5
 21
14.42
 31
0.0
  0
LINE
  5
942
330
1A
100
AcDbEntity
  8
GUIDE
100
AcDbLine
 10
205.5
 20
6.9
 30
0.0
 11
184.5
 21
6.9
 31
0.0
  0
LINE
  5
943
330
1A
100
AcDbEntity
  8
GUIDE
100
AcDbLine
 10
198.0
 20
18.18
 30
0.0
 11
192.0
 21
18.18
 31
0.0
  0
LINE
  5
944
330
1A
100
AcDbEntity
  8
GUIDE
100
AcDbLine
 10
205.5
 20
33.22
 30
0.0
 11
184.5
 21
33.22
 31
0.0
  0
LINE
  5
945
330
1A
100
AcDbEntity
  8
GUIDE
100
AcDbLine
 10
205.5
 20
40.74
 30
0.0
 11
184.5
 21
40.74
 31
0.0
  0
LINE
  5
946
330
1A
100
AcDbEntity
  8
GUIDE
100
AcDbLine
 10
184.5
 20
40.74
 30
0.0
 11
184.5
 21
33.22
 31
0.0
  0
LINE
  5
947
330
1A
100
AcDbEntity
  8
GUIDE
100
AcDbLine
 10
205.5
 20
40.74
 30
0.0
 11
205.5
 21
33.22
 31
0.0
  0
LINE
  5
948
330
1A
100
AcDbEntity
  8
GUIDE
100
AcDbLine
 10
205.5
 20
14.42
 30
0.0
 11
205.5
 21
6.9
 31
0.0
  0
LINE
  5
949
330
1A
100
AcDbEntity
  8
GUIDE
100
AcDbLine
 10
153.0
 20
3.1
 30
0.0
 11
132.0
 21
3.1
 31
0.0
  0
LINE
  5
94A
330
1A
100
AcDbEntity
  8
GUIDE
100
AcDbLine
 10
153.0
 20
-4.42
 30
0.0
 11
132.0
 21
-4.42
 31
0.0
  0
LINE
  5
94B
330
1A
100
AcDbEntity
  8
GUIDE
100
AcDbLine
 10
153.0
 20
21.9
 30
0.0
 11
132.0
 21
21.9
 31
0.0
  0
LINE
  5
94C
330
1A
100
AcDbEntity
  8
GUIDE
100
AcDbLine
 10
153.0
 20
29.42
 30
0.0
 11
132.0
 21
29.42
 31
0.0
  0
LINE
  5
94D
330
1A
100
AcDbEntity
  8
GUIDE
100
AcDbLine
 10
132.0
 20
-4.42
 30
0.0
 11
132.0
 21
3.1
 31
0.0
  0
LINE
  5
94E
330
1A
100
AcDbEntity
  8
GUIDE
100
AcDbLine
 10
132.0
 20
21.9
 30
0.0
 11
132.0
 21
29.42
 31
0.0
  0
LINE
  5
94F
330
1A
100
AcDbEntity
  8
GUIDE
100
AcDbLine
 10
145.5
 20
44.5
 30
0.0
 11
145.5
 21
29.42
 31
0.0
  0
LINE
  5
950
330
1A
100
AcDbEntity
  8
GUIDE
100
AcDbLine
 10
139.5
 20
44.5
 30
0.0
 11
139.5
 21
29.42
 31
0.0
  0
LINE
  5
951
330
1A
100
AcDbEntity
  8
GUIDE
100
AcDbLine
 10
145.5
 20
18.14
 30
0.0
 11
139.5
 21
18.14
 31
0.0
  0
LINE
  5
952
330
1A
100
AcDbEntity
  8
GUIDE
100
AcDbLine
 10
153.0
 20
-4.42
 30
0.0
 11
153.0
 21
3.1
 31
0.0
  0
LINE
  5
953
330
1A
100
AcDbEntity
  8
GUIDE
100
AcDbLine
 10
153.0
 20
21.9
 30
0.0
 11
153.0
 21
29.42
 31
0.0
  0
LINE
  5
954
330
1A
100
AcDbEntity
  8
GUIDE
100
AcDbLine
 10
139.5
 20
21.9
 30
0.0
 11
139.5
 21
3.1
 31
0.0
  0
LINE
  5
955
330
1A
100
AcDbEntity
  8
GUIDE
100
AcDbLine
 10
145.5
 20
21.9
 30
0.0
 11
145.5
 21
3.1
 31
0.0
  0
LINE
  5
956
330
1A
100
AcDbEntity
  8
GUIDE
100
AcDbLine
 10
145.5
 20
-4.42
 30
0.0
 11
145.5
 21
-8.0
 31
0.0
  0
LINE
  5
957
330
1A
100
AcDbEntity
  8
GUIDE
100
AcDbLine
 10
139.5
 20
-4.42
 30
0.0
 11
139.5
 21
-8.0
 31
0.0
  0
LINE
  5
958
330
1A
100
AcDbEntity
  8
GUIDE
100
AcDbLine
 10
163.0
 20
40.74
 30
0.0
 11
163.0
 21
44.5
 31
0.0
  0
LINE
  5
959
330
1A
100
AcDbEntity
  8
GUIDE
100
AcDbLine
 10
157.0
 20
40.74
 30
0.0
 11
157.0
 21
44.5
 31
0.0
  0
LINE
  5
95A
330
1A
100
AcDbEntity
  8
GUIDE
100
AcDbLine
 10
157.0
 20
14.42
 30
0.0
 11
157.0
 21
33.22
 31
0.0
  0
LINE
  5
95B
330
1A
100
AcDbEntity
  8
GUIDE
100
AcDbLine
 10
163.0
 20
14.42
 30
0.0
 11
163.0
 21
33.22
 31
0.0
  0
LINE
  5
95C
330
1A
100
AcDbEntity
  8
GUIDE
100
AcDbLine
 10
163.0
 20
-8.0
 30
0.0
 11
163.0
 21
6.9
 31
0.0
  0
LINE
  5
95D
330
1A
100
AcDbEntity
  8
GUIDE
100
AcDbLine
 10
157.0
 20
-8.0
 30
0.0
 11
157.0
 21
6.9
 31
0.0
  0
LINE
  5
95E
330
1A
100
AcDbEntity
  8
GUIDE
100
AcDbLine
 10
149.5
 20
14.42
 30
0.0
 11
149.5
 21
6.9
 31
0.0
  0
LINE
  5
95F
330
1A
100
AcDbEntity
  8
GUIDE
100
AcDbLine
 10
170.5
 20
14.42
 30
0.0
 11
149.5
 21
14.42
 31
0.0
  0
LINE
  5
960
330
1A
100
AcDbEntity
  8
GUIDE
100
AcDbLine
 10
170.5
 20
6.9
 30
0.0
 11
149.5
 21
6.9
 31
0.0
  0
LINE
  5
961
330
1A
100
AcDbEntity
  8
GUIDE
100
AcDbLine
 10
163.0
 20
18.18
 30
0.0
 11
157.0
 21
18.18
 31
0.0
  0
LINE
  5
962
330
1A
100
AcDbEntity
  8
GUIDE
100
AcDbLine
 10
170.5
 20
33.22
 30
0.0
 11
149.5
 21
33.22
 31
0.0
  0
LINE
  5
963
330
1A
100
AcDbEntity
  8
GUIDE
100
AcDbLine
 10
170.5
 20
40.74
 30
0.0
 11
149.5
 21
40.74
 31
0.0
  0
LINE
  5
964
330
1A
100
AcDbEntity
  8
GUIDE
100
AcDbLine
 10
149.5
 20
40.74
 30
0.0
 11
149.5
 21
33.22
 31
0.0
  0
LINE
  5
965
330
1A
100
AcDbEntity
  8
GUIDE
100
AcDbLine
 10
170.5
 20
40.74
 30
0.0
 11
170.5
 21
33.22
 31
0.0
  0
LINE
  5
966
330
1A
100
AcDbEntity
  8
GUIDE
100
AcDbLine
 10
170.5
 20
14.42
 30
0.0
 11
170.5
 21
6.9
 31
0.0
  0
LINE
  5
967
330
1A
100
AcDbEntity
  8
GUIDE
100
AcDbLine
 10
118.0
 20
3.1
 30
0.0
 11
97.0
 21
3.1
 31
0.0
  0
LINE
  5
968
330
1A
100
AcDbEntity
  8
GUIDE
100
AcDbLine
 10
118.0
 20
-4.42
 30
0.0
 11
97.0
 21
-4.42
 31
0.0
  0
LINE
  5
969
330
1A
100
AcDbEntity
  8
GUIDE
100
AcDbLine
 10
118.0
 20
21.9
 30
0.0
 11
97.0
 21
21.9
 31
0.0
  0
LINE
  5
96A
330
1A
100
AcDbEntity
  8
GUIDE
100
AcDbLine
 10
118.0
 20
29.42
 30
0.0
 11
97.0
 21
29.42
 31
0.0
  0
LINE
  5
96B
330
1A
100
AcDbEntity
  8
GUIDE
100
AcDbLine
 10
97.0
 20
-4.42
 30
0.0
 11
97.0
 21
3.1
 31
0.0
  0
LINE
  5
96C
330
1A
100
AcDbEntity
  8
GUIDE
100
AcDbLine
 10
97.0
 20
21.9
 30
0.0
 11
97.0
 21
29.42
 31
0.0
  0
LINE
  5
96D
330
1A
100
AcDbEntity
  8
GUIDE
100
AcDbLine
 10
110.5
 20
44.5
 30
0.0
 11
110.5
 21
29.42
 31
0.0
  0
LINE
  5
96E
330
1A
100
AcDbEntity
  8
GUIDE
100
AcDbLine
 10
104.5
 20
44.5
 30
0.0
 11
104.5
 21
29.42
 31
0.0
  0
LINE
  5
96F
330
1A
100
AcDbEntity
  8
GUIDE
100
AcDbLine
 10
110.5
 20
18.14
 30
0.0
 11
104.5
 21
18.14
 31
0.0
  0
LINE
  5
970
330
1A
100
AcDbEntity
  8
GUIDE
100
AcDbLine
 10
118.0
 20
-4.42
 30
0.0
 11
118.0
 21
3.1
 31
0.0
  0
LINE
  5
971
330
1A
100
AcDbEntity
  8
GUIDE
100
AcDbLine
 10
118.0
 20
21.9
 30
0.0
 11
118.0
 21
29.42
 31
0.0
  0
LINE
  5
972
330
1A
100
AcDbEntity
  8
GUIDE
100
AcDbLine
 10
104.5
 20
21.9
 30
0.0
 11
104.5
 21
3.1
 31
0.0
  0
LINE
  5
973
330
1A
100
AcDbEntity
  8
GUIDE
100
AcDbLine
 10
110.5
 20
21.9
 30
0.0
 11
110.5
 21
3.1
 31
0.0
  0
LINE
  5
974
330
1A
100
AcDbEntity
  8
GUIDE
100
AcDbLine
 10
110.5
 20
-4.42
 30
0.0
 11
110.5
 21
-8.0
 31
0.0
  0
LINE
  5
975
330
1A
100
AcDbEntity
  8
GUIDE
100
AcDbLine
 10
104.5
 20
-4.42
 30
0.0
 11
104.5
 21
-8.0
 31
0.0
  0
LINE
  5
976
330
1A
100
AcDbEntity
  8
GUIDE
100
AcDbLine
 10
128.0
 20
40.74
 30
0.0
 11
128.0
 21
44.5
 31
0.0
  0
LINE
  5
977
330
1A
100
AcDbEntity
  8
GUIDE
100
AcDbLine
 10
122.0
 20
40.74
 30
0.0
 11
122.0
 21
44.5
 31
0.0
  0
LINE
  5
978
330
1A
100
AcDbEntity
  8
GUIDE
100
AcDbLine
 10
122.0
 20
14.42
 30
0.0
 11
122.0
 21
33.22
 31
0.0
  0
LINE
  5
979
330
1A
100
AcDbEntity
  8
GUIDE
100
AcDbLine
 10
128.0
 20
14.42
 30
0.0
 11
128.0
 21
33.22
 31
0.0
  0
LINE
  5
97A
330
1A
100
AcDbEntity
  8
GUIDE
100
AcDbLine
 10
128.0
 20
-8.0
 30
0.0
 11
128.0
 21
6.9
 31
0.0
  0
LINE
  5
97B
330
1A
100
AcDbEntity
  8
GUIDE
100
AcDbLine
 10
122.0
 20
-8.0
 30
0.0
 11
122.0
 21
6.9
 31
0.0
  0
LINE
  5
97C
330
1A
100
AcDbEntity
  8
GUIDE
100
AcDbLine
 10
114.5
 20
14.42
 30
0.0
 11
114.5
 21
6.9
 31
0.0
  0
LINE
  5
97D
330
1A
100
AcDbEntity
  8
GUIDE
100
AcDbLine
 10
135.5
 20
14.42
 30
0.0
 11
114.5
 21
14.42
 31
0.0
  0
LINE
  5
97E
330
1A
100
AcDbEntity
  8
GUIDE
100
AcDbLine
 10
135.5
 20
6.9
 30
0.0
 11
114.5
 21
6.9
 31
0.0
  0
LINE
  5
97F
330
1A
100
AcDbEntity
  8
GUIDE
100
AcDbLine
 10
128.0
 20
18.18
 30
0.0
 11
122.0
 21
18.18
 31
0.0
  0
LINE
  5
980
330
1A
100
AcDbEntity
  8
GUIDE
100
AcDbLine
 10
135.5
 20
33.22
 30
0.0
 11
114.5
 21
33.22
 31
0.0
  0
LINE
  5
981
330
1A
100
AcDbEntity
  8
GUIDE
100
AcDbLine
 10
135.5
 20
40.74
 30
0.0
 11
114.5
 21
40.74
 31
0.0
  0
LINE
  5
982
330
1A
100
AcDbEntity
  8
GUIDE
100
AcDbLine
 10
114.5
 20
40.74
 30
0.0
 11
114.5
 21
33.22
 31
0.0
  0
LINE
  5
983
330
1A
100
AcDbEntity
  8
GUIDE
100
AcDbLine
 10
135.5
 20
40.74
 30
0.0
 11
135.5
 21
33.22
 31
0.0
  0
LINE
  5
984
330
1A
100
AcDbEntity
  8
GUIDE
100
AcDbLine
 10
135.5
 20
14.42
 30
0.0
 11
135.5
 21
6.9
 31
0.0
  0
LINE
  5
985
330
1A
100
AcDbEntity
  8
GUIDE
100
AcDbLine
 10
83.0
 20
3.1
 30
0.0
 11
62.0
 21
3.1
 31
0.0
  0
LINE
  5
986
330
1A
100
AcDbEntity
  8
GUIDE
100
AcDbLine
 10
83.0
 20
-4.42
 30
0.0
 11
62.0
 21
-4.42
 31
0.0
  0
LINE
  5
987
330
1A
100
AcDbEntity
  8
GUIDE
100
AcDbLine
 10
83.0
 20
21.9
 30
0.0
 11
62.0
 21
21.9
 31
0.0
  0
LINE
  5
988
330
1A
100
AcDbEntity
  8
GUIDE
100
AcDbLine
 10
83.0
 20
29.42
 30
0.0
 11
62.0
 21
29.42
 31
0.0
  0
LINE
  5
989
330
1A
100
AcDbEntity
  8
GUIDE
100
AcDbLine
 10
62.0
 20
-4.42
 30
0.0
 11
62.0
 21
3.1
 31
0.0
  0
LINE
  5
98A
330
1A
100
AcDbEntity
  8
GUIDE
100
AcDbLine
 10
62.0
 20
21.9
 30
0.0
 11
62.0
 21
29.42
 31
0.0
  0
LINE
  5
98B
330
1A
100
AcDbEntity
  8
GUIDE
100
AcDbLine
 10
75.5
 20
44.5
 30
0.0
 11
75.5
 21
29.42
 31
0.0
  0
LINE
  5
98C
330
1A
100
AcDbEntity
  8
GUIDE
100
AcDbLine
 10
69.5
 20
44.5
 30
0.0
 11
69.5
 21
29.42
 31
0.0
  0
LINE
  5
98D
330
1A
100
AcDbEntity
  8
GUIDE
100
AcDbLine
 10
75.5
 20
18.14
 30
0.0
 11
69.5
 21
18.14
 31
0.0
  0
LINE
  5
98E
330
1A
100
AcDbEntity
  8
GUIDE
100
AcDbLine
 10
83.0
 20
-4.42
 30
0.0
 11
83.0
 21
3.1
 31
0.0
  0
LINE
  5
98F
330
1A
100
AcDbEntity
  8
GUIDE
100
AcDbLine
 10
83.0
 20
21.9
 30
0.0
 11
83.0
 21
29.42
 31
0.0
  0
LINE
  5
990
330
1A
100
AcDbEntity
  8
GUIDE
100
AcDbLine
 10
69.5
 20
21.9
 30
0.0
 11
69.5
 21
3.1
 31
0.0
  0
LINE
  5
991
330
1A
100
AcDbEntity
  8
GUIDE
100
AcDbLine
 10
75.5
 20
21.9
 30
0.0
 11
75.5
 21
3.1
 31
0.0
  0
LINE
  5
992
330
1A
100
AcDbEntity
  8
GUIDE
100
AcDbLine
 10
75.5
 20
-4.42
 30
0.0
 11
75.5
 21
-8.0
 31
0.0
  0
LINE
  5
993
330
1A
100
AcDbEntity
  8
GUIDE
100
AcDbLine
 10
69.5
 20
-4.42
 30
0.0
 11
69.5
 21
-8.0
 31
0.0
  0
LINE
  5
994
330
1A
100
AcDbEntity
  8
GUIDE
100
AcDbLine
 10
93.0
 20
40.74
 30
0.0
 11
93.0
 21
44.5
 31
0.0
  0
LINE
  5
995
330
1A
100
AcDbEntity
  8
GUIDE
100
AcDbLine
 10
87.0
 20
40.74
 30
0.0
 11
87.0
 21
44.5
 31
0.0
  0
LINE
  5
996
330
1A
100
AcDbEntity
  8
GUIDE
100
AcDbLine
 10
87.0
 20
14.42
 30
0.0
 11
87.0
 21
33.22
 31
0.0
  0
LINE
  5
997
330
1A
100
AcDbEntity
  8
GUIDE
100
AcDbLine
 10
93.0
 20
14.42
 30
0.0
 11
93.0
 21
33.22
 31
0.0
  0
LINE
  5
998
330
1A
100
AcDbEntity
  8
GUIDE
100
AcDbLine
 10
93.0
 20
-8.0
 30
0.0
 11
93.0
 21
6.9
 31
0.0
  0
LINE
  5
999
330
1A
100
AcDbEntity
  8
GUIDE
100
AcDbLine
 10
87.0
 20
-8.0
 30
0.0
 11
87.0
 21
6.9
 31
0.0
  0
LINE
  5
99A
330
1A
100
AcDbEntity
  8
GUIDE
100
AcDbLine
 10
79.5
 20
14.42
 30
0.0
 11
79.5
 21
6.9
 31
0.0
  0
LINE
  5
99B
330
1A
100
AcDbEntity
  8
GUIDE
100
AcDbLine
 10
100.5
 20
14.42
 30
0.0
 11
79.5
 21
14.42
 31
0.0
  0
LINE
  5
99C
330
1A
100
AcDbEntity
  8
GUIDE
100
AcDbLine
 10
100.5
 20
6.9
 30
0.0
 11
79.5
 21
6.9
 31
0.0
  0
LINE
  5
99D
330
1A
100
AcDbEntity
  8
GUIDE
100
AcDbLine
 10
93.0
 20
18.18
 30
0.0
 11
87.0
 21
18.18
 31
0.0
  0
LINE
  5
99E
330
1A
100
AcDbEntity
  8
GUIDE
100
AcDbLine
 10
100.5
 20
33.22
 30
0.0
 11
79.5
 21
33.22
 31
0.0
  0
LINE
  5
99F
330
1A
100
AcDbEntity
  8
GUIDE
100
AcDbLine
 10
100.5
 20
40.74
 30
0.0
 11
79.5
 21
40.74
 31
0.0
  0
LINE
  5
9A0
330
1A
100
AcDbEntity
  8
GUIDE
100
AcDbLine
 10
79.5
 20
40.74
 30
0.0
 11
79.5
 21
33.22
 31
0.0
  0
LINE
  5
9A1
330
1A
100
AcDbEntity
  8
GUIDE
100
AcDbLine
 10
100.5
 20
40.74
 30
0.0
 11
100.5
 21
33.22
 31
0.0
  0
LINE
  5
9A2
330
1A
100
AcDbEntity
  8
GUIDE
100
AcDbLine
 10
100.5
 20
14.42
 30
0.0
 11
100.5
 21
6.9
 31
0.0
  0
LINE
  5
9A3
330
1A
100
AcDbEntity
  8
GUIDE
100
AcDbLine
 10
48.0
 20
3.1
 30
0.0
 11
27.0
 21
3.1
 31
0.0
  0
LINE
  5
9A4
330
1A
100
AcDbEntity
  8
GUIDE
100
AcDbLine
 10
48.0
 20
-4.42
 30
0.0
 11
27.0
 21
-4.42
 31
0.0
  0
LINE
  5
9A5
330
1A
100
AcDbEntity
  8
GUIDE
100
AcDbLine
 10
48.0
 20
21.9
 30
0.0
 11
27.0
 21
21.9
 31
0.0
  0
LINE
  5
9A6
330
1A
100
AcDbEntity
  8
GUIDE
100
AcDbLine
 10
48.0
 20
29.42
 30
0.0
 11
27.0
 21
29.42
 31
0.0
  0
LINE
  5
9A7
330
1A
100
AcDbEntity
  8
GUIDE
100
AcDbLine
 10
27.0
 20
-4.42
 30
0.0
 11
27.0
 21
3.1
 31
0.0
  0
LINE
  5
9A8
330
1A
100
AcDbEntity
  8
GUIDE
100
AcDbLine
 10
27.0
 20
21.9
 30
0.0
 11
27.0
 21
29.42
 31
0.0
  0
LINE
  5
9A9
330
1A
100
AcDbEntity
  8
GUIDE
100
AcDbLine
 10
40.5
 20
44.5
 30
0.0
 11
40.5
 21
29.42
 31
0.0
  0
LINE
  5
9AA
330
1A
100
AcDbEntity
  8
GUIDE
100
AcDbLine
 10
34.5
 20
44.5
 30
0.0
 11
34.5
 21
29.42
 31
0.0
  0
LINE
  5
9AB
330
1A
100
AcDbEntity
  8
GUIDE
100
AcDbLine
 10
40.5
 20
18.14
 30
0.0
 11
34.5
 21
18.14
 31
0.0
  0
LINE
  5
9AC
330
1A
100
AcDbEntity
  8
GUIDE
100
AcDbLine
 10
48.0
 20
-4.42
 30
0.0
 11
48.0
 21
3.1
 31
0.0
  0
LINE
  5
9AD
330
1A
100
AcDbEntity
  8
GUIDE
100
AcDbLine
 10
48.0
 20
21.9
 30
0.0
 11
48.0
 21
29.42
 31
0.0
  0
LINE
  5
9AE
330
1A
100
AcDbEntity
  8
GUIDE
100
AcDbLine
 10
34.5
 20
21.9
 30
0.0
 11
34.5
 21
3.1
 31
0.0
  0
LINE
  5
9AF
330
1A
100
AcDbEntity
  8
GUIDE
100
AcDbLine
 10
40.5
 20
21.9
 30
0.0
 11
40.5
 21
3.1
 31
0.0
  0
LINE
  5
9B0
330
1A
100
AcDbEntity
  8
GUIDE
100
AcDbLine
 10
40.5
 20
-4.42
 30
0.0
 11
40.5
 21
-8.0
 31
0.0
  0
LINE
  5
9B1
330
1A
100
AcDbEntity
  8
GUIDE
100
AcDbLine
 10
34.5
 20
-4.42
 30
0.0
 11
34.5
 21
-8.0
 31
0.0
  0
LINE
  5
9B2
330
1A
100
AcDbEntity
  8
GUIDE
100
AcDbLine
 10
58.0
 20
40.74
 30
0.0
 11
58.0
 21
44.5
 31
0.0
  0
LINE
  5
9B3
330
1A
100
AcDbEntity
  8
GUIDE
100
AcDbLine
 10
52.0
 20
40.74
 30
0.0
 11
52.0
 21
44.5
 31
0.0
  0
LINE
  5
9B4
330
1A
100
AcDbEntity
  8
GUIDE
100
AcDbLine
 10
52.0
 20
14.42
 30
0.0
 11
52.0
 21
33.22
 31
0.0
  0
LINE
  5
9B5
330
1A
100
AcDbEntity
  8
GUIDE
100
AcDbLine
 10
58.0
 20
14.42
 30
0.0
 11
58.0
 21
33.22
 31
0.0
  0
LINE
  5
9B6
330
1A
100
AcDbEntity
  8
GUIDE
100
AcDbLine
 10
58.0
 20
-8.0
 30
0.0
 11
58.0
 21
6.9
 31
0.0
  0
LINE
  5
9B7
330
1A
100
AcDbEntity
  8
GUIDE
100
AcDbLine
 10
52.0
 20
-8.0
 30
0.0
 11
52.0
 21
6.9
 31
0.0
  0
LINE
  5
9B8
330
1A
100
AcDbEntity
  8
GUIDE
100
AcDbLine
 10
44.5
 20
14.42
 30
0.0
 11
44.5
 21
6.9
 31
0.0
  0
LINE
  5
9B9
330
1A
100
AcDbEntity
  8
GUIDE
100
AcDbLine
 10
65.5
 20
14.42
 30
0.0
 11
44.5
 21
14.42
 31
0.0
  0
LINE
  5
9BA
330
1A
100
AcDbEntity
  8
GUIDE
100
AcDbLine
 10
65.5
 20
6.9
 30
0.0
 11
44.5
 21
6.9
 31
0.0
  0
LINE
  5
9BB
330
1A
100
AcDbEntity
  8
GUIDE
100
AcDbLine
 10
58.0
 20
18.18
 30
0.0
 11
52.0
 21
18.18
 31
0.0
  0
LINE
  5
9BC
330
1A
100
AcDbEntity
  8
GUIDE
100
AcDbLine
 10
65.5
 20
33.22
 30
0.0
 11
44.5
 21
33.22
 31
0.0
  0
LINE
  5
9BD
330
1A
100
AcDbEntity
  8
GUIDE
100
AcDbLine
 10
65.5
 20
40.74
 30
0.0
 11
44.5
 21
40.74
 31
0.0
  0
LINE
  5
9BE
330
1A
100
AcDbEntity
  8
GUIDE
100
AcDbLine
 10
44.5
 20
40.74
 30
0.0
 11
44.5
 21
33.22
 31
0.0
  0
LINE
  5
9BF
330
1A
100
AcDbEntity
  8
GUIDE
100
AcDbLine
 10
65.5
 20
40.74
 30
0.0
 11
65.5
 21
33.22
 31
0.0
  0
LINE
  5
9C0
330
1A
100
AcDbEntity
  8
GUIDE
100
AcDbLine
 10
65.5
 20
14.42
 30
0.0
 11
65.5
 21
6.9
 31
0.0
  0
LINE
  5
9C1
330
1A
100
AcDbEntity
  8
GUIDE
100
AcDbLine
 10
13.0
 20
3.1
 30
0.0
 11
-8.0
 21
3.1
 31
0.0
  0
LINE
  5
9C2
330
1A
100
AcDbEntity
  8
GUIDE
100
AcDbLine
 10
13.0
 20
-4.42
 30
0.0
 11
-8.0
 21
-4.42
 31
0.0
  0
LINE
  5
9C3
330
1A
100
AcDbEntity
  8
GUIDE
100
AcDbLine
 10
13.0
 20
21.9
 30
0.0
 11
-8.0
 21
21.9
 31
0.0
  0
LINE
  5
9C4
330
1A
100
AcDbEntity
  8
GUIDE
100
AcDbLine
 10
13.0
 20
29.42
 30
0.0
 11
-8.0
 21
29.42
 31
0.0
  0
LINE
  5
9C5
330
1A
100
AcDbEntity
  8
GUIDE
100
AcDbLine
 10
-8.0
 20
-4.42
 30
0.0
 11
-8.0
 21
3.1
 31
0.0
  0
LINE
  5
9C6
330
1A
100
AcDbEntity
  8
GUIDE
100
AcDbLine
 10
-8.0
 20
21.9
 30
0.0
 11
-8.0
 21
29.42
 31
0.0
  0
LINE
  5
9C7
330
1A
100
AcDbEntity
  8
GUIDE
100
AcDbLine
 10
5.5
 20
44.5
 30
0.0
 11
5.5
 21
29.42
 31
0.0
  0
LINE
  5
9C8
330
1A
100
AcDbEntity
  8
GUIDE
100
AcDbLine
 10
-0.5
 20
44.5
 30
0.0
 11
-0.5
 21
29.42
 31
0.0
  0
LINE
  5
9C9
330
1A
100
AcDbEntity
  8
GUIDE
100
AcDbLine
 10
5.5
 20
18.14
 30
0.0
 11
-0.5
 21
18.14
 31
0.0
  0
LINE
  5
9CA
330
1A
100
AcDbEntity
  8
GUIDE
100
AcDbLine
 10
13.0
 20
-4.42
 30
0.0
 11
13.0
 21
3.1
 31
0.0
  0
LINE
  5
9CB
330
1A
100
AcDbEntity
  8
GUIDE
100
AcDbLine
 10
13.0
 20
21.9
 30
0.0
 11
13.0
 21
29.42
 31
0.0
  0
LINE
  5
9CC
330
1A
100
AcDbEntity
  8
GUIDE
100
AcDbLine
 10
-0.5
 20
21.9
 30
0.0
 11
-0.5
 21
3.1
 31
0.0
  0
LINE
  5
9CD
330
1A
100
AcDbEntity
  8
GUIDE
100
AcDbLine
 10
5.5
 20
21.9
 30
0.0
 11
5.5
 21
3.1
 31
0.0
  0
LINE
  5
9CE
330
1A
100
AcDbEntity
  8
GUIDE
100
AcDbLine
 10
5.5
 20
-4.42
 30
0.0
 11
5.5
 21
-8.0
 31
0.0
  0
LINE
  5
9CF
330
1A
100
AcDbEntity
  8
GUIDE
100
AcDbLine
 10
-0.5
 20
-4.42
 30
0.0
 11
-0.5
 21
-8.0
 31
0.0
  0
LINE
  5
9D0
330
1A
100
AcDbEntity
  8
GUIDE
100
AcDbLine
 10
23.0
 20
40.74
 30
0.0
 11
23.0
 21
44.5
 31
0.0
  0
LINE
  5
9D1
330
1A
100
AcDbEntity
  8
GUIDE
100
AcDbLine
 10
17.0
 20
40.74
 30
0.0
 11
17.0
 21
44.5
 31
0.0
  0
LINE
  5
9D2
330
1A
100
AcDbEntity
  8
GUIDE
100
AcDbLine
 10
17.0
 20
14.42
 30
0.0
 11
17.0
 21
33.22
 31
0.0
  0
LINE
  5
9D3
330
1A
100
AcDbEntity
  8
GUIDE
100
AcDbLine
 10
23.0
 20
14.42
 30
0.0
 11
23.0
 21
33.22
 31
0.0
  0
LINE
  5
9D4
330
1A
100
AcDbEntity
  8
GUIDE
100
AcDbLine
 10
23.0
 20
-8.0
 30
0.0
 11
23.0
 21
6.9
 31
0.0
  0
LINE
  5
9D5
330
1A
100
AcDbEntity
  8
GUIDE
100
AcDbLine
 10
17.0
 20
-8.0
 30
0.0
 11
17.0
 21
6.9
 31
0.0
  0
LINE
  5
9D6
330
1A
100
AcDbEntity
  8
GUIDE
100
AcDbLine
 10
9.5
 20
14.42
 30
0.0
 11
9.5
 21
6.9
 31
0.0
  0
LINE
  5
9D7
330
1A
100
AcDbEntity
  8
GUIDE
100
AcDbLine
 10
30.5
 20
14.42
 30
0.0
 11
9.5
 21
14.42
 31
0.0
  0
LINE
  5
9D8
330
1A
100
AcDbEntity
  8
GUIDE
100
AcDbLine
 10
30.5
 20
6.9
 30
0.0
 11
9.5
 21
6.9
 31
0.0
  0
LINE
  5
9D9
330
1A
100
AcDbEntity
  8
GUIDE
100
AcDbLine
 10
23.0
 20
18.18
 30
0.0
 11
17.0
 21
18.18
 31
0.0
  0
LINE
  5
9DA
330
1A
100
AcDbEntity
  8
GUIDE
100
AcDbLine
 10
30.5
 20
33.22
 30
0.0
 11
9.5
 21
33.22
 31
0.0
  0
LINE
  5
9DB
330
1A
100
AcDbEntity
  8
GUIDE
100
AcDbLine
 10
30.5
 20
40.74
 30
0.0
 11
9.5
 21
40.74
 31
0.0
  0
LINE
  5
9DC
330
1A
100
AcDbEntity
  8
GUIDE
100
AcDbLine
 10
9.5
 20
40.74
 30
0.0
 11
9.5
 21
33.22
 31
0.0
  0
LINE
  5
9DD
330
1A
100
AcDbEntity
  8
GUIDE
100
AcDbLine
 10
30.5
 20
40.74
 30
0.0
 11
30.5
 21
33.22
 31
0.0
  0
LINE
  5
9DE
330
1A
100
AcDbEntity
  8
GUIDE
100
AcDbLine
 10
30.5
 20
14.42
 30
0.0
 11
30.5
 21
6.9
 31
0.0
  0
LINE
  5
9DF
330
1A
100
AcDbEntity
  8
GUIDE
100
AcDbLine
 10
-22.0
 20
3.1
 30
0.0
 11
-43.0
 21
3.1
 31
0.0
  0
LINE
  5
9E0
330
1A
100
AcDbEntity
  8
GUIDE
100
AcDbLine
 10
-22.0
 20
-4.42
 30
0.0
 11
-43.0
 21
-4.42
 31
0.0
  0
LINE
  5
9E1
330
1A
100
AcDbEntity
  8
GUIDE
100
AcDbLine
 10
-22.0
 20
21.9
 30
0.0
 11
-43.0
 21
21.9
 31
0.0
  0
LINE
  5
9E2
330
1A
100
AcDbEntity
  8
GUIDE
100
AcDbLine
 10
-22.0
 20
29.42
 30
0.0
 11
-43.0
 21
29.42
 31
0.0
  0
LINE
  5
9E3
330
1A
100
AcDbEntity
  8
GUIDE
100
AcDbLine
 10
-43.0
 20
-4.42
 30
0.0
 11
-43.0
 21
3.1
 31
0.0
  0
LINE
  5
9E4
330
1A
100
AcDbEntity
  8
GUIDE
100
AcDbLine
 10
-43.0
 20
21.9
 30
0.0
 11
-43.0
 21
29.42
 31
0.0
  0
LINE
  5
9E5
330
1A
100
AcDbEntity
  8
GUIDE
100
AcDbLine
 10
-29.5
 20
44.5
 30
0.0
 11
-29.5
 21
29.42
 31
0.0
  0
LINE
  5
9E6
330
1A
100
AcDbEntity
  8
GUIDE
100
AcDbLine
 10
-35.5
 20
44.5
 30
0.0
 11
-35.5
 21
29.42
 31
0.0
  0
LINE
  5
9E7
330
1A
100
AcDbEntity
  8
GUIDE
100
AcDbLine
 10
-29.5
 20
18.14
 30
0.0
 11
-35.5
 21
18.14
 31
0.0
  0
LINE
  5
9E8
330
1A
100
AcDbEntity
  8
GUIDE
100
AcDbLine
 10
-22.0
 20
-4.42
 30
0.0
 11
-22.0
 21
3.1
 31
0.0
  0
LINE
  5
9E9
330
1A
100
AcDbEntity
  8
GUIDE
100
AcDbLine
 10
-22.0
 20
21.9
 30
0.0
 11
-22.0
 21
29.42
 31
0.0
  0
LINE
  5
9EA
330
1A
100
AcDbEntity
  8
GUIDE
100
AcDbLine
 10
-35.5
 20
21.9
 30
0.0
 11
-35.5
 21
3.1
 31
0.0
  0
LINE
  5
9EB
330
1A
100
AcDbEntity
  8
GUIDE
100
AcDbLine
 10
-29.5
 20
21.9
 30
0.0
 11
-29.5
 21
3.1
 31
0.0
  0
LINE
  5
9EC
330
1A
100
AcDbEntity
  8
GUIDE
100
AcDbLine
 10
-29.5
 20
-4.42
 30
0.0
 11
-29.5
 21
-8.0
 31
0.0
  0
LINE
  5
9ED
330
1A
100
AcDbEntity
  8
GUIDE
100
AcDbLine
 10
-35.5
 20
-4.42
 30
0.0
 11
-35.5
 21
-8.0
 31
0.0
  0
LINE
  5
9EE
330
1A
100
AcDbEntity
  8
GUIDE
100
AcDbLine
 10
-12.0
 20
40.74
 30
0.0
 11
-12.0
 21
44.5
 31
0.0
  0
LINE
  5
9EF
330
1A
100
AcDbEntity
  8
GUIDE
100
AcDbLine
 10
-18.0
 20
40.74
 30
0.0
 11
-18.0
 21
44.5
 31
0.0
  0
LINE
  5
9F0
330
1A
100
AcDbEntity
  8
GUIDE
100
AcDbLine
 10
-18.0
 20
14.42
 30
0.0
 11
-18.0
 21
33.22
 31
0.0
  0
LINE
  5
9F1
330
1A
100
AcDbEntity
  8
GUIDE
100
AcDbLine
 10
-12.0
 20
14.42
 30
0.0
 11
-12.0
 21
33.22
 31
0.0
  0
LINE
  5
9F2
330
1A
100
AcDbEntity
  8
GUIDE
100
AcDbLine
 10
-12.0
 20
-8.0
 30
0.0
 11
-12.0
 21
6.9
 31
0.0
  0
LINE
  5
9F3
330
1A
100
AcDbEntity
  8
GUIDE
100
AcDbLine
 10
-18.0
 20
-8.0
 30
0.0
 11
-18.0
 21
6.9
 31
0.0
  0
LINE
  5
9F4
330
1A
100
AcDbEntity
  8
GUIDE
100
AcDbLine
 10
-25.5
 20
14.42
 30
0.0
 11
-25.5
 21
6.9
 31
0.0
  0
LINE
  5
9F5
330
1A
100
AcDbEntity
  8
GUIDE
100
AcDbLine
 10
-4.5
 20
14.42
 30
0.0
 11
-25.5
 21
14.42
 31
0.0
  0
LINE
  5
9F6
330
1A
100
AcDbEntity
  8
GUIDE
100
AcDbLine
 10
-4.5
 20
6.9
 30
0.0
 11
-25.5
 21
6.9
 31
0.0
  0
LINE
  5
9F7
330
1A
100
AcDbEntity
  8
GUIDE
100
AcDbLine
 10
-12.0
 20
18.18
 30
0.0
 11
-18.0
 21
18.18
 31
0.0
  0
LINE
  5
9F8
330
1A
100
AcDbEntity
  8
GUIDE
100
AcDbLine
 10
-4.5
 20
33.22
 30
0.0
 11
-25.5
 21
33.22
 31
0.0
  0
LINE
  5
9F9
330
1A
100
AcDbEntity
  8
GUIDE
100
AcDbLine
 10
-4.5
 20
40.74
 30
0.0
 11
-25.5
 21
40.74
 31
0.0
  0
LINE
  5
9FA
330
1A
100
AcDbEntity
  8
GUIDE
100
AcDbLine
 10
-25.5
 20
40.74
 30
0.0
 11
-25.5
 21
33.22
 31
0.0
  0
LINE
  5
9FB
330
1A
100
AcDbEntity
  8
GUIDE
100
AcDbLine
 10
-4.5
 20
40.74
 30
0.0
 11
-4.5
 21
33.22
 31
0.0
  0
LINE
  5
9FC
330
1A
100
AcDbEntity
  8
GUIDE
100
AcDbLine
 10
-4.5
 20
14.42
 30
0.0
 11
-4.5
 21
6.9
 31
0.0
  0
LINE
  5
9FD
330
1A
100
AcDbEntity
  8
GUIDE
100
AcDbLine
 10
-57.0
 20
3.1
 30
0.0
 11
-78.0
 21
3.1
 31
0.0
  0
LINE
  5
9FE
330
1A
100
AcDbEntity
  8
GUIDE
100
AcDbLine
 10
-57.0
 20
-4.42
 30
0.0
 11
-78.0
 21
-4.42
 31
0.0
  0
LINE
  5
9FF
330
1A
100
AcDbEntity
  8
GUIDE
100
AcDbLine
 10
-57.0
 20
21.9
 30
0.0
 11
-78.0
 21
21.9
 31
0.0
  0
LINE
  5
A00
330
1A
100
AcDbEntity
  8
GUIDE
100
AcDbLine
 10
-57.0
 20
29.42
 30
0.0
 11
-78.0
 21
29.42
 31
0.0
  0
LINE
  5
A01
330
1A
100
AcDbEntity
  8
GUIDE
100
AcDbLine
 10
-78.0
 20
-4.42
 30
0.0
 11
-78.0
 21
3.1
 31
0.0
  0
LINE
  5
A02
330
1A
100
AcDbEntity
  8
GUIDE
100
AcDbLine
 10
-78.0
 20
21.9
 30
0.0
 11
-78.0
 21
29.42
 31
0.0
  0
LINE
  5
A03
330
1A
100
AcDbEntity
  8
GUIDE
100
AcDbLine
 10
-64.5
 20
44.5
 30
0.0
 11
-64.5
 21
29.42
 31
0.0
  0
LINE
  5
A04
330
1A
100
AcDbEntity
  8
GUIDE
100
AcDbLine
 10
-70.5
 20
44.5
 30
0.0
 11
-70.5
 21
29.42
 31
0.0
  0
LINE
  5
A05
330
1A
100
AcDbEntity
  8
GUIDE
100
AcDbLine
 10
-64.5
 20
18.14
 30
0.0
 11
-70.5
 21
18.14
 31
0.0
  0
LINE
  5
A06
330
1A
100
AcDbEntity
  8
GUIDE
100
AcDbLine
 10
-57.0
 20
-4.42
 30
0.0
 11
-57.0
 21
3.1
 31
0.0
  0
LINE
  5
A07
330
1A
100
AcDbEntity
  8
GUIDE
100
AcDbLine
 10
-57.0
 20
21.9
 30
0.0
 11
-57.0
 21
29.42
 31
0.0
  0
LINE
  5
A08
330
1A
100
AcDbEntity
  8
GUIDE
100
AcDbLine
 10
-70.5
 20
21.9
 30
0.0
 11
-70.5
 21
3.1
 31
0.0
  0
LINE
  5
A09
330
1A
100
AcDbEntity
  8
GUIDE
100
AcDbLine
 10
-64.5
 20
21.9
 30
0.0
 11
-64.5
 21
3.1
 31
0.0
  0
LINE
  5
A0A
330
1A
100
AcDbEntity
  8
GUIDE
100
AcDbLine
 10
-64.5
 20
-4.42
 30
0.0
 11
-64.5
 21
-8.0
 31
0.0
  0
LINE
  5
A0B
330
1A
100
AcDbEntity
  8
GUIDE
100
AcDbLine
 10
-70.5
 20
-4.42
 30
0.0
 11
-70.5
 21
-8.0
 31
0.0
  0
LINE
  5
A0C
330
1A
100
AcDbEntity
  8
GUIDE
100
AcDbLine
 10
-47.0
 20
40.74
 30
0.0
 11
-47.0
 21
44.5
 31
0.0
  0
LINE
  5
A0D
330
1A
100
AcDbEntity
  8
GUIDE
100
AcDbLine
 10
-53.0
 20
40.74
 30
0.0
 11
-53.0
 21
44.5
 31
0.0
  0
LINE
  5
A0E
330
1A
100
AcDbEntity
  8
GUIDE
100
AcDbLine
 10
-53.0
 20
14.42
 30
0.0
 11
-53.0
 21
33.22
 31
0.0
  0
LINE
  5
A0F
330
1A
100
AcDbEntity
  8
GUIDE
100
AcDbLine
 10
-47.0
 20
14.42
 30
0.0
 11
-47.0
 21
33.22
 31
0.0
  0
LINE
  5
A10
330
1A
100
AcDbEntity
  8
GUIDE
100
AcDbLine
 10
-47.0
 20
-8.0
 30
0.0
 11
-47.0
 21
6.9
 31
0.0
  0
LINE
  5
A11
330
1A
100
AcDbEntity
  8
GUIDE
100
AcDbLine
 10
-53.0
 20
-8.0
 30
0.0
 11
-53.0
 21
6.9
 31
0.0
  0
LINE
  5
A12
330
1A
100
AcDbEntity
  8
GUIDE
100
AcDbLine
 10
-60.5
 20
14.42
 30
0.0
 11
-60.5
 21
6.9
 31
0.0
  0
LINE
  5
A13
330
1A
100
AcDbEntity
  8
GUIDE
100
AcDbLine
 10
-39.5
 20
14.42
 30
0.0
 11
-60.5
 21
14.42
 31
0.0
  0
LINE
  5
A14
330
1A
100
AcDbEntity
  8
GUIDE
100
AcDbLine
 10
-39.5
 20
6.9
 30
0.0
 11
-60.5
 21
6.9
 31
0.0
  0
LINE
  5
A15
330
1A
100
AcDbEntity
  8
GUIDE
100
AcDbLine
 10
-47.0
 20
18.18
 30
0.0
 11
-53.0
 21
18.18
 31
0.0
  0
LINE
  5
A16
330
1A
100
AcDbEntity
  8
GUIDE
100
AcDbLine
 10
-39.5
 20
33.22
 30
0.0
 11
-60.5
 21
33.22
 31
0.0
  0
LINE
  5
A17
330
1A
100
AcDbEntity
  8
GUIDE
100
AcDbLine
 10
-39.5
 20
40.74
 30
0.0
 11
-60.5
 21
40.74
 31
0.0
  0
LINE
  5
A18
330
1A
100
AcDbEntity
  8
GUIDE
100
AcDbLine
 10
-60.5
 20
40.74
 30
0.0
 11
-60.5
 21
33.22
 31
0.0
  0
LINE
  5
A19
330
1A
100
AcDbEntity
  8
GUIDE
100
AcDbLine
 10
-39.5
 20
40.74
 30
0.0
 11
-39.5
 21
33.22
 31
0.0
  0
LINE
  5
A1A
330
1A
100
AcDbEntity
  8
GUIDE
100
AcDbLine
 10
-39.5
 20
14.42
 30
0.0
 11
-39.5
 21
6.9
 31
0.0
  0
LINE
  5
A1B
330
1A
100
AcDbEntity
  8
GUIDE
100
AcDbLine
 10
-92.0
 20
3.1
 30
0.0
 11
-113.0
 21
3.1
 31
0.0
  0
LINE
  5
A1C
330
1A
100
AcDbEntity
  8
GUIDE
100
AcDbLine
 10
-92.0
 20
-4.42
 30
0.0
 11
-113.0
 21
-4.42
 31
0.0
  0
LINE
  5
A1D
330
1A
100
AcDbEntity
  8
GUIDE
100
AcDbLine
 10
-92.0
 20
21.9
 30
0.0
 11
-113.0
 21
21.9
 31
0.0
  0
LINE
  5
A1E
330
1A
100
AcDbEntity
  8
GUIDE
100
AcDbLine
 10
-92.0
 20
29.42
 30
0.0
 11
-113.0
 21
29.42
 31
0.0
  0
LINE
  5
A1F
330
1A
100
AcDbEntity
  8
GUIDE
100
AcDbLine
 10
-113.0
 20
-4.42
 30
0.0
 11
-113.0
 21
3.1
 31
0.0
  0
LINE
  5
A20
330
1A
100
AcDbEntity
  8
GUIDE
100
AcDbLine
 10
-113.0
 20
21.9
 30
0.0
 11
-113.0
 21
29.42
 31
0.0
  0
LINE
  5
A21
330
1A
100
AcDbEntity
  8
GUIDE
100
AcDbLine
 10
-99.5
 20
44.5
 30
0.0
 11
-99.5
 21
29.42
 31
0.0
  0
LINE
  5
A22
330
1A
100
AcDbEntity
  8
GUIDE
100
AcDbLine
 10
-105.5
 20
44.5
 30
0.0
 11
-105.5
 21
29.42
 31
0.0
  0
LINE
  5
A23
330
1A
100
AcDbEntity
  8
GUIDE
100
AcDbLine
 10
-99.5
 20
18.14
 30
0.0
 11
-105.5
 21
18.14
 31
0.0
  0
LINE
  5
A24
330
1A
100
AcDbEntity
  8
GUIDE
100
AcDbLine
 10
-92.0
 20
-4.42
 30
0.0
 11
-92.0
 21
3.1
 31
0.0
  0
LINE
  5
A25
330
1A
100
AcDbEntity
  8
GUIDE
100
AcDbLine
 10
-92.0
 20
21.9
 30
0.0
 11
-92.0
 21
29.42
 31
0.0
  0
LINE
  5
A26
330
1A
100
AcDbEntity
  8
GUIDE
100
AcDbLine
 10
-105.5
 20
21.9
 30
0.0
 11
-105.5
 21
3.1
 31
0.0
  0
LINE
  5
A27
330
1A
100
AcDbEntity
  8
GUIDE
100
AcDbLine
 10
-99.5
 20
21.9
 30
0.0
 11
-99.5
 21
3.1
 31
0.0
  0
LINE
  5
A28
330
1A
100
AcDbEntity
  8
GUIDE
100
AcDbLine
 10
-99.5
 20
-4.42
 30
0.0
 11
-99.5
 21
-8.0
 31
0.0
  0
LINE
  5
A29
330
1A
100
AcDbEntity
  8
GUIDE
100
AcDbLine
 10
-105.5
 20
-4.42
 30
0.0
 11
-105.5
 21
-8.0
 31
0.0
  0
LINE
  5
A2A
330
1A
100
AcDbEntity
  8
GUIDE
100
AcDbLine
 10
-82.0
 20
40.74
 30
0.0
 11
-82.0
 21
44.5
 31
0.0
  0
LINE
  5
A2B
330
1A
100
AcDbEntity
  8
GUIDE
100
AcDbLine
 10
-88.0
 20
40.74
 30
0.0
 11
-88.0
 21
44.5
 31
0.0
  0
LINE
  5
A2C
330
1A
100
AcDbEntity
  8
GUIDE
100
AcDbLine
 10
-88.0
 20
14.42
 30
0.0
 11
-88.0
 21
33.22
 31
0.0
  0
LINE
  5
A2D
330
1A
100
AcDbEntity
  8
GUIDE
100
AcDbLine
 10
-82.0
 20
14.42
 30
0.0
 11
-82.0
 21
33.22
 31
0.0
  0
LINE
  5
A2E
330
1A
100
AcDbEntity
  8
GUIDE
100
AcDbLine
 10
-82.0
 20
-8.0
 30
0.0
 11
-82.0
 21
6.9
 31
0.0
  0
LINE
  5
A2F
330
1A
100
AcDbEntity
  8
GUIDE
100
AcDbLine
 10
-88.0
 20
-8.0
 30
0.0
 11
-88.0
 21
6.9
 31
0.0
  0
LINE
  5
A30
330
1A
100
AcDbEntity
  8
GUIDE
100
AcDbLine
 10
-95.5
 20
14.42
 30
0.0
 11
-95.5
 21
6.9
 31
0.0
  0
LINE
  5
A31
330
1A
100
AcDbEntity
  8
GUIDE
100
AcDbLine
 10
-74.5
 20
14.42
 30
0.0
 11
-95.5
 21
14.42
 31
0.0
  0
LINE
  5
A32
330
1A
100
AcDbEntity
  8
GUIDE
100
AcDbLine
 10
-74.5
 20
6.9
 30
0.0
 11
-95.5
 21
6.9
 31
0.0
  0
LINE
  5
A33
330
1A
100
AcDbEntity
  8
GUIDE
100
AcDbLine
 10
-82.0
 20
18.18
 30
0.0
 11
-88.0
 21
18.18
 31
0.0
  0
LINE
  5
A34
330
1A
100
AcDbEntity
  8
GUIDE
100
AcDbLine
 10
-74.5
 20
33.22
 30
0.0
 11
-95.5
 21
33.22
 31
0.0
  0
LINE
  5
A35
330
1A
100
AcDbEntity
  8
GUIDE
100
AcDbLine
 10
-74.5
 20
40.74
 30
0.0
 11
-95.5
 21
40.74
 31
0.0
  0
LINE
  5
A36
330
1A
100
AcDbEntity
  8
GUIDE
100
AcDbLine
 10
-95.5
 20
40.74
 30
0.0
 11
-95.5
 21
33.22
 31
0.0
  0
LINE
  5
A37
330
1A
100
AcDbEntity
  8
GUIDE
100
AcDbLine
 10
-74.5
 20
40.74
 30
0.0
 11
-74.5
 21
33.22
 31
0.0
  0
LINE
  5
A38
330
1A
100
AcDbEntity
  8
GUIDE
100
AcDbLine
 10
-74.5
 20
14.42
 30
0.0
 11
-74.5
 21
6.9
 31
0.0
  0
LINE
  5
A39
330
1A
100
AcDbEntity
  8
GUIDE
100
AcDbLine
 10
-127.0
 20
3.1
 30
0.0
 11
-148.0
 21
3.1
 31
0.0
  0
LINE
  5
A3A
330
1A
100
AcDbEntity
  8
GUIDE
100
AcDbLine
 10
-127.0
 20
-4.42
 30
0.0
 11
-148.0
 21
-4.42
 31
0.0
  0
LINE
  5
A3B
330
1A
100
AcDbEntity
  8
GUIDE
100
AcDbLine
 10
-127.0
 20
21.9
 30
0.0
 11
-148.0
 21
21.9
 31
0.0
  0
LINE
  5
A3C
330
1A
100
AcDbEntity
  8
GUIDE
100
AcDbLine
 10
-127.0
 20
29.42
 30
0.0
 11
-148.0
 21
29.42
 31
0.0
  0
LINE
  5
A3D
330
1A
100
AcDbEntity
  8
GUIDE
100
AcDbLine
 10
-148.0
 20
-4.42
 30
0.0
 11
-148.0
 21
3.1
 31
0.0
  0
LINE
  5
A3E
330
1A
100
AcDbEntity
  8
GUIDE
100
AcDbLine
 10
-148.0
 20
21.9
 30
0.0
 11
-148.0
 21
29.42
 31
0.0
  0
LINE
  5
A3F
330
1A
100
AcDbEntity
  8
GUIDE
100
AcDbLine
 10
-134.5
 20
44.5
 30
0.0
 11
-134.5
 21
29.42
 31
0.0
  0
LINE
  5
A40
330
1A
100
AcDbEntity
  8
GUIDE
100
AcDbLine
 10
-140.5
 20
44.5
 30
0.0
 11
-140.5
 21
29.42
 31
0.0
  0
LINE
  5
A41
330
1A
100
AcDbEntity
  8
GUIDE
100
AcDbLine
 10
-134.5
 20
18.14
 30
0.0
 11
-140.5
 21
18.14
 31
0.0
  0
LINE
  5
A42
330
1A
100
AcDbEntity
  8
GUIDE
100
AcDbLine
 10
-127.0
 20
-4.42
 30
0.0
 11
-127.0
 21
3.1
 31
0.0
  0
LINE
  5
A43
330
1A
100
AcDbEntity
  8
GUIDE
100
AcDbLine
 10
-127.0
 20
21.9
 30
0.0
 11
-127.0
 21
29.42
 31
0.0
  0
LINE
  5
A44
330
1A
100
AcDbEntity
  8
GUIDE
100
AcDbLine
 10
-140.5
 20
21.9
 30
0.0
 11
-140.5
 21
3.1
 31
0.0
  0
LINE
  5
A45
330
1A
100
AcDbEntity
  8
GUIDE
100
AcDbLine
 10
-134.5
 20
21.9
 30
0.0
 11
-134.5
 21
3.1
 31
0.0
  0
LINE
  5
A46
330
1A
100
AcDbEntity
  8
GUIDE
100
AcDbLine
 10
-134.5
 20
-4.42
 30
0.0
 11
-134.5
 21
-8.0
 31
0.0
  0
LINE
  5
A47
330
1A
100
AcDbEntity
  8
GUIDE
100
AcDbLine
 10
-140.5
 20
-4.42
 30
0.0
 11
-140.5
 21
-8.0
 31
0.0
  0
LINE
  5
A48
330
1A
100
AcDbEntity
  8
GUIDE
100
AcDbLine
 10
-117.0
 20
40.74
 30
0.0
 11
-117.0
 21
44.5
 31
0.0
  0
LINE
  5
A49
330
1A
100
AcDbEntity
  8
GUIDE
100
AcDbLine
 10
-123.0
 20
40.74
 30
0.0
 11
-123.0
 21
44.5
 31
0.0
  0
LINE
  5
A4A
330
1A
100
AcDbEntity
  8
GUIDE
100
AcDbLine
 10
-123.0
 20
14.42
 30
0.0
 11
-123.0
 21
33.22
 31
0.0
  0
LINE
  5
A4B
330
1A
100
AcDbEntity
  8
GUIDE
100
AcDbLine
 10
-117.0
 20
14.42
 30
0.0
 11
-117.0
 21
33.22
 31
0.0
  0
LINE
  5
A4C
330
1A
100
AcDbEntity
  8
GUIDE
100
AcDbLine
 10
-117.0
 20
-8.0
 30
0.0
 11
-117.0
 21
6.9
 31
0.0
  0
LINE
  5
A4D
330
1A
100
AcDbEntity
  8
GUIDE
100
AcDbLine
 10
-123.0
 20
-8.0
 30
0.0
 11
-123.0
 21
6.9
 31
0.0
  0
LINE
  5
A4E
330
1A
100
AcDbEntity
  8
GUIDE
100
AcDbLine
 10
-130.5
 20
14.42
 30
0.0
 11
-130.5
 21
6.9
 31
0.0
  0
LINE
  5
A4F
330
1A
100
AcDbEntity
  8
GUIDE
100
AcDbLine
 10
-109.5
 20
14.42
 30
0.0
 11
-130.5
 21
14.42
 31
0.0
  0
LINE
  5
A50
330
1A
100
AcDbEntity
  8
GUIDE
100
AcDbLine
 10
-109.5
 20
6.9
 30
0.0
 11
-130.5
 21
6.9
 31
0.0
  0
LINE
  5
A51
330
1A
100
AcDbEntity
  8
GUIDE
100
AcDbLine
 10
-117.0
 20
18.18
 30
0.0
 11
-123.0
 21
18.18
 31
0.0
  0
LINE
  5
A52
330
1A
100
AcDbEntity
  8
GUIDE
100
AcDbLine
 10
-109.5
 20
33.22
 30
0.0
 11
-130.5
 21
33.22
 31
0.0
  0
LINE
  5
A53
330
1A
100
AcDbEntity
  8
GUIDE
100
AcDbLine
 10
-109.5
 20
40.74
 30
0.0
 11
-130.5
 21
40.74
 31
0.0
  0
LINE
  5
A54
330
1A
100
AcDbEntity
  8
GUIDE
100
AcDbLine
 10
-130.5
 20
40.74
 30
0.0
 11
-130.5
 21
33.22
 31
0.0
  0
LINE
  5
A55
330
1A
100
AcDbEntity
  8
GUIDE
100
AcDbLine
 10
-109.5
 20
40.74
 30
0.0
 11
-109.5
 21
33.22
 31
0.0
  0
LINE
  5
A56
330
1A
100
AcDbEntity
  8
GUIDE
100
AcDbLine
 10
-109.5
 20
14.42
 30
0.0
 11
-109.5
 21
6.9
 31
0.0
  0
LINE
  5
A57
330
1A
100
AcDbEntity
  8
GUIDE
100
AcDbLine
 10
-162.0
 20
3.1
 30
0.0
 11
-183.0
 21
3.1
 31
0.0
  0
LINE
  5
A58
330
1A
100
AcDbEntity
  8
GUIDE
100
AcDbLine
 10
-162.0
 20
-4.42
 30
0.0
 11
-183.0
 21
-4.42
 31
0.0
  0
LINE
  5
A59
330
1A
100
AcDbEntity
  8
GUIDE
100
AcDbLine
 10
-162.0
 20
21.9
 30
0.0
 11
-183.0
 21
21.9
 31
0.0
  0
LINE
  5
A5A
330
1A
100
AcDbEntity
  8
GUIDE
100
AcDbLine
 10
-162.0
 20
29.42
 30
0.0
 11
-183.0
 21
29.42
 31
0.0
  0
LINE
  5
A5B
330
1A
100
AcDbEntity
  8
GUIDE
100
AcDbLine
 10
-183.0
 20
-4.42
 30
0.0
 11
-183.0
 21
3.1
 31
0.0
  0
LINE
  5
A5C
330
1A
100
AcDbEntity
  8
GUIDE
100
AcDbLine
 10
-183.0
 20
21.9
 30
0.0
 11
-183.0
 21
29.42
 31
0.0
  0
LINE
  5
A5D
330
1A
100
AcDbEntity
  8
GUIDE
100
AcDbLine
 10
-169.5
 20
44.5
 30
0.0
 11
-169.5
 21
29.42
 31
0.0
  0
LINE
  5
A5E
330
1A
100
AcDbEntity
  8
GUIDE
100
AcDbLine
 10
-175.5
 20
44.5
 30
0.0
 11
-175.5
 21
29.42
 31
0.0
  0
LINE
  5
A5F
330
1A
100
AcDbEntity
  8
GUIDE
100
AcDbLine
 10
-169.5
 20
18.14
 30
0.0
 11
-175.5
 21
18.14
 31
0.0
  0
LINE
  5
A60
330
1A
100
AcDbEntity
  8
GUIDE
100
AcDbLine
 10
-162.0
 20
-4.42
 30
0.0
 11
-162.0
 21
3.1
 31
0.0
  0
LINE
  5
A61
330
1A
100
AcDbEntity
  8
GUIDE
100
AcDbLine
 10
-162.0
 20
21.9
 30
0.0
 11
-162.0
 21
29.42
 31
0.0
  0
LINE
  5
A62
330
1A
100
AcDbEntity
  8
GUIDE
100
AcDbLine
 10
-175.5
 20
21.9
 30
0.0
 11
-175.5
 21
3.1
 31
0.0
  0
LINE
  5
A63
330
1A
100
AcDbEntity
  8
GUIDE
100
AcDbLine
 10
-169.5
 20
21.9
 30
0.0
 11
-169.5
 21
3.1
 31
0.0
  0
LINE
  5
A64
330
1A
100
AcDbEntity
  8
GUIDE
100
AcDbLine
 10
-169.5
 20
-4.42
 30
0.0
 11
-169.5
 21
-8.0
 31
0.0
  0
LINE
  5
A65
330
1A
100
AcDbEntity
  8
GUIDE
100
AcDbLine
 10
-175.5
 20
-4.42
 30
0.0
 11
-175.5
 21
-8.0
 31
0.0
  0
LINE
  5
A66
330
1A
100
AcDbEntity
  8
GUIDE
100
AcDbLine
 10
-152.0
 20
40.74
 30
0.0
 11
-152.0
 21
44.5
 31
0.0
  0
LINE
  5
A67
330
1A
100
AcDbEntity
  8
GUIDE
100
AcDbLine
 10
-158.0
 20
40.74
 30
0.0
 11
-158.0
 21
44.5
 31
0.0
  0
LINE
  5
A68
330
1A
100
AcDbEntity
  8
GUIDE
100
AcDbLine
 10
-158.0
 20
14.42
 30
0.0
 11
-158.0
 21
33.22
 31
0.0
  0
LINE
  5
A69
330
1A
100
AcDbEntity
  8
GUIDE
100
AcDbLine
 10
-152.0
 20
14.42
 30
0.0
 11
-152.0
 21
33.22
 31
0.0
  0
LINE
  5
A6A
330
1A
100
AcDbEntity
  8
GUIDE
100
AcDbLine
 10
-152.0
 20
-8.0
 30
0.0
 11
-152.0
 21
6.9
 31
0.0
  0
LINE
  5
A6B
330
1A
100
AcDbEntity
  8
GUIDE
100
AcDbLine
 10
-158.0
 20
-8.0
 30
0.0
 11
-158.0
 21
6.9
 31
0.0
  0
LINE
  5
A6C
330
1A
100
AcDbEntity
  8
GUIDE
100
AcDbLine
 10
-165.5
 20
14.42
 30
0.0
 11
-165.5
 21
6.9
 31
0.0
  0
LINE
  5
A6D
330
1A
100
AcDbEntity
  8
GUIDE
100
AcDbLine
 10
-144.5
 20
14.42
 30
0.0
 11
-165.5
 21
14.42
 31
0.0
  0
LINE
  5
A6E
330
1A
100
AcDbEntity
  8
GUIDE
100
AcDbLine
 10
-144.5
 20
6.9
 30
0.0
 11
-165.5
 21
6.9
 31
0.0
  0
LINE
  5
A6F
330
1A
100
AcDbEntity
  8
GUIDE
100
AcDbLine
 10
-152.0
 20
18.18
 30
0.0
 11
-158.0
 21
18.18
 31
0.0
  0
LINE
  5
A70
330
1A
100
AcDbEntity
  8
GUIDE
100
AcDbLine
 10
-144.5
 20
33.22
 30
0.0
 11
-165.5
 21
33.22
 31
0.0
  0
LINE
  5
A71
330
1A
100
AcDbEntity
  8
GUIDE
100
AcDbLine
 10
-144.5
 20
40.74
 30
0.0
 11
-165.5
 21
40.74
 31
0.0
  0
LINE
  5
A72
330
1A
100
AcDbEntity
  8
GUIDE
100
AcDbLine
 10
-165.5
 20
40.74
 30
0.0
 11
-165.5
 21
33.22
 31
0.0
  0
LINE
  5
A73
330
1A
100
AcDbEntity
  8
GUIDE
100
AcDbLine
 10
-144.5
 20
40.74
 30
0.0
 11
-144.5
 21
33.22
 31
0.0
  0
LINE
  5
A74
330
1A
100
AcDbEntity
  8
GUIDE
100
AcDbLine
 10
-144.5
 20
14.42
 30
0.0
 11
-144.5
 21
6.9
 31
0.0
  0
LINE
  5
A75
330
1A
100
AcDbEntity
  8
GUIDE
100
AcDbLine
 10
-197.0
 20
3.1
 30
0.0
 11
-218.0
 21
3.1
 31
0.0
  0
LINE
  5
A76
330
1A
100
AcDbEntity
  8
GUIDE
100
AcDbLine
 10
-197.0
 20
-4.42
 30
0.0
 11
-218.0
 21
-4.42
 31
0.0
  0
LINE
  5
A77
330
1A
100
AcDbEntity
  8
GUIDE
100
AcDbLine
 10
-197.0
 20
21.9
 30
0.0
 11
-218.0
 21
21.9
 31
0.0
  0
LINE
  5
A78
330
1A
100
AcDbEntity
  8
GUIDE
100
AcDbLine
 10
-197.0
 20
29.42
 30
0.0
 11
-218.0
 21
29.42
 31
0.0
  0
LINE
  5
A79
330
1A
100
AcDbEntity
  8
GUIDE
100
AcDbLine
 10
-218.0
 20
-4.42
 30
0.0
 11
-218.0
 21
3.1
 31
0.0
  0
LINE
  5
A7A
330
1A
100
AcDbEntity
  8
GUIDE
100
AcDbLine
 10
-218.0
 20
21.9
 30
0.0
 11
-218.0
 21
29.42
 31
0.0
  0
LINE
  5
A7B
330
1A
100
AcDbEntity
  8
GUIDE
100
AcDbLine
 10
-204.5
 20
44.5
 30
0.0
 11
-204.5
 21
29.42
 31
0.0
  0
LINE
  5
A7C
330
1A
100
AcDbEntity
  8
GUIDE
100
AcDbLine
 10
-210.5
 20
44.5
 30
0.0
 11
-210.5
 21
29.42
 31
0.0
  0
LINE
  5
A7D
330
1A
100
AcDbEntity
  8
GUIDE
100
AcDbLine
 10
-204.5
 20
18.14
 30
0.0
 11
-210.5
 21
18.14
 31
0.0
  0
LINE
  5
A7E
330
1A
100
AcDbEntity
  8
GUIDE
100
AcDbLine
 10
-197.0
 20
-4.42
 30
0.0
 11
-197.0
 21
3.1
 31
0.0
  0
LINE
  5
A7F
330
1A
100
AcDbEntity
  8
GUIDE
100
AcDbLine
 10
-197.0
 20
21.9
 30
0.0
 11
-197.0
 21
29.42
 31
0.0
  0
LINE
  5
A80
330
1A
100
AcDbEntity
  8
GUIDE
100
AcDbLine
 10
-210.5
 20
21.9
 30
0.0
 11
-210.5
 21
3.1
 31
0.0
  0
LINE
  5
A81
330
1A
100
AcDbEntity
  8
GUIDE
100
AcDbLine
 10
-204.5
 20
21.9
 30
0.0
 11
-204.5
 21
3.1
 31
0.0
  0
LINE
  5
A82
330
1A
100
AcDbEntity
  8
GUIDE
100
AcDbLine
 10
-204.5
 20
-4.42
 30
0.0
 11
-204.5
 21
-8.0
 31
0.0
  0
LINE
  5
A83
330
1A
100
AcDbEntity
  8
GUIDE
100
AcDbLine
 10
-210.5
 20
-4.42
 30
0.0
 11
-210.5
 21
-8.0
 31
0.0
  0
LINE
  5
A84
330
1A
100
AcDbEntity
  8
GUIDE
100
AcDbLine
 10
-187.0
 20
40.74
 30
0.0
 11
-187.0
 21
44.5
 31
0.0
  0
LINE
  5
A85
330
1A
100
AcDbEntity
  8
GUIDE
100
AcDbLine
 10
-193.0
 20
40.74
 30
0.0
 11
-193.0
 21
44.5
 31
0.0
  0
LINE
  5
A86
330
1A
100
AcDbEntity
  8
GUIDE
100
AcDbLine
 10
-193.0
 20
14.42
 30
0.0
 11
-193.0
 21
33.22
 31
0.0
  0
LINE
  5
A87
330
1A
100
AcDbEntity
  8
GUIDE
100
AcDbLine
 10
-187.0
 20
14.42
 30
0.0
 11
-187.0
 21
33.22
 31
0.0
  0
LINE
  5
A88
330
1A
100
AcDbEntity
  8
GUIDE
100
AcDbLine
 10
-187.0
 20
-8.0
 30
0.0
 11
-187.0
 21
6.9
 31
0.0
  0
LINE
  5
A89
330
1A
100
AcDbEntity
  8
GUIDE
100
AcDbLine
 10
-193.0
 20
-8.0
 30
0.0
 11
-193.0
 21
6.9
 31
0.0
  0
LINE
  5
A8A
330
1A
100
AcDbEntity
  8
GUIDE
100
AcDbLine
 10
-200.5
 20
14.42
 30
0.0
 11
-200.5
 21
6.9
 31
0.0
  0
LINE
  5
A8B
330
1A
100
AcDbEntity
  8
GUIDE
100
AcDbLine
 10
-179.5
 20
14.42
 30
0.0
 11
-200.5
 21
14.42
 31
0.0
  0
LINE
  5
A8C
330
1A
100
AcDbEntity
  8
GUIDE
100
AcDbLine
 10
-179.5
 20
6.9
 30
0.0
 11
-200.5
 21
6.9
 31
0.0
  0
LINE
  5
A8D
330
1A
100
AcDbEntity
  8
GUIDE
100
AcDbLine
 10
-187.0
 20
18.18
 30
0.0
 11
-193.0
 21
18.18
 31
0.0
  0
LINE
  5
A8E
330
1A
100
AcDbEntity
  8
GUIDE
100
AcDbLine
 10
-179.5
 20
33.22
 30
0.0
 11
-200.5
 21
33.22
 31
0.0
  0
LINE
  5
A8F
330
1A
100
AcDbEntity
  8
GUIDE
100
AcDbLine
 10
-179.5
 20
40.74
 30
0.0
 11
-200.5
 21
40.74
 31
0.0
  0
LINE
  5
A90
330
1A
100
AcDbEntity
  8
GUIDE
100
AcDbLine
 10
-200.5
 20
40.74
 30
0.0
 11
-200.5
 21
33.22
 31
0.0
  0
LINE
  5
A91
330
1A
100
AcDbEntity
  8
GUIDE
100
AcDbLine
 10
-179.5
 20
40.74
 30
0.0
 11
-179.5
 21
33.22
 31
0.0
  0
LINE
  5
A92
330
1A
100
AcDbEntity
  8
GUIDE
100
AcDbLine
 10
-179.5
 20
14.42
 30
0.0
 11
-179.5
 21
6.9
 31
0.0
  0
LINE
  5
A93
330
1A
100
AcDbEntity
  8
GUIDE
100
AcDbLine
 10
-232.0
 20
3.1
 30
0.0
 11
-253.0
 21
3.1
 31
0.0
  0
LINE
  5
A94
330
1A
100
AcDbEntity
  8
GUIDE
100
AcDbLine
 10
-232.0
 20
-4.42
 30
0.0
 11
-253.0
 21
-4.42
 31
0.0
  0
LINE
  5
A95
330
1A
100
AcDbEntity
  8
GUIDE
100
AcDbLine
 10
-232.0
 20
21.9
 30
0.0
 11
-253.0
 21
21.9
 31
0.0
  0
LINE
  5
A96
330
1A
100
AcDbEntity
  8
GUIDE
100
AcDbLine
 10
-232.0
 20
29.42
 30
0.0
 11
-253.0
 21
29.42
 31
0.0
  0
LINE
  5
A97
330
1A
100
AcDbEntity
  8
GUIDE
100
AcDbLine
 10
-253.0
 20
-4.42
 30
0.0
 11
-253.0
 21
3.1
 31
0.0
  0
LINE
  5
A98
330
1A
100
AcDbEntity
  8
GUIDE
100
AcDbLine
 10
-253.0
 20
21.9
 30
0.0
 11
-253.0
 21
29.42
 31
0.0
  0
LINE
  5
A99
330
1A
100
AcDbEntity
  8
GUIDE
100
AcDbLine
 10
-239.5
 20
44.5
 30
0.0
 11
-239.5
 21
29.42
 31
0.0
  0
LINE
  5
A9A
330
1A
100
AcDbEntity
  8
GUIDE
100
AcDbLine
 10
-245.5
 20
44.5
 30
0.0
 11
-245.5
 21
29.42
 31
0.0
  0
LINE
  5
A9B
330
1A
100
AcDbEntity
  8
GUIDE
100
AcDbLine
 10
-239.5
 20
18.14
 30
0.0
 11
-245.5
 21
18.14
 31
0.0
  0
LINE
  5
A9C
330
1A
100
AcDbEntity
  8
GUIDE
100
AcDbLine
 10
-232.0
 20
-4.42
 30
0.0
 11
-232.0
 21
3.1
 31
0.0
  0
LINE
  5
A9D
330
1A
100
AcDbEntity
  8
GUIDE
100
AcDbLine
 10
-232.0
 20
21.9
 30
0.0
 11
-232.0
 21
29.42
 31
0.0
  0
LINE
  5
A9E
330
1A
100
AcDbEntity
  8
GUIDE
100
AcDbLine
 10
-245.5
 20
21.9
 30
0.0
 11
-245.5
 21
3.1
 31
0.0
  0
LINE
  5
A9F
330
1A
100
AcDbEntity
  8
GUIDE
100
AcDbLine
 10
-239.5
 20
21.9
 30
0.0
 11
-239.5
 21
3.1
 31
0.0
  0
LINE
  5
AA0
330
1A
100
AcDbEntity
  8
GUIDE
100
AcDbLine
 10
-239.5
 20
-4.42
 30
0.0
 11
-239.5
 21
-8.0
 31
0.0
  0
LINE
  5
AA1
330
1A
100
AcDbEntity
  8
GUIDE
100
AcDbLine
 10
-245.5
 20
-4.42
 30
0.0
 11
-245.5
 21
-8.0
 31
0.0
  0
LINE
  5
AA2
330
1A
100
AcDbEntity
  8
GUIDE
100
AcDbLine
 10
-222.0
 20
40.74
 30
0.0
 11
-222.0
 21
44.5
 31
0.0
  0
LINE
  5
AA3
330
1A
100
AcDbEntity
  8
GUIDE
100
AcDbLine
 10
-228.0
 20
40.74
 30
0.0
 11
-228.0
 21
44.5
 31
0.0
  0
LINE
  5
AA4
330
1A
100
AcDbEntity
  8
GUIDE
100
AcDbLine
 10
-228.0
 20
14.42
 30
0.0
 11
-228.0
 21
33.22
 31
0.0
  0
LINE
  5
AA5
330
1A
100
AcDbEntity
  8
GUIDE
100
AcDbLine
 10
-222.0
 20
14.42
 30
0.0
 11
-222.0
 21
33.22
 31
0.0
  0
LINE
  5
AA6
330
1A
100
AcDbEntity
  8
GUIDE
100
AcDbLine
 10
-222.0
 20
-8.0
 30
0.0
 11
-222.0
 21
6.9
 31
0.0
  0
LINE
  5
AA7
330
1A
100
AcDbEntity
  8
GUIDE
100
AcDbLine
 10
-228.0
 20
-8.0
 30
0.0
 11
-228.0
 21
6.9
 31
0.0
  0
LINE
  5
AA8
330
1A
100
AcDbEntity
  8
GUIDE
100
AcDbLine
 10
-235.5
 20
14.42
 30
0.0
 11
-235.5
 21
6.9
 31
0.0
  0
LINE
  5
AA9
330
1A
100
AcDbEntity
  8
GUIDE
100
AcDbLine
 10
-214.5
 20
14.42
 30
0.0
 11
-235.5
 21
14.42
 31
0.0
  0
LINE
  5
AAA
330
1A
100
AcDbEntity
  8
GUIDE
100
AcDbLine
 10
-214.5
 20
6.9
 30
0.0
 11
-235.5
 21
6.9
 31
0.0
  0
LINE
  5
AAB
330
1A
100
AcDbEntity
  8
GUIDE
100
AcDbLine
 10
-222.0
 20
18.18
 30
0.0
 11
-228.0
 21
18.18
 31
0.0
  0
LINE
  5
AAC
330
1A
100
AcDbEntity
  8
GUIDE
100
AcDbLine
 10
-214.5
 20
33.22
 30
0.0
 11
-235.5
 21
33.22
 31
0.0
  0
LINE
  5
AAD
330
1A
100
AcDbEntity
  8
GUIDE
100
AcDbLine
 10
-214.5
 20
40.74
 30
0.0
 11
-235.5
 21
40.74
 31
0.0
  0
LINE
  5
AAE
330
1A
100
AcDbEntity
  8
GUIDE
100
AcDbLine
 10
-235.5
 20
40.74
 30
0.0
 11
-235.5
 21
33.22
 31
0.0
  0
LINE
  5
AAF
330
1A
100
AcDbEntity
  8
GUIDE
100
AcDbLine
 10
-214.5
 20
40.74
 30
0.0
 11
-214.5
 21
33.22
 31
0.0
  0
LINE
  5
AB0
330
1A
100
AcDbEntity
  8
GUIDE
100
AcDbLine
 10
-214.5
 20
14.42
 30
0.0
 11
-214.5
 21
6.9
 31
0.0
  0
LINE
  5
AB1
330
1A
100
AcDbEntity
  8
GUIDE
100
AcDbLine
 10
-267.0
 20
3.1
 30
0.0
 11
-288.0
 21
3.1
 31
0.0
  0
LINE
  5
AB2
330
1A
100
AcDbEntity
  8
GUIDE
100
AcDbLine
 10
-267.0
 20
-4.42
 30
0.0
 11
-288.0
 21
-4.42
 31
0.0
  0
LINE
  5
AB3
330
1A
100
AcDbEntity
  8
GUIDE
100
AcDbLine
 10
-267.0
 20
21.9
 30
0.0
 11
-288.0
 21
21.9
 31
0.0
  0
LINE
  5
AB4
330
1A
100
AcDbEntity
  8
GUIDE
100
AcDbLine
 10
-267.0
 20
29.42
 30
0.0
 11
-288.0
 21
29.42
 31
0.0
  0
LINE
  5
AB5
330
1A
100
AcDbEntity
  8
GUIDE
100
AcDbLine
 10
-288.0
 20
-4.42
 30
0.0
 11
-288.0
 21
3.1
 31
0.0
  0
LINE
  5
AB6
330
1A
100
AcDbEntity
  8
GUIDE
100
AcDbLine
 10
-288.0
 20
21.9
 30
0.0
 11
-288.0
 21
29.42
 31
0.0
  0
LINE
  5
AB7
330
1A
100
AcDbEntity
  8
GUIDE
100
AcDbLine
 10
-274.5
 20
44.5
 30
0.0
 11
-274.5
 21
29.42
 31
0.0
  0
LINE
  5
AB8
330
1A
100
AcDbEntity
  8
GUIDE
100
AcDbLine
 10
-280.5
 20
44.5
 30
0.0
 11
-280.5
 21
29.42
 31
0.0
  0
LINE
  5
AB9
330
1A
100
AcDbEntity
  8
GUIDE
100
AcDbLine
 10
-274.5
 20
18.14
 30
0.0
 11
-280.5
 21
18.14
 31
0.0
  0
LINE
  5
ABA
330
1A
100
AcDbEntity
  8
GUIDE
100
AcDbLine
 10
-267.0
 20
-4.42
 30
0.0
 11
-267.0
 21
3.1
 31
0.0
  0
LINE
  5
ABB
330
1A
100
AcDbEntity
  8
GUIDE
100
AcDbLine
 10
-267.0
 20
21.9
 30
0.0
 11
-267.0
 21
29.42
 31
0.0
  0
LINE
  5
ABC
330
1A
100
AcDbEntity
  8
GUIDE
100
AcDbLine
 10
-280.5
 20
21.9
 30
0.0
 11
-280.5
 21
3.1
 31
0.0
  0
LINE
  5
ABD
330
1A
100
AcDbEntity
  8
GUIDE
100
AcDbLine
 10
-274.5
 20
21.9
 30
0.0
 11
-274.5
 21
3.1
 31
0.0
  0
LINE
  5
ABE
330
1A
100
AcDbEntity
  8
GUIDE
100
AcDbLine
 10
-274.5
 20
-4.42
 30
0.0
 11
-274.5
 21
-8.0
 31
0.0
  0
LINE
  5
ABF
330
1A
100
AcDbEntity
  8
GUIDE
100
AcDbLine
 10
-280.5
 20
-4.42
 30
0.0
 11
-280.5
 21
-8.0
 31
0.0
  0
LINE
  5
AC0
330
1A
100
AcDbEntity
  8
GUIDE
100
AcDbLine
 10
-257.0
 20
40.74
 30
0.0
 11
-257.0
 21
44.5
 31
0.0
  0
LINE
  5
AC1
330
1A
100
AcDbEntity
  8
GUIDE
100
AcDbLine
 10
-263.0
 20
40.74
 30
0.0
 11
-263.0
 21
44.5
 31
0.0
  0
LINE
  5
AC2
330
1A
100
AcDbEntity
  8
GUIDE
100
AcDbLine
 10
-263.0
 20
14.42
 30
0.0
 11
-263.0
 21
33.22
 31
0.0
  0
LINE
  5
AC3
330
1A
100
AcDbEntity
  8
GUIDE
100
AcDbLine
 10
-257.0
 20
14.42
 30
0.0
 11
-257.0
 21
33.22
 31
0.0
  0
LINE
  5
AC4
330
1A
100
AcDbEntity
  8
GUIDE
100
AcDbLine
 10
-257.0
 20
-8.0
 30
0.0
 11
-257.0
 21
6.9
 31
0.0
  0
LINE
  5
AC5
330
1A
100
AcDbEntity
  8
GUIDE
100
AcDbLine
 10
-263.0
 20
-8.0
 30
0.0
 11
-263.0
 21
6.9
 31
0.0
  0
LINE
  5
AC6
330
1A
100
AcDbEntity
  8
GUIDE
100
AcDbLine
 10
-270.5
 20
14.42
 30
0.0
 11
-270.5
 21
6.9
 31
0.0
  0
LINE
  5
AC7
330
1A
100
AcDbEntity
  8
GUIDE
100
AcDbLine
 10
-249.5
 20
14.42
 30
0.0
 11
-270.5
 21
14.42
 31
0.0
  0
LINE
  5
AC8
330
1A
100
AcDbEntity
  8
GUIDE
100
AcDbLine
 10
-249.5
 20
6.9
 30
0.0
 11
-270.5
 21
6.9
 31
0.0
  0
LINE
  5
AC9
330
1A
100
AcDbEntity
  8
GUIDE
100
AcDbLine
 10
-257.0
 20
18.18
 30
0.0
 11
-263.0
 21
18.18
 31
0.0
  0
LINE
  5
ACA
330
1A
100
AcDbEntity
  8
GUIDE
100
AcDbLine
 10
-249.5
 20
33.22
 30
0.0
 11
-270.5
 21
33.22
 31
0.0
  0
LINE
  5
ACB
330
1A
100
AcDbEntity
  8
GUIDE
100
AcDbLine
 10
-249.5
 20
40.74
 30
0.0
 11
-270.5
 21
40.74
 31
0.0
  0
LINE
  5
ACC
330
1A
100
AcDbEntity
  8
GUIDE
100
AcDbLine
 10
-270.5
 20
40.74
 30
0.0
 11
-270.5
 21
33.22
 31
0.0
  0
LINE
  5
ACD
330
1A
100
AcDbEntity
  8
GUIDE
100
AcDbLine
 10
-249.5
 20
40.74
 30
0.0
 11
-249.5
 21
33.22
 31
0.0
  0
LINE
  5
ACE
330
1A
100
AcDbEntity
  8
GUIDE
100
AcDbLine
 10
-249.5
 20
14.42
 30
0.0
 11
-249.5
 21
6.9
 31
0.0
  0
LINE
  5
ACF
330
1A
100
AcDbEntity
  8
GUIDE
100
AcDbLine
 10
-302.0
 20
3.1
 30
0.0
 11
-323.0
 21
3.1
 31
0.0
  0
LINE
  5
AD0
330
1A
100
AcDbEntity
  8
GUIDE
100
AcDbLine
 10
-302.0
 20
-4.42
 30
0.0
 11
-323.0
 21
-4.42
 31
0.0
  0
LINE
  5
AD1
330
1A
100
AcDbEntity
  8
GUIDE
100
AcDbLine
 10
-302.0
 20
21.9
 30
0.0
 11
-323.0
 21
21.9
 31
0.0
  0
LINE
  5
AD2
330
1A
100
AcDbEntity
  8
GUIDE
100
AcDbLine
 10
-302.0
 20
29.42
 30
0.0
 11
-323.0
 21
29.42
 31
0.0
  0
LINE
  5
AD3
330
1A
100
AcDbEntity
  8
GUIDE
100
AcDbLine
 10
-323.0
 20
-4.42
 30
0.0
 11
-323.0
 21
3.1
 31
0.0
  0
LINE
  5
AD4
330
1A
100
AcDbEntity
  8
GUIDE
100
AcDbLine
 10
-323.0
 20
21.9
 30
0.0
 11
-323.0
 21
29.42
 31
0.0
  0
LINE
  5
AD5
330
1A
100
AcDbEntity
  8
GUIDE
100
AcDbLine
 10
-309.5
 20
44.5
 30
0.0
 11
-309.5
 21
29.42
 31
0.0
  0
LINE
  5
AD6
330
1A
100
AcDbEntity
  8
GUIDE
100
AcDbLine
 10
-315.5
 20
44.5
 30
0.0
 11
-315.5
 21
29.42
 31
0.0
  0
LINE
  5
AD7
330
1A
100
AcDbEntity
  8
GUIDE
100
AcDbLine
 10
-309.5
 20
18.14
 30
0.0
 11
-315.5
 21
18.14
 31
0.0
  0
LINE
  5
AD8
330
1A
100
AcDbEntity
  8
GUIDE
100
AcDbLine
 10
-302.0
 20
-4.42
 30
0.0
 11
-302.0
 21
3.1
 31
0.0
  0
LINE
  5
AD9
330
1A
100
AcDbEntity
  8
GUIDE
100
AcDbLine
 10
-302.0
 20
21.9
 30
0.0
 11
-302.0
 21
29.42
 31
0.0
  0
LINE
  5
ADA
330
1A
100
AcDbEntity
  8
GUIDE
100
AcDbLine
 10
-315.5
 20
21.9
 30
0.0
 11
-315.5
 21
3.1
 31
0.0
  0
LINE
  5
ADB
330
1A
100
AcDbEntity
  8
GUIDE
100
AcDbLine
 10
-309.5
 20
21.9
 30
0.0
 11
-309.5
 21
3.1
 31
0.0
  0
LINE
  5
ADC
330
1A
100
AcDbEntity
  8
GUIDE
100
AcDbLine
 10
-309.5
 20
-4.42
 30
0.0
 11
-309.5
 21
-8.0
 31
0.0
  0
LINE
  5
ADD
330
1A
100
AcDbEntity
  8
GUIDE
100
AcDbLine
 10
-315.5
 20
-4.42
 30
0.0
 11
-315.5
 21
-8.0
 31
0.0
  0
LINE
  5
ADE
330
1A
100
AcDbEntity
  8
GUIDE
100
AcDbLine
 10
-292.0
 20
40.74
 30
0.0
 11
-292.0
 21
44.5
 31
0.0
  0
LINE
  5
ADF
330
1A
100
AcDbEntity
  8
GUIDE
100
AcDbLine
 10
-298.0
 20
40.74
 30
0.0
 11
-298.0
 21
44.5
 31
0.0
  0
LINE
  5
AE0
330
1A
100
AcDbEntity
  8
GUIDE
100
AcDbLine
 10
-298.0
 20
14.42
 30
0.0
 11
-298.0
 21
33.22
 31
0.0
  0
LINE
  5
AE1
330
1A
100
AcDbEntity
  8
GUIDE
100
AcDbLine
 10
-292.0
 20
14.42
 30
0.0
 11
-292.0
 21
33.22
 31
0.0
  0
LINE
  5
AE2
330
1A
100
AcDbEntity
  8
GUIDE
100
AcDbLine
 10
-292.0
 20
-8.0
 30
0.0
 11
-292.0
 21
6.9
 31
0.0
  0
LINE
  5
AE3
330
1A
100
AcDbEntity
  8
GUIDE
100
AcDbLine
 10
-298.0
 20
-8.0
 30
0.0
 11
-298.0
 21
6.9
 31
0.0
  0
LINE
  5
AE4
330
1A
100
AcDbEntity
  8
GUIDE
100
AcDbLine
 10
-305.5
 20
14.42
 30
0.0
 11
-305.5
 21
6.9
 31
0.0
  0
LINE
  5
AE5
330
1A
100
AcDbEntity
  8
GUIDE
100
AcDbLine
 10
-284.5
 20
14.42
 30
0.0
 11
-305.5
 21
14.42
 31
0.0
  0
LINE
  5
AE6
330
1A
100
AcDbEntity
  8
GUIDE
100
AcDbLine
 10
-284.5
 20
6.9
 30
0.0
 11
-305.5
 21
6.9
 31
0.0
  0
LINE
  5
AE7
330
1A
100
AcDbEntity
  8
GUIDE
100
AcDbLine
 10
-292.0
 20
18.18
 30
0.0
 11
-298.0
 21
18.18
 31
0.0
  0
LINE
  5
AE8
330
1A
100
AcDbEntity
  8
GUIDE
100
AcDbLine
 10
-284.5
 20
33.22
 30
0.0
 11
-305.5
 21
33.22
 31
0.0
  0
LINE
  5
AE9
330
1A
100
AcDbEntity
  8
GUIDE
100
AcDbLine
 10
-284.5
 20
40.74
 30
0.0
 11
-305.5
 21
40.74
 31
0.0
  0
LINE
  5
AEA
330
1A
100
AcDbEntity
  8
GUIDE
100
AcDbLine
 10
-305.5
 20
40.74
 30
0.0
 11
-305.5
 21
33.22
 31
0.0
  0
LINE
  5
AEB
330
1A
100
AcDbEntity
  8
GUIDE
100
AcDbLine
 10
-284.5
 20
40.74
 30
0.0
 11
-284.5
 21
33.22
 31
0.0
  0
LINE
  5
AEC
330
1A
100
AcDbEntity
  8
GUIDE
100
AcDbLine
 10
-284.5
 20
14.42
 30
0.0
 11
-284.5
 21
6.9
 31
0.0
  0
LINE
  5
AED
330
1A
100
AcDbEntity
  8
GUIDE
100
AcDbLine
 10
-337.0
 20
3.1
 30
0.0
 11
-358.0
 21
3.1
 31
0.0
  0
LINE
  5
AEE
330
1A
100
AcDbEntity
  8
GUIDE
100
AcDbLine
 10
-337.0
 20
-4.42
 30
0.0
 11
-358.0
 21
-4.42
 31
0.0
  0
LINE
  5
AEF
330
1A
100
AcDbEntity
  8
GUIDE
100
AcDbLine
 10
-337.0
 20
21.9
 30
0.0
 11
-358.0
 21
21.9
 31
0.0
  0
LINE
  5
AF0
330
1A
100
AcDbEntity
  8
GUIDE
100
AcDbLine
 10
-337.0
 20
29.42
 30
0.0
 11
-358.0
 21
29.42
 31
0.0
  0
LINE
  5
AF1
330
1A
100
AcDbEntity
  8
GUIDE
100
AcDbLine
 10
-358.0
 20
-4.42
 30
0.0
 11
-358.0
 21
3.1
 31
0.0
  0
LINE
  5
AF2
330
1A
100
AcDbEntity
  8
GUIDE
100
AcDbLine
 10
-358.0
 20
21.9
 30
0.0
 11
-358.0
 21
29.42
 31
0.0
  0
LINE
  5
AF3
330
1A
100
AcDbEntity
  8
GUIDE
100
AcDbLine
 10
-344.5
 20
44.5
 30
0.0
 11
-344.5
 21
29.42
 31
0.0
  0
LINE
  5
AF4
330
1A
100
AcDbEntity
  8
GUIDE
100
AcDbLine
 10
-350.5
 20
44.5
 30
0.0
 11
-350.5
 21
29.42
 31
0.0
  0
LINE
  5
AF5
330
1A
100
AcDbEntity
  8
GUIDE
100
AcDbLine
 10
-344.5
 20
18.14
 30
0.0
 11
-350.5
 21
18.14
 31
0.0
  0
LINE
  5
AF6
330
1A
100
AcDbEntity
  8
GUIDE
100
AcDbLine
 10
-337.0
 20
-4.42
 30
0.0
 11
-337.0
 21
3.1
 31
0.0
  0
LINE
  5
AF7
330
1A
100
AcDbEntity
  8
GUIDE
100
AcDbLine
 10
-337.0
 20
21.9
 30
0.0
 11
-337.0
 21
29.42
 31
0.0
  0
LINE
  5
AF8
330
1A
100
AcDbEntity
  8
GUIDE
100
AcDbLine
 10
-350.5
 20
21.9
 30
0.0
 11
-350.5
 21
3.1
 31
0.0
  0
LINE
  5
AF9
330
1A
100
AcDbEntity
  8
GUIDE
100
AcDbLine
 10
-344.5
 20
21.9
 30
0.0
 11
-344.5
 21
3.1
 31
0.0
  0
LINE
  5
AFA
330
1A
100
AcDbEntity
  8
GUIDE
100
AcDbLine
 10
-344.5
 20
-4.42
 30
0.0
 11
-344.5
 21
-8.0
 31
0.0
  0
LINE
  5
AFB
330
1A
100
AcDbEntity
  8
GUIDE
100
AcDbLine
 10
-350.5
 20
-4.42
 30
0.0
 11
-350.5
 21
-8.0
 31
0.0
  0
LINE
  5
AFC
330
1A
100
AcDbEntity
  8
GUIDE
100
AcDbLine
 10
-327.0
 20
40.74
 30
0.0
 11
-327.0
 21
44.5
 31
0.0
  0
LINE
  5
AFD
330
1A
100
AcDbEntity
  8
GUIDE
100
AcDbLine
 10
-333.0
 20
40.74
 30
0.0
 11
-333.0
 21
44.5
 31
0.0
  0
LINE
  5
AFE
330
1A
100
AcDbEntity
  8
GUIDE
100
AcDbLine
 10
-333.0
 20
14.42
 30
0.0
 11
-333.0
 21
33.22
 31
0.0
  0
LINE
  5
AFF
330
1A
100
AcDbEntity
  8
GUIDE
100
AcDbLine
 10
-327.0
 20
14.42
 30
0.0
 11
-327.0
 21
33.22
 31
0.0
  0
LINE
  5
B00
330
1A
100
AcDbEntity
  8
GUIDE
100
AcDbLine
 10
-327.0
 20
-8.0
 30
0.0
 11
-327.0
 21
6.9
 31
0.0
  0
LINE
  5
B01
330
1A
100
AcDbEntity
  8
GUIDE
100
AcDbLine
 10
-333.0
 20
-8.0
 30
0.0
 11
-333.0
 21
6.9
 31
0.0
  0
LINE
  5
B02
330
1A
100
AcDbEntity
  8
GUIDE
100
AcDbLine
 10
-340.5
 20
14.42
 30
0.0
 11
-340.5
 21
6.9
 31
0.0
  0
LINE
  5
B03
330
1A
100
AcDbEntity
  8
GUIDE
100
AcDbLine
 10
-319.5
 20
14.42
 30
0.0
 11
-340.5
 21
14.42
 31
0.0
  0
LINE
  5
B04
330
1A
100
AcDbEntity
  8
GUIDE
100
AcDbLine
 10
-319.5
 20
6.9
 30
0.0
 11
-340.5
 21
6.9
 31
0.0
  0
LINE
  5
B05
330
1A
100
AcDbEntity
  8
GUIDE
100
AcDbLine
 10
-327.0
 20
18.18
 30
0.0
 11
-333.0
 21
18.18
 31
0.0
  0
LINE
  5
B06
330
1A
100
AcDbEntity
  8
GUIDE
100
AcDbLine
 10
-319.5
 20
33.22
 30
0.0
 11
-340.5
 21
33.22
 31
0.0
  0
LINE
  5
B07
330
1A
100
AcDbEntity
  8
GUIDE
100
AcDbLine
 10
-319.5
 20
40.74
 30
0.0
 11
-340.5
 21
40.74
 31
0.0
  0
LINE
  5
B08
330
1A
100
AcDbEntity
  8
GUIDE
100
AcDbLine
 10
-340.5
 20
40.74
 30
0.0
 11
-340.5
 21
33.22
 31
0.0
  0
LINE
  5
B09
330
1A
100
AcDbEntity
  8
GUIDE
100
AcDbLine
 10
-319.5
 20
40.74
 30
0.0
 11
-319.5
 21
33.22
 31
0.0
  0
LINE
  5
B0A
330
1A
100
AcDbEntity
  8
GUIDE
100
AcDbLine
 10
-319.5
 20
14.42
 30
0.0
 11
-319.5
 21
6.9
 31
0.0
  0
LINE
  5
B0B
330
1A
100
AcDbEntity
  8
GUIDE
100
AcDbLine
 10
-372.0
 20
3.1
 30
0.0
 11
-393.0
 21
3.1
 31
0.0
  0
LINE
  5
B0C
330
1A
100
AcDbEntity
  8
GUIDE
100
AcDbLine
 10
-372.0
 20
-4.42
 30
0.0
 11
-393.0
 21
-4.42
 31
0.0
  0
LINE
  5
B0D
330
1A
100
AcDbEntity
  8
GUIDE
100
AcDbLine
 10
-372.0
 20
21.9
 30
0.0
 11
-393.0
 21
21.9
 31
0.0
  0
LINE
  5
B0E
330
1A
100
AcDbEntity
  8
GUIDE
100
AcDbLine
 10
-372.0
 20
29.42
 30
0.0
 11
-393.0
 21
29.42
 31
0.0
  0
LINE
  5
B0F
330
1A
100
AcDbEntity
  8
GUIDE
100
AcDbLine
 10
-393.0
 20
-4.42
 30
0.0
 11
-393.0
 21
3.1
 31
0.0
  0
LINE
  5
B10
330
1A
100
AcDbEntity
  8
GUIDE
100
AcDbLine
 10
-393.0
 20
21.9
 30
0.0
 11
-393.0
 21
29.42
 31
0.0
  0
LINE
  5
B11
330
1A
100
AcDbEntity
  8
GUIDE
100
AcDbLine
 10
-379.5
 20
44.5
 30
0.0
 11
-379.5
 21
29.42
 31
0.0
  0
LINE
  5
B12
330
1A
100
AcDbEntity
  8
GUIDE
100
AcDbLine
 10
-385.5
 20
44.5
 30
0.0
 11
-385.5
 21
29.42
 31
0.0
  0
LINE
  5
B13
330
1A
100
AcDbEntity
  8
GUIDE
100
AcDbLine
 10
-379.5
 20
18.14
 30
0.0
 11
-385.5
 21
18.14
 31
0.0
  0
LINE
  5
B14
330
1A
100
AcDbEntity
  8
GUIDE
100
AcDbLine
 10
-372.0
 20
-4.42
 30
0.0
 11
-372.0
 21
3.1
 31
0.0
  0
LINE
  5
B15
330
1A
100
AcDbEntity
  8
GUIDE
100
AcDbLine
 10
-372.0
 20
21.9
 30
0.0
 11
-372.0
 21
29.42
 31
0.0
  0
LINE
  5
B16
330
1A
100
AcDbEntity
  8
GUIDE
100
AcDbLine
 10
-385.5
 20
21.9
 30
0.0
 11
-385.5
 21
3.1
 31
0.0
  0
LINE
  5
B17
330
1A
100
AcDbEntity
  8
GUIDE
100
AcDbLine
 10
-379.5
 20
21.9
 30
0.0
 11
-379.5
 21
3.1
 31
0.0
  0
LINE
  5
B18
330
1A
100
AcDbEntity
  8
GUIDE
100
AcDbLine
 10
-379.5
 20
-4.42
 30
0.0
 11
-379.5
 21
-8.0
 31
0.0
  0
LINE
  5
B19
330
1A
100
AcDbEntity
  8
GUIDE
100
AcDbLine
 10
-385.5
 20
-4.42
 30
0.0
 11
-385.5
 21
-8.0
 31
0.0
  0
LINE
  5
B1A
330
1A
100
AcDbEntity
  8
GUIDE
100
AcDbLine
 10
-362.0
 20
40.74
 30
0.0
 11
-362.0
 21
44.5
 31
0.0
  0
LINE
  5
B1B
330
1A
100
AcDbEntity
  8
GUIDE
100
AcDbLine
 10
-368.0
 20
40.74
 30
0.0
 11
-368.0
 21
44.5
 31
0.0
  0
LINE
  5
B1C
330
1A
100
AcDbEntity
  8
GUIDE
100
AcDbLine
 10
-368.0
 20
14.42
 30
0.0
 11
-368.0
 21
33.22
 31
0.0
  0
LINE
  5
B1D
330
1A
100
AcDbEntity
  8
GUIDE
100
AcDbLine
 10
-362.0
 20
14.42
 30
0.0
 11
-362.0
 21
33.22
 31
0.0
  0
LINE
  5
B1E
330
1A
100
AcDbEntity
  8
GUIDE
100
AcDbLine
 10
-362.0
 20
-8.0
 30
0.0
 11
-362.0
 21
6.9
 31
0.0
  0
LINE
  5
B1F
330
1A
100
AcDbEntity
  8
GUIDE
100
AcDbLine
 10
-368.0
 20
-8.0
 30
0.0
 11
-368.0
 21
6.9
 31
0.0
  0
LINE
  5
B20
330
1A
100
AcDbEntity
  8
GUIDE
100
AcDbLine
 10
-375.5
 20
14.42
 30
0.0
 11
-375.5
 21
6.9
 31
0.0
  0
LINE
  5
B21
330
1A
100
AcDbEntity
  8
GUIDE
100
AcDbLine
 10
-354.5
 20
14.42
 30
0.0
 11
-375.5
 21
14.42
 31
0.0
  0
LINE
  5
B22
330
1A
100
AcDbEntity
  8
GUIDE
100
AcDbLine
 10
-354.5
 20
6.9
 30
0.0
 11
-375.5
 21
6.9
 31
0.0
  0
LINE
  5
B23
330
1A
100
AcDbEntity
  8
GUIDE
100
AcDbLine
 10
-362.0
 20
18.18
 30
0.0
 11
-368.0
 21
18.18
 31
0.0
  0
LINE
  5
B24
330
1A
100
AcDbEntity
  8
GUIDE
100
AcDbLine
 10
-354.5
 20
33.22
 30
0.0
 11
-375.5
 21
33.22
 31
0.0
  0
LINE
  5
B25
330
1A
100
AcDbEntity
  8
GUIDE
100
AcDbLine
 10
-354.5
 20
40.74
 30
0.0
 11
-375.5
 21
40.74
 31
0.0
  0
LINE
  5
B26
330
1A
100
AcDbEntity
  8
GUIDE
100
AcDbLine
 10
-375.5
 20
40.74
 30
0.0
 11
-375.5
 21
33.22
 31
0.0
  0
LINE
  5
B27
330
1A
100
AcDbEntity
  8
GUIDE
100
AcDbLine
 10
-354.5
 20
40.74
 30
0.0
 11
-354.5
 21
33.22
 31
0.0
  0
LINE
  5
B28
330
1A
100
AcDbEntity
  8
GUIDE
100
AcDbLine
 10
-354.5
 20
14.42
 30
0.0
 11
-354.5
 21
6.9
 31
0.0
  0
LINE
  5
B29
330
1A
100
AcDbEntity
  8
GUIDE
100
AcDbLine
 10
-407.0
 20
3.1
 30
0.0
 11
-428.0
 21
3.1
 31
0.0
  0
LINE
  5
B2A
330
1A
100
AcDbEntity
  8
GUIDE
100
AcDbLine
 10
-407.0
 20
-4.42
 30
0.0
 11
-428.0
 21
-4.42
 31
0.0
  0
LINE
  5
B2B
330
1A
100
AcDbEntity
  8
GUIDE
100
AcDbLine
 10
-407.0
 20
21.9
 30
0.0
 11
-428.0
 21
21.9
 31
0.0
  0
LINE
  5
B2C
330
1A
100
AcDbEntity
  8
GUIDE
100
AcDbLine
 10
-407.0
 20
29.42
 30
0.0
 11
-428.0
 21
29.42
 31
0.0
  0
LINE
  5
B2D
330
1A
100
AcDbEntity
  8
GUIDE
100
AcDbLine
 10
-428.0
 20
-4.42
 30
0.0
 11
-428.0
 21
3.1
 31
0.0
  0
LINE
  5
B2E
330
1A
100
AcDbEntity
  8
GUIDE
100
AcDbLine
 10
-428.0
 20
21.9
 30
0.0
 11
-428.0
 21
29.42
 31
0.0
  0
LINE
  5
B2F
330
1A
100
AcDbEntity
  8
GUIDE
100
AcDbLine
 10
-414.5
 20
44.5
 30
0.0
 11
-414.5
 21
29.42
 31
0.0
  0
LINE
  5
B30
330
1A
100
AcDbEntity
  8
GUIDE
100
AcDbLine
 10
-420.5
 20
44.5
 30
0.0
 11
-420.5
 21
29.42
 31
0.0
  0
LINE
  5
B31
330
1A
100
AcDbEntity
  8
GUIDE
100
AcDbLine
 10
-414.5
 20
18.14
 30
0.0
 11
-420.5
 21
18.14
 31
0.0
  0
LINE
  5
B32
330
1A
100
AcDbEntity
  8
GUIDE
100
AcDbLine
 10
-407.0
 20
-4.42
 30
0.0
 11
-407.0
 21
3.1
 31
0.0
  0
LINE
  5
B33
330
1A
100
AcDbEntity
  8
GUIDE
100
AcDbLine
 10
-407.0
 20
21.9
 30
0.0
 11
-407.0
 21
29.42
 31
0.0
  0
LINE
  5
B34
330
1A
100
AcDbEntity
  8
GUIDE
100
AcDbLine
 10
-420.5
 20
21.9
 30
0.0
 11
-420.5
 21
3.1
 31
0.0
  0
LINE
  5
B35
330
1A
100
AcDbEntity
  8
GUIDE
100
AcDbLine
 10
-414.5
 20
21.9
 30
0.0
 11
-414.5
 21
3.1
 31
0.0
  0
LINE
  5
B36
330
1A
100
AcDbEntity
  8
GUIDE
100
AcDbLine
 10
-414.5
 20
-4.42
 30
0.0
 11
-414.5
 21
-8.0
 31
0.0
  0
LINE
  5
B37
330
1A
100
AcDbEntity
  8
GUIDE
100
AcDbLine
 10
-420.5
 20
-4.42
 30
0.0
 11
-420.5
 21
-8.0
 31
0.0
  0
LINE
  5
B38
330
1A
100
AcDbEntity
  8
GUIDE
100
AcDbLine
 10
-397.0
 20
40.74
 30
0.0
 11
-397.0
 21
44.5
 31
0.0
  0
LINE
  5
B39
330
1A
100
AcDbEntity
  8
GUIDE
100
AcDbLine
 10
-403.0
 20
40.74
 30
0.0
 11
-403.0
 21
44.5
 31
0.0
  0
LINE
  5
B3A
330
1A
100
AcDbEntity
  8
GUIDE
100
AcDbLine
 10
-403.0
 20
14.42
 30
0.0
 11
-403.0
 21
33.22
 31
0.0
  0
LINE
  5
B3B
330
1A
100
AcDbEntity
  8
GUIDE
100
AcDbLine
 10
-397.0
 20
14.42
 30
0.0
 11
-397.0
 21
33.22
 31
0.0
  0
LINE
  5
B3C
330
1A
100
AcDbEntity
  8
GUIDE
100
AcDbLine
 10
-397.0
 20
-8.0
 30
0.0
 11
-397.0
 21
6.9
 31
0.0
  0
LINE
  5
B3D
330
1A
100
AcDbEntity
  8
GUIDE
100
AcDbLine
 10
-403.0
 20
-8.0
 30
0.0
 11
-403.0
 21
6.9
 31
0.0
  0
LINE
  5
B3E
330
1A
100
AcDbEntity
  8
GUIDE
100
AcDbLine
 10
-410.5
 20
14.42
 30
0.0
 11
-410.5
 21
6.9
 31
0.0
  0
LINE
  5
B3F
330
1A
100
AcDbEntity
  8
GUIDE
100
AcDbLine
 10
-389.5
 20
14.42
 30
0.0
 11
-410.5
 21
14.42
 31
0.0
  0
LINE
  5
B40
330
1A
100
AcDbEntity
  8
GUIDE
100
AcDbLine
 10
-389.5
 20
6.9
 30
0.0
 11
-410.5
 21
6.9
 31
0.0
  0
LINE
  5
B41
330
1A
100
AcDbEntity
  8
GUIDE
100
AcDbLine
 10
-397.0
 20
18.18
 30
0.0
 11
-403.0
 21
18.18
 31
0.0
  0
LINE
  5
B42
330
1A
100
AcDbEntity
  8
GUIDE
100
AcDbLine
 10
-389.5
 20
33.22
 30
0.0
 11
-410.5
 21
33.22
 31
0.0
  0
LINE
  5
B43
330
1A
100
AcDbEntity
  8
GUIDE
100
AcDbLine
 10
-389.5
 20
40.74
 30
0.0
 11
-410.5
 21
40.74
 31
0.0
  0
LINE
  5
B44
330
1A
100
AcDbEntity
  8
GUIDE
100
AcDbLine
 10
-410.5
 20
40.74
 30
0.0
 11
-410.5
 21
33.22
 31
0.0
  0
LINE
  5
B45
330
1A
100
AcDbEntity
  8
GUIDE
100
AcDbLine
 10
-389.5
 20
40.74
 30
0.0
 11
-389.5
 21
33.22
 31
0.0
  0
LINE
  5
B46
330
1A
100
AcDbEntity
  8
GUIDE
100
AcDbLine
 10
-389.5
 20
14.42
 30
0.0
 11
-389.5
 21
6.9
 31
0.0
  0
LINE
  5
B47
330
1A
100
AcDbEntity
  8
GUIDE
100
AcDbLine
 10
-442.0
 20
3.1
 30
0.0
 11
-463.0
 21
3.1
 31
0.0
  0
LINE
  5
B48
330
1A
100
AcDbEntity
  8
GUIDE
100
AcDbLine
 10
-442.0
 20
-4.42
 30
0.0
 11
-463.0
 21
-4.42
 31
0.0
  0
LINE
  5
B49
330
1A
100
AcDbEntity
  8
GUIDE
100
AcDbLine
 10
-442.0
 20
21.9
 30
0.0
 11
-463.0
 21
21.9
 31
0.0
  0
LINE
  5
B4A
330
1A
100
AcDbEntity
  8
GUIDE
100
AcDbLine
 10
-442.0
 20
29.42
 30
0.0
 11
-463.0
 21
29.42
 31
0.0
  0
LINE
  5
B4B
330
1A
100
AcDbEntity
  8
GUIDE
100
AcDbLine
 10
-463.0
 20
-4.42
 30
0.0
 11
-463.0
 21
3.1
 31
0.0
  0
LINE
  5
B4C
330
1A
100
AcDbEntity
  8
GUIDE
100
AcDbLine
 10
-463.0
 20
21.9
 30
0.0
 11
-463.0
 21
29.42
 31
0.0
  0
LINE
  5
B4D
330
1A
100
AcDbEntity
  8
GUIDE
100
AcDbLine
 10
-449.5
 20
44.5
 30
0.0
 11
-449.5
 21
29.42
 31
0.0
  0
LINE
  5
B4E
330
1A
100
AcDbEntity
  8
GUIDE
100
AcDbLine
 10
-455.5
 20
44.5
 30
0.0
 11
-455.5
 21
29.42
 31
0.0
  0
LINE
  5
B4F
330
1A
100
AcDbEntity
  8
GUIDE
100
AcDbLine
 10
-449.5
 20
18.14
 30
0.0
 11
-455.5
 21
18.14
 31
0.0
  0
LINE
  5
B50
330
1A
100
AcDbEntity
  8
GUIDE
100
AcDbLine
 10
-442.0
 20
-4.42
 30
0.0
 11
-442.0
 21
3.1
 31
0.0
  0
LINE
  5
B51
330
1A
100
AcDbEntity
  8
GUIDE
100
AcDbLine
 10
-442.0
 20
21.9
 30
0.0
 11
-442.0
 21
29.42
 31
0.0
  0
LINE
  5
B52
330
1A
100
AcDbEntity
  8
GUIDE
100
AcDbLine
 10
-455.5
 20
21.9
 30
0.0
 11
-455.5
 21
3.1
 31
0.0
  0
LINE
  5
B53
330
1A
100
AcDbEntity
  8
GUIDE
100
AcDbLine
 10
-449.5
 20
21.9
 30
0.0
 11
-449.5
 21
3.1
 31
0.0
  0
LINE
  5
B54
330
1A
100
AcDbEntity
  8
GUIDE
100
AcDbLine
 10
-449.5
 20
-4.42
 30
0.0
 11
-449.5
 21
-8.0
 31
0.0
  0
LINE
  5
B55
330
1A
100
AcDbEntity
  8
GUIDE
100
AcDbLine
 10
-455.5
 20
-4.42
 30
0.0
 11
-455.5
 21
-8.0
 31
0.0
  0
LINE
  5
B56
330
1A
100
AcDbEntity
  8
GUIDE
100
AcDbLine
 10
-432.0
 20
40.74
 30
0.0
 11
-432.0
 21
44.5
 31
0.0
  0
LINE
  5
B57
330
1A
100
AcDbEntity
  8
GUIDE
100
AcDbLine
 10
-438.0
 20
40.74
 30
0.0
 11
-438.0
 21
44.5
 31
0.0
  0
LINE
  5
B58
330
1A
100
AcDbEntity
  8
GUIDE
100
AcDbLine
 10
-438.0
 20
14.42
 30
0.0
 11
-438.0
 21
33.22
 31
0.0
  0
LINE
  5
B59
330
1A
100
AcDbEntity
  8
GUIDE
100
AcDbLine
 10
-432.0
 20
14.42
 30
0.0
 11
-432.0
 21
33.22
 31
0.0
  0
LINE
  5
B5A
330
1A
100
AcDbEntity
  8
GUIDE
100
AcDbLine
 10
-432.0
 20
-8.0
 30
0.0
 11
-432.0
 21
6.9
 31
0.0
  0
LINE
  5
B5B
330
1A
100
AcDbEntity
  8
GUIDE
100
AcDbLine
 10
-438.0
 20
-8.0
 30
0.0
 11
-438.0
 21
6.9
 31
0.0
  0
LINE
  5
B5C
330
1A
100
AcDbEntity
  8
GUIDE
100
AcDbLine
 10
-445.5
 20
14.42
 30
0.0
 11
-445.5
 21
6.9
 31
0.0
  0
LINE
  5
B5D
330
1A
100
AcDbEntity
  8
GUIDE
100
AcDbLine
 10
-424.5
 20
14.42
 30
0.0
 11
-445.5
 21
14.42
 31
0.0
  0
LINE
  5
B5E
330
1A
100
AcDbEntity
  8
GUIDE
100
AcDbLine
 10
-424.5
 20
6.9
 30
0.0
 11
-445.5
 21
6.9
 31
0.0
  0
LINE
  5
B5F
330
1A
100
AcDbEntity
  8
GUIDE
100
AcDbLine
 10
-432.0
 20
18.18
 30
0.0
 11
-438.0
 21
18.18
 31
0.0
  0
LINE
  5
B60
330
1A
100
AcDbEntity
  8
GUIDE
100
AcDbLine
 10
-424.5
 20
33.22
 30
0.0
 11
-445.5
 21
33.22
 31
0.0
  0
LINE
  5
B61
330
1A
100
AcDbEntity
  8
GUIDE
100
AcDbLine
 10
-424.5
 20
40.74
 30
0.0
 11
-445.5
 21
40.74
 31
0.0
  0
LINE
  5
B62
330
1A
100
AcDbEntity
  8
GUIDE
100
AcDbLine
 10
-445.5
 20
40.74
 30
0.0
 11
-445.5
 21
33.22
 31
0.0
  0
LINE
  5
B63
330
1A
100
AcDbEntity
  8
GUIDE
100
AcDbLine
 10
-424.5
 20
40.74
 30
0.0
 11
-424.5
 21
33.22
 31
0.0
  0
LINE
  5
B64
330
1A
100
AcDbEntity
  8
GUIDE
100
AcDbLine
 10
-424.5
 20
14.42
 30
0.0
 11
-424.5
 21
6.9
 31
0.0
  0
LINE
  5
B65
330
1A
100
AcDbEntity
  8
GUIDE
100
AcDbLine
 10
-477.0
 20
3.1
 30
0.0
 11
-498.0
 21
3.1
 31
0.0
  0
LINE
  5
B66
330
1A
100
AcDbEntity
  8
GUIDE
100
AcDbLine
 10
-477.0
 20
-4.42
 30
0.0
 11
-498.0
 21
-4.42
 31
0.0
  0
LINE
  5
B67
330
1A
100
AcDbEntity
  8
GUIDE
100
AcDbLine
 10
-477.0
 20
21.9
 30
0.0
 11
-498.0
 21
21.9
 31
0.0
  0
LINE
  5
B68
330
1A
100
AcDbEntity
  8
GUIDE
100
AcDbLine
 10
-477.0
 20
29.42
 30
0.0
 11
-498.0
 21
29.42
 31
0.0
  0
LINE
  5
B69
330
1A
100
AcDbEntity
  8
GUIDE
100
AcDbLine
 10
-498.0
 20
-4.42
 30
0.0
 11
-498.0
 21
3.1
 31
0.0
  0
LINE
  5
B6A
330
1A
100
AcDbEntity
  8
GUIDE
100
AcDbLine
 10
-498.0
 20
21.9
 30
0.0
 11
-498.0
 21
29.42
 31
0.0
  0
LINE
  5
B6B
330
1A
100
AcDbEntity
  8
GUIDE
100
AcDbLine
 10
-484.5
 20
44.5
 30
0.0
 11
-484.5
 21
29.42
 31
0.0
  0
LINE
  5
B6C
330
1A
100
AcDbEntity
  8
GUIDE
100
AcDbLine
 10
-490.5
 20
44.5
 30
0.0
 11
-490.5
 21
29.42
 31
0.0
  0
LINE
  5
B6D
330
1A
100
AcDbEntity
  8
GUIDE
100
AcDbLine
 10
-484.5
 20
18.14
 30
0.0
 11
-490.5
 21
18.14
 31
0.0
  0
LINE
  5
B6E
330
1A
100
AcDbEntity
  8
GUIDE
100
AcDbLine
 10
-477.0
 20
-4.42
 30
0.0
 11
-477.0
 21
3.1
 31
0.0
  0
LINE
  5
B6F
330
1A
100
AcDbEntity
  8
GUIDE
100
AcDbLine
 10
-477.0
 20
21.9
 30
0.0
 11
-477.0
 21
29.42
 31
0.0
  0
LINE
  5
B70
330
1A
100
AcDbEntity
  8
GUIDE
100
AcDbLine
 10
-490.5
 20
21.9
 30
0.0
 11
-490.5
 21
3.1
 31
0.0
  0
LINE
  5
B71
330
1A
100
AcDbEntity
  8
GUIDE
100
AcDbLine
 10
-484.5
 20
21.9
 30
0.0
 11
-484.5
 21
3.1
 31
0.0
  0
LINE
  5
B72
330
1A
100
AcDbEntity
  8
GUIDE
100
AcDbLine
 10
-484.5
 20
-4.42
 30
0.0
 11
-484.5
 21
-8.0
 31
0.0
  0
LINE
  5
B73
330
1A
100
AcDbEntity
  8
GUIDE
100
AcDbLine
 10
-490.5
 20
-4.42
 30
0.0
 11
-490.5
 21
-8.0
 31
0.0
  0
LINE
  5
B74
330
1A
100
AcDbEntity
  8
GUIDE
100
AcDbLine
 10
-467.0
 20
40.74
 30
0.0
 11
-467.0
 21
44.5
 31
0.0
  0
LINE
  5
B75
330
1A
100
AcDbEntity
  8
GUIDE
100
AcDbLine
 10
-473.0
 20
40.74
 30
0.0
 11
-473.0
 21
44.5
 31
0.0
  0
LINE
  5
B76
330
1A
100
AcDbEntity
  8
GUIDE
100
AcDbLine
 10
-473.0
 20
14.42
 30
0.0
 11
-473.0
 21
33.22
 31
0.0
  0
LINE
  5
B77
330
1A
100
AcDbEntity
  8
GUIDE
100
AcDbLine
 10
-467.0
 20
14.42
 30
0.0
 11
-467.0
 21
33.22
 31
0.0
  0
LINE
  5
B78
330
1A
100
AcDbEntity
  8
GUIDE
100
AcDbLine
 10
-467.0
 20
-8.0
 30
0.0
 11
-467.0
 21
6.9
 31
0.0
  0
LINE
  5
B79
330
1A
100
AcDbEntity
  8
GUIDE
100
AcDbLine
 10
-473.0
 20
-8.0
 30
0.0
 11
-473.0
 21
6.9
 31
0.0
  0
LINE
  5
B7A
330
1A
100
AcDbEntity
  8
GUIDE
100
AcDbLine
 10
-480.5
 20
14.42
 30
0.0
 11
-480.5
 21
6.9
 31
0.0
  0
LINE
  5
B7B
330
1A
100
AcDbEntity
  8
GUIDE
100
AcDbLine
 10
-459.5
 20
14.42
 30
0.0
 11
-480.5
 21
14.42
 31
0.0
  0
LINE
  5
B7C
330
1A
100
AcDbEntity
  8
GUIDE
100
AcDbLine
 10
-459.5
 20
6.9
 30
0.0
 11
-480.5
 21
6.9
 31
0.0
  0
LINE
  5
B7D
330
1A
100
AcDbEntity
  8
GUIDE
100
AcDbLine
 10
-467.0
 20
18.18
 30
0.0
 11
-473.0
 21
18.18
 31
0.0
  0
LINE
  5
B7E
330
1A
100
AcDbEntity
  8
GUIDE
100
AcDbLine
 10
-459.5
 20
33.22
 30
0.0
 11
-480.5
 21
33.22
 31
0.0
  0
LINE
  5
B7F
330
1A
100
AcDbEntity
  8
GUIDE
100
AcDbLine
 10
-459.5
 20
40.74
 30
0.0
 11
-480.5
 21
40.74
 31
0.0
  0
LINE
  5
B80
330
1A
100
AcDbEntity
  8
GUIDE
100
AcDbLine
 10
-480.5
 20
40.74
 30
0.0
 11
-480.5
 21
33.22
 31
0.0
  0
LINE
  5
B81
330
1A
100
AcDbEntity
  8
GUIDE
100
AcDbLine
 10
-459.5
 20
40.74
 30
0.0
 11
-459.5
 21
33.22
 31
0.0
  0
LINE
  5
B82
330
1A
100
AcDbEntity
  8
GUIDE
100
AcDbLine
 10
-459.5
 20
14.42
 30
0.0
 11
-459.5
 21
6.9
 31
0.0
  0
LINE
  5
B83
330
1A
100
AcDbEntity
  8
GUIDE
100
AcDbLine
 10
-512.0
 20
3.1
 30
0.0
 11
-533.0
 21
3.1
 31
0.0
  0
LINE
  5
B84
330
1A
100
AcDbEntity
  8
GUIDE
100
AcDbLine
 10
-512.0
 20
-4.42
 30
0.0
 11
-533.0
 21
-4.42
 31
0.0
  0
LINE
  5
B85
330
1A
100
AcDbEntity
  8
GUIDE
100
AcDbLine
 10
-512.0
 20
21.9
 30
0.0
 11
-533.0
 21
21.9
 31
0.0
  0
LINE
  5
B86
330
1A
100
AcDbEntity
  8
GUIDE
100
AcDbLine
 10
-512.0
 20
29.42
 30
0.0
 11
-533.0
 21
29.42
 31
0.0
  0
LINE
  5
B87
330
1A
100
AcDbEntity
  8
GUIDE
100
AcDbLine
 10
-533.0
 20
-4.42
 30
0.0
 11
-533.0
 21
3.1
 31
0.0
  0
LINE
  5
B88
330
1A
100
AcDbEntity
  8
GUIDE
100
AcDbLine
 10
-533.0
 20
21.9
 30
0.0
 11
-533.0
 21
29.42
 31
0.0
  0
LINE
  5
B89
330
1A
100
AcDbEntity
  8
GUIDE
100
AcDbLine
 10
-519.5
 20
44.5
 30
0.0
 11
-519.5
 21
29.42
 31
0.0
  0
LINE
  5
B8A
330
1A
100
AcDbEntity
  8
GUIDE
100
AcDbLine
 10
-525.5
 20
44.5
 30
0.0
 11
-525.5
 21
29.42
 31
0.0
  0
LINE
  5
B8B
330
1A
100
AcDbEntity
  8
GUIDE
100
AcDbLine
 10
-519.5
 20
18.14
 30
0.0
 11
-525.5
 21
18.14
 31
0.0
  0
LINE
  5
B8C
330
1A
100
AcDbEntity
  8
GUIDE
100
AcDbLine
 10
-512.0
 20
-4.42
 30
0.0
 11
-512.0
 21
3.1
 31
0.0
  0
LINE
  5
B8D
330
1A
100
AcDbEntity
  8
GUIDE
100
AcDbLine
 10
-512.0
 20
21.9
 30
0.0
 11
-512.0
 21
29.42
 31
0.0
  0
LINE
  5
B8E
330
1A
100
AcDbEntity
  8
GUIDE
100
AcDbLine
 10
-525.5
 20
21.9
 30
0.0
 11
-525.5
 21
3.1
 31
0.0
  0
LINE
  5
B8F
330
1A
100
AcDbEntity
  8
GUIDE
100
AcDbLine
 10
-519.5
 20
21.9
 30
0.0
 11
-519.5
 21
3.1
 31
0.0
  0
LINE
  5
B90
330
1A
100
AcDbEntity
  8
GUIDE
100
AcDbLine
 10
-519.5
 20
-4.42
 30
0.0
 11
-519.5
 21
-8.0
 31
0.0
  0
LINE
  5
B91
330
1A
100
AcDbEntity
  8
GUIDE
100
AcDbLine
 10
-525.5
 20
-4.42
 30
0.0
 11
-525.5
 21
-8.0
 31
0.0
  0
LINE
  5
B92
330
1A
100
AcDbEntity
  8
GUIDE
100
AcDbLine
 10
-502.0
 20
40.74
 30
0.0
 11
-502.0
 21
44.5
 31
0.0
  0
LINE
  5
B93
330
1A
100
AcDbEntity
  8
GUIDE
100
AcDbLine
 10
-508.0
 20
40.74
 30
0.0
 11
-508.0
 21
44.5
 31
0.0
  0
LINE
  5
B94
330
1A
100
AcDbEntity
  8
GUIDE
100
AcDbLine
 10
-508.0
 20
14.42
 30
0.0
 11
-508.0
 21
33.22
 31
0.0
  0
LINE
  5
B95
330
1A
100
AcDbEntity
  8
GUIDE
100
AcDbLine
 10
-502.0
 20
14.42
 30
0.0
 11
-502.0
 21
33.22
 31
0.0
  0
LINE
  5
B96
330
1A
100
AcDbEntity
  8
GUIDE
100
AcDbLine
 10
-502.0
 20
-8.0
 30
0.0
 11
-502.0
 21
6.9
 31
0.0
  0
LINE
  5
B97
330
1A
100
AcDbEntity
  8
GUIDE
100
AcDbLine
 10
-508.0
 20
-8.0
 30
0.0
 11
-508.0
 21
6.9
 31
0.0
  0
LINE
  5
B98
330
1A
100
AcDbEntity
  8
GUIDE
100
AcDbLine
 10
-515.5
 20
14.42
 30
0.0
 11
-515.5
 21
6.9
 31
0.0
  0
LINE
  5
B99
330
1A
100
AcDbEntity
  8
GUIDE
100
AcDbLine
 10
-494.5
 20
14.42
 30
0.0
 11
-515.5
 21
14.42
 31
0.0
  0
LINE
  5
B9A
330
1A
100
AcDbEntity
  8
GUIDE
100
AcDbLine
 10
-494.5
 20
6.9
 30
0.0
 11
-515.5
 21
6.9
 31
0.0
  0
LINE
  5
B9B
330
1A
100
AcDbEntity
  8
GUIDE
100
AcDbLine
 10
-502.0
 20
18.18
 30
0.0
 11
-508.0
 21
18.18
 31
0.0
  0
LINE
  5
B9C
330
1A
100
AcDbEntity
  8
GUIDE
100
AcDbLine
 10
-494.5
 20
33.22
 30
0.0
 11
-515.5
 21
33.22
 31
0.0
  0
LINE
  5
B9D
330
1A
100
AcDbEntity
  8
GUIDE
100
AcDbLine
 10
-494.5
 20
40.74
 30
0.0
 11
-515.5
 21
40.74
 31
0.0
  0
LINE
  5
B9E
330
1A
100
AcDbEntity
  8
GUIDE
100
AcDbLine
 10
-515.5
 20
40.74
 30
0.0
 11
-515.5
 21
33.22
 31
0.0
  0
LINE
  5
B9F
330
1A
100
AcDbEntity
  8
GUIDE
100
AcDbLine
 10
-494.5
 20
40.74
 30
0.0
 11
-494.5
 21
33.22
 31
0.0
  0
LINE
  5
BA0
330
1A
100
AcDbEntity
  8
GUIDE
100
AcDbLine
 10
-494.5
 20
14.42
 30
0.0
 11
-494.5
 21
6.9
 31
0.0
  0
LINE
  5
BA1
330
1A
100
AcDbEntity
  8
GUIDE
100
AcDbLine
 10
-547.0
 20
3.1
 30
0.0
 11
-568.0
 21
3.1
 31
0.0
  0
LINE
  5
BA2
330
1A
100
AcDbEntity
  8
GUIDE
100
AcDbLine
 10
-547.0
 20
-4.42
 30
0.0
 11
-568.0
 21
-4.42
 31
0.0
  0
LINE
  5
BA3
330
1A
100
AcDbEntity
  8
GUIDE
100
AcDbLine
 10
-547.0
 20
21.9
 30
0.0
 11
-568.0
 21
21.9
 31
0.0
  0
LINE
  5
BA4
330
1A
100
AcDbEntity
  8
GUIDE
100
AcDbLine
 10
-547.0
 20
29.42
 30
0.0
 11
-568.0
 21
29.42
 31
0.0
  0
LINE
  5
BA5
330
1A
100
AcDbEntity
  8
GUIDE
100
AcDbLine
 10
-568.0
 20
-4.42
 30
0.0
 11
-568.0
 21
3.1
 31
0.0
  0
LINE
  5
BA6
330
1A
100
AcDbEntity
  8
GUIDE
100
AcDbLine
 10
-568.0
 20
21.9
 30
0.0
 11
-568.0
 21
29.42
 31
0.0
  0
LINE
  5
BA7
330
1A
100
AcDbEntity
  8
GUIDE
100
AcDbLine
 10
-554.5
 20
44.5
 30
0.0
 11
-554.5
 21
29.42
 31
0.0
  0
LINE
  5
BA8
330
1A
100
AcDbEntity
  8
GUIDE
100
AcDbLine
 10
-560.5
 20
44.5
 30
0.0
 11
-560.5
 21
29.42
 31
0.0
  0
LINE
  5
BA9
330
1A
100
AcDbEntity
  8
GUIDE
100
AcDbLine
 10
-554.5
 20
18.14
 30
0.0
 11
-560.5
 21
18.14
 31
0.0
  0
LINE
  5
BAA
330
1A
100
AcDbEntity
  8
GUIDE
100
AcDbLine
 10
-547.0
 20
-4.42
 30
0.0
 11
-547.0
 21
3.1
 31
0.0
  0
LINE
  5
BAB
330
1A
100
AcDbEntity
  8
GUIDE
100
AcDbLine
 10
-547.0
 20
21.9
 30
0.0
 11
-547.0
 21
29.42
 31
0.0
  0
LINE
  5
BAC
330
1A
100
AcDbEntity
  8
GUIDE
100
AcDbLine
 10
-560.5
 20
21.9
 30
0.0
 11
-560.5
 21
3.1
 31
0.0
  0
LINE
  5
BAD
330
1A
100
AcDbEntity
  8
GUIDE
100
AcDbLine
 10
-554.5
 20
21.9
 30
0.0
 11
-554.5
 21
3.1
 31
0.0
  0
LINE
  5
BAE
330
1A
100
AcDbEntity
  8
GUIDE
100
AcDbLine
 10
-554.5
 20
-4.42
 30
0.0
 11
-554.5
 21
-8.0
 31
0.0
  0
LINE
  5
BAF
330
1A
100
AcDbEntity
  8
GUIDE
100
AcDbLine
 10
-560.5
 20
-4.42
 30
0.0
 11
-560.5
 21
-8.0
 31
0.0
  0
LINE
  5
BB0
330
1A
100
AcDbEntity
  8
GUIDE
100
AcDbLine
 10
-537.0
 20
40.74
 30
0.0
 11
-537.0
 21
44.5
 31
0.0
  0
LINE
  5
BB1
330
1A
100
AcDbEntity
  8
GUIDE
100
AcDbLine
 10
-543.0
 20
40.74
 30
0.0
 11
-543.0
 21
44.5
 31
0.0
  0
LINE
  5
BB2
330
1A
100
AcDbEntity
  8
GUIDE
100
AcDbLine
 10
-543.0
 20
14.42
 30
0.0
 11
-543.0
 21
33.22
 31
0.0
  0
LINE
  5
BB3
330
1A
100
AcDbEntity
  8
GUIDE
100
AcDbLine
 10
-537.0
 20
14.42
 30
0.0
 11
-537.0
 21
33.22
 31
0.0
  0
LINE
  5
BB4
330
1A
100
AcDbEntity
  8
GUIDE
100
AcDbLine
 10
-537.0
 20
-8.0
 30
0.0
 11
-537.0
 21
6.9
 31
0.0
  0
LINE
  5
BB5
330
1A
100
AcDbEntity
  8
GUIDE
100
AcDbLine
 10
-543.0
 20
-8.0
 30
0.0
 11
-543.0
 21
6.9
 31
0.0
  0
LINE
  5
BB6
330
1A
100
AcDbEntity
  8
GUIDE
100
AcDbLine
 10
-550.5
 20
14.42
 30
0.0
 11
-550.5
 21
6.9
 31
0.0
  0
LINE
  5
BB7
330
1A
100
AcDbEntity
  8
GUIDE
100
AcDbLine
 10
-529.5
 20
14.42
 30
0.0
 11
-550.5
 21
14.42
 31
0.0
  0
LINE
  5
BB8
330
1A
100
AcDbEntity
  8
GUIDE
100
AcDbLine
 10
-529.5
 20
6.9
 30
0.0
 11
-550.5
 21
6.9
 31
0.0
  0
LINE
  5
BB9
330
1A
100
AcDbEntity
  8
GUIDE
100
AcDbLine
 10
-537.0
 20
18.18
 30
0.0
 11
-543.0
 21
18.18
 31
0.0
  0
LINE
  5
BBA
330
1A
100
AcDbEntity
  8
GUIDE
100
AcDbLine
 10
-529.5
 20
33.22
 30
0.0
 11
-550.5
 21
33.22
 31
0.0
  0
LINE
  5
BBB
330
1A
100
AcDbEntity
  8
GUIDE
100
AcDbLine
 10
-529.5
 20
40.74
 30
0.0
 11
-550.5
 21
40.74
 31
0.0
  0
LINE
  5
BBC
330
1A
100
AcDbEntity
  8
GUIDE
100
AcDbLine
 10
-550.5
 20
40.74
 30
0.0
 11
-550.5
 21
33.22
 31
0.0
  0
LINE
  5
BBD
330
1A
100
AcDbEntity
  8
GUIDE
100
AcDbLine
 10
-529.5
 20
40.74
 30
0.0
 11
-529.5
 21
33.22
 31
0.0
  0
LINE
  5
BBE
330
1A
100
AcDbEntity
  8
GUIDE
100
AcDbLine
 10
-529.5
 20
14.42
 30
0.0
 11
-529.5
 21
6.9
 31
0.0
  0
LINE
  5
BBF
330
1A
100
AcDbEntity
  8
GUIDE
100
AcDbLine
 10
-582.0
 20
3.1
 30
0.0
 11
-603.0
 21
3.1
 31
0.0
  0
LINE
  5
BC0
330
1A
100
AcDbEntity
  8
GUIDE
100
AcDbLine
 10
-582.0
 20
-4.42
 30
0.0
 11
-603.0
 21
-4.42
 31
0.0
  0
LINE
  5
BC1
330
1A
100
AcDbEntity
  8
GUIDE
100
AcDbLine
 10
-582.0
 20
21.9
 30
0.0
 11
-603.0
 21
21.9
 31
0.0
  0
LINE
  5
BC2
330
1A
100
AcDbEntity
  8
GUIDE
100
AcDbLine
 10
-582.0
 20
29.42
 30
0.0
 11
-603.0
 21
29.42
 31
0.0
  0
LINE
  5
BC3
330
1A
100
AcDbEntity
  8
GUIDE
100
AcDbLine
 10
-603.0
 20
-4.42
 30
0.0
 11
-603.0
 21
3.1
 31
0.0
  0
LINE
  5
BC4
330
1A
100
AcDbEntity
  8
GUIDE
100
AcDbLine
 10
-603.0
 20
21.9
 30
0.0
 11
-603.0
 21
29.42
 31
0.0
  0
LINE
  5
BC5
330
1A
100
AcDbEntity
  8
GUIDE
100
AcDbLine
 10
-589.5
 20
44.5
 30
0.0
 11
-589.5
 21
29.42
 31
0.0
  0
LINE
  5
BC6
330
1A
100
AcDbEntity
  8
GUIDE
100
AcDbLine
 10
-595.5
 20
44.5
 30
0.0
 11
-595.5
 21
29.42
 31
0.0
  0
LINE
  5
BC7
330
1A
100
AcDbEntity
  8
GUIDE
100
AcDbLine
 10
-589.5
 20
18.14
 30
0.0
 11
-595.5
 21
18.14
 31
0.0
  0
LINE
  5
BC8
330
1A
100
AcDbEntity
  8
GUIDE
100
AcDbLine
 10
-582.0
 20
-4.42
 30
0.0
 11
-582.0
 21
3.1
 31
0.0
  0
LINE
  5
BC9
330
1A
100
AcDbEntity
  8
GUIDE
100
AcDbLine
 10
-582.0
 20
21.9
 30
0.0
 11
-582.0
 21
29.42
 31
0.0
  0
LINE
  5
BCA
330
1A
100
AcDbEntity
  8
GUIDE
100
AcDbLine
 10
-595.5
 20
21.9
 30
0.0
 11
-595.5
 21
3.1
 31
0.0
  0
LINE
  5
BCB
330
1A
100
AcDbEntity
  8
GUIDE
100
AcDbLine
 10
-589.5
 20
21.9
 30
0.0
 11
-589.5
 21
3.1
 31
0.0
  0
LINE
  5
BCC
330
1A
100
AcDbEntity
  8
GUIDE
100
AcDbLine
 10
-589.5
 20
-4.42
 30
0.0
 11
-589.5
 21
-8.0
 31
0.0
  0
LINE
  5
BCD
330
1A
100
AcDbEntity
  8
GUIDE
100
AcDbLine
 10
-595.5
 20
-4.42
 30
0.0
 11
-595.5
 21
-8.0
 31
0.0
  0
LINE
  5
BCE
330
1A
100
AcDbEntity
  8
GUIDE
100
AcDbLine
 10
-572.0
 20
40.74
 30
0.0
 11
-572.0
 21
44.5
 31
0.0
  0
LINE
  5
BCF
330
1A
100
AcDbEntity
  8
GUIDE
100
AcDbLine
 10
-578.0
 20
40.74
 30
0.0
 11
-578.0
 21
44.5
 31
0.0
  0
LINE
  5
BD0
330
1A
100
AcDbEntity
  8
GUIDE
100
AcDbLine
 10
-578.0
 20
14.42
 30
0.0
 11
-578.0
 21
33.22
 31
0.0
  0
LINE
  5
BD1
330
1A
100
AcDbEntity
  8
GUIDE
100
AcDbLine
 10
-572.0
 20
14.42
 30
0.0
 11
-572.0
 21
33.22
 31
0.0
  0
LINE
  5
BD2
330
1A
100
AcDbEntity
  8
GUIDE
100
AcDbLine
 10
-572.0
 20
-8.0
 30
0.0
 11
-572.0
 21
6.9
 31
0.0
  0
LINE
  5
BD3
330
1A
100
AcDbEntity
  8
GUIDE
100
AcDbLine
 10
-578.0
 20
-8.0
 30
0.0
 11
-578.0
 21
6.9
 31
0.0
  0
LINE
  5
BD4
330
1A
100
AcDbEntity
  8
GUIDE
100
AcDbLine
 10
-585.5
 20
14.42
 30
0.0
 11
-585.5
 21
6.9
 31
0.0
  0
LINE
  5
BD5
330
1A
100
AcDbEntity
  8
GUIDE
100
AcDbLine
 10
-564.5
 20
14.42
 30
0.0
 11
-585.5
 21
14.42
 31
0.0
  0
LINE
  5
BD6
330
1A
100
AcDbEntity
  8
GUIDE
100
AcDbLine
 10
-564.5
 20
6.9
 30
0.0
 11
-585.5
 21
6.9
 31
0.0
  0
LINE
  5
BD7
330
1A
100
AcDbEntity
  8
GUIDE
100
AcDbLine
 10
-572.0
 20
18.18
 30
0.0
 11
-578.0
 21
18.18
 31
0.0
  0
LINE
  5
BD8
330
1A
100
AcDbEntity
  8
GUIDE
100
AcDbLine
 10
-564.5
 20
33.22
 30
0.0
 11
-585.5
 21
33.22
 31
0.0
  0
LINE
  5
BD9
330
1A
100
AcDbEntity
  8
GUIDE
100
AcDbLine
 10
-564.5
 20
40.74
 30
0.0
 11
-585.5
 21
40.74
 31
0.0
  0
LINE
  5
BDA
330
1A
100
AcDbEntity
  8
GUIDE
100
AcDbLine
 10
-585.5
 20
40.74
 30
0.0
 11
-585.5
 21
33.22
 31
0.0
  0
LINE
  5
BDB
330
1A
100
AcDbEntity
  8
GUIDE
100
AcDbLine
 10
-564.5
 20
40.74
 30
0.0
 11
-564.5
 21
33.22
 31
0.0
  0
LINE
  5
BDC
330
1A
100
AcDbEntity
  8
GUIDE
100
AcDbLine
 10
-564.5
 20
14.42
 30
0.0
 11
-564.5
 21
6.9
 31
0.0
  0
LINE
  5
BDD
330
1A
100
AcDbEntity
  8
GUIDE
100
AcDbLine
 10
-617.0
 20
3.1
 30
0.0
 11
-638.0
 21
3.1
 31
0.0
  0
LINE
  5
BDE
330
1A
100
AcDbEntity
  8
GUIDE
100
AcDbLine
 10
-617.0
 20
-4.42
 30
0.0
 11
-638.0
 21
-4.42
 31
0.0
  0
LINE
  5
BDF
330
1A
100
AcDbEntity
  8
GUIDE
100
AcDbLine
 10
-617.0
 20
21.9
 30
0.0
 11
-638.0
 21
21.9
 31
0.0
  0
LINE
  5
BE0
330
1A
100
AcDbEntity
  8
GUIDE
100
AcDbLine
 10
-617.0
 20
29.42
 30
0.0
 11
-638.0
 21
29.42
 31
0.0
  0
LINE
  5
BE1
330
1A
100
AcDbEntity
  8
GUIDE
100
AcDbLine
 10
-638.0
 20
-4.42
 30
0.0
 11
-638.0
 21
3.1
 31
0.0
  0
LINE
  5
BE2
330
1A
100
AcDbEntity
  8
GUIDE
100
AcDbLine
 10
-638.0
 20
21.9
 30
0.0
 11
-638.0
 21
29.42
 31
0.0
  0
LINE
  5
BE3
330
1A
100
AcDbEntity
  8
GUIDE
100
AcDbLine
 10
-624.5
 20
44.5
 30
0.0
 11
-624.5
 21
29.42
 31
0.0
  0
LINE
  5
BE4
330
1A
100
AcDbEntity
  8
GUIDE
100
AcDbLine
 10
-630.5
 20
44.5
 30
0.0
 11
-630.5
 21
29.42
 31
0.0
  0
LINE
  5
BE5
330
1A
100
AcDbEntity
  8
GUIDE
100
AcDbLine
 10
-624.5
 20
18.14
 30
0.0
 11
-630.5
 21
18.14
 31
0.0
  0
LINE
  5
BE6
330
1A
100
AcDbEntity
  8
GUIDE
100
AcDbLine
 10
-617.0
 20
-4.42
 30
0.0
 11
-617.0
 21
3.1
 31
0.0
  0
LINE
  5
BE7
330
1A
100
AcDbEntity
  8
GUIDE
100
AcDbLine
 10
-617.0
 20
21.9
 30
0.0
 11
-617.0
 21
29.42
 31
0.0
  0
LINE
  5
BE8
330
1A
100
AcDbEntity
  8
GUIDE
100
AcDbLine
 10
-630.5
 20
21.9
 30
0.0
 11
-630.5
 21
3.1
 31
0.0
  0
LINE
  5
BE9
330
1A
100
AcDbEntity
  8
GUIDE
100
AcDbLine
 10
-624.5
 20
21.9
 30
0.0
 11
-624.5
 21
3.1
 31
0.0
  0
LINE
  5
BEA
330
1A
100
AcDbEntity
  8
GUIDE
100
AcDbLine
 10
-624.5
 20
-4.42
 30
0.0
 11
-624.5
 21
-8.0
 31
0.0
  0
LINE
  5
BEB
330
1A
100
AcDbEntity
  8
GUIDE
100
AcDbLine
 10
-630.5
 20
-4.42
 30
0.0
 11
-630.5
 21
-8.0
 31
0.0
  0
LINE
  5
BEC
330
1A
100
AcDbEntity
  8
GUIDE
100
AcDbLine
 10
-607.0
 20
40.74
 30
0.0
 11
-607.0
 21
44.5
 31
0.0
  0
LINE
  5
BED
330
1A
100
AcDbEntity
  8
GUIDE
100
AcDbLine
 10
-613.0
 20
40.74
 30
0.0
 11
-613.0
 21
44.5
 31
0.0
  0
LINE
  5
BEE
330
1A
100
AcDbEntity
  8
GUIDE
100
AcDbLine
 10
-613.0
 20
14.42
 30
0.0
 11
-613.0
 21
33.22
 31
0.0
  0
LINE
  5
BEF
330
1A
100
AcDbEntity
  8
GUIDE
100
AcDbLine
 10
-607.0
 20
14.42
 30
0.0
 11
-607.0
 21
33.22
 31
0.0
  0
LINE
  5
BF0
330
1A
100
AcDbEntity
  8
GUIDE
100
AcDbLine
 10
-607.0
 20
-8.0
 30
0.0
 11
-607.0
 21
6.9
 31
0.0
  0
LINE
  5
BF1
330
1A
100
AcDbEntity
  8
GUIDE
100
AcDbLine
 10
-613.0
 20
-8.0
 30
0.0
 11
-613.0
 21
6.9
 31
0.0
  0
LINE
  5
BF2
330
1A
100
AcDbEntity
  8
GUIDE
100
AcDbLine
 10
-620.5
 20
14.42
 30
0.0
 11
-620.5
 21
6.9
 31
0.0
  0
LINE
  5
BF3
330
1A
100
AcDbEntity
  8
GUIDE
100
AcDbLine
 10
-599.5
 20
14.42
 30
0.0
 11
-620.5
 21
14.42
 31
0.0
  0
LINE
  5
BF4
330
1A
100
AcDbEntity
  8
GUIDE
100
AcDbLine
 10
-599.5
 20
6.9
 30
0.0
 11
-620.5
 21
6.9
 31
0.0
  0
LINE
  5
BF5
330
1A
100
AcDbEntity
  8
GUIDE
100
AcDbLine
 10
-607.0
 20
18.18
 30
0.0
 11
-613.0
 21
18.18
 31
0.0
  0
LINE
  5
BF6
330
1A
100
AcDbEntity
  8
GUIDE
100
AcDbLine
 10
-599.5
 20
33.22
 30
0.0
 11
-620.5
 21
33.22
 31
0.0
  0
LINE
  5
BF7
330
1A
100
AcDbEntity
  8
GUIDE
100
AcDbLine
 10
-599.5
 20
40.74
 30
0.0
 11
-620.5
 21
40.74
 31
0.0
  0
LINE
  5
BF8
330
1A
100
AcDbEntity
  8
GUIDE
100
AcDbLine
 10
-620.5
 20
40.74
 30
0.0
 11
-620.5
 21
33.22
 31
0.0
  0
LINE
  5
BF9
330
1A
100
AcDbEntity
  8
GUIDE
100
AcDbLine
 10
-599.5
 20
40.74
 30
0.0
 11
-599.5
 21
33.22
 31
0.0
  0
LINE
  5
BFA
330
1A
100
AcDbEntity
  8
GUIDE
100
AcDbLine
 10
-599.5
 20
14.42
 30
0.0
 11
-599.5
 21
6.9
 31
0.0
  0
LINE
  5
BFB
330
1A
100
AcDbEntity
  8
GUIDE
100
AcDbLine
 10
-652.0
 20
3.1
 30
0.0
 11
-673.0
 21
3.1
 31
0.0
  0
LINE
  5
BFC
330
1A
100
AcDbEntity
  8
GUIDE
100
AcDbLine
 10
-652.0
 20
-4.42
 30
0.0
 11
-673.0
 21
-4.42
 31
0.0
  0
LINE
  5
BFD
330
1A
100
AcDbEntity
  8
GUIDE
100
AcDbLine
 10
-652.0
 20
21.9
 30
0.0
 11
-673.0
 21
21.9
 31
0.0
  0
LINE
  5
BFE
330
1A
100
AcDbEntity
  8
GUIDE
100
AcDbLine
 10
-652.0
 20
29.42
 30
0.0
 11
-673.0
 21
29.42
 31
0.0
  0
LINE
  5
BFF
330
1A
100
AcDbEntity
  8
GUIDE
100
AcDbLine
 10
-673.0
 20
-4.42
 30
0.0
 11
-673.0
 21
3.1
 31
0.0
  0
LINE
  5
C00
330
1A
100
AcDbEntity
  8
GUIDE
100
AcDbLine
 10
-673.0
 20
21.9
 30
0.0
 11
-673.0
 21
29.42
 31
0.0
  0
LINE
  5
C01
330
1A
100
AcDbEntity
  8
GUIDE
100
AcDbLine
 10
-659.5
 20
44.5
 30
0.0
 11
-659.5
 21
29.42
 31
0.0
  0
LINE
  5
C02
330
1A
100
AcDbEntity
  8
GUIDE
100
AcDbLine
 10
-665.5
 20
44.5
 30
0.0
 11
-665.5
 21
29.42
 31
0.0
  0
LINE
  5
C03
330
1A
100
AcDbEntity
  8
GUIDE
100
AcDbLine
 10
-659.5
 20
18.14
 30
0.0
 11
-665.5
 21
18.14
 31
0.0
  0
LINE
  5
C04
330
1A
100
AcDbEntity
  8
GUIDE
100
AcDbLine
 10
-652.0
 20
-4.42
 30
0.0
 11
-652.0
 21
3.1
 31
0.0
  0
LINE
  5
C05
330
1A
100
AcDbEntity
  8
GUIDE
100
AcDbLine
 10
-652.0
 20
21.9
 30
0.0
 11
-652.0
 21
29.42
 31
0.0
  0
LINE
  5
C06
330
1A
100
AcDbEntity
  8
GUIDE
100
AcDbLine
 10
-665.5
 20
21.9
 30
0.0
 11
-665.5
 21
3.1
 31
0.0
  0
LINE
  5
C07
330
1A
100
AcDbEntity
  8
GUIDE
100
AcDbLine
 10
-659.5
 20
21.9
 30
0.0
 11
-659.5
 21
3.1
 31
0.0
  0
LINE
  5
C08
330
1A
100
AcDbEntity
  8
GUIDE
100
AcDbLine
 10
-659.5
 20
-4.42
 30
0.0
 11
-659.5
 21
-8.0
 31
0.0
  0
LINE
  5
C09
330
1A
100
AcDbEntity
  8
GUIDE
100
AcDbLine
 10
-665.5
 20
-4.42
 30
0.0
 11
-665.5
 21
-8.0
 31
0.0
  0
LINE
  5
C0A
330
1A
100
AcDbEntity
  8
GUIDE
100
AcDbLine
 10
-642.0
 20
40.74
 30
0.0
 11
-642.0
 21
44.5
 31
0.0
  0
LINE
  5
C0B
330
1A
100
AcDbEntity
  8
GUIDE
100
AcDbLine
 10
-648.0
 20
40.74
 30
0.0
 11
-648.0
 21
44.5
 31
0.0
  0
LINE
  5
C0C
330
1A
100
AcDbEntity
  8
GUIDE
100
AcDbLine
 10
-648.0
 20
14.42
 30
0.0
 11
-648.0
 21
33.22
 31
0.0
  0
LINE
  5
C0D
330
1A
100
AcDbEntity
  8
GUIDE
100
AcDbLine
 10
-642.0
 20
14.42
 30
0.0
 11
-642.0
 21
33.22
 31
0.0
  0
LINE
  5
C0E
330
1A
100
AcDbEntity
  8
GUIDE
100
AcDbLine
 10
-642.0
 20
-8.0
 30
0.0
 11
-642.0
 21
6.9
 31
0.0
  0
LINE
  5
C0F
330
1A
100
AcDbEntity
  8
GUIDE
100
AcDbLine
 10
-648.0
 20
-8.0
 30
0.0
 11
-648.0
 21
6.9
 31
0.0
  0
LINE
  5
C10
330
1A
100
AcDbEntity
  8
GUIDE
100
AcDbLine
 10
-655.5
 20
14.42
 30
0.0
 11
-655.5
 21
6.9
 31
0.0
  0
LINE
  5
C11
330
1A
100
AcDbEntity
  8
GUIDE
100
AcDbLine
 10
-634.5
 20
14.42
 30
0.0
 11
-655.5
 21
14.42
 31
0.0
  0
LINE
  5
C12
330
1A
100
AcDbEntity
  8
GUIDE
100
AcDbLine
 10
-634.5
 20
6.9
 30
0.0
 11
-655.5
 21
6.9
 31
0.0
  0
LINE
  5
C13
330
1A
100
AcDbEntity
  8
GUIDE
100
AcDbLine
 10
-642.0
 20
18.18
 30
0.0
 11
-648.0
 21
18.18
 31
0.0
  0
LINE
  5
C14
330
1A
100
AcDbEntity
  8
GUIDE
100
AcDbLine
 10
-634.5
 20
33.22
 30
0.0
 11
-655.5
 21
33.22
 31
0.0
  0
LINE
  5
C15
330
1A
100
AcDbEntity
  8
GUIDE
100
AcDbLine
 10
-634.5
 20
40.74
 30
0.0
 11
-655.5
 21
40.74
 31
0.0
  0
LINE
  5
C16
330
1A
100
AcDbEntity
  8
GUIDE
100
AcDbLine
 10
-655.5
 20
40.74
 30
0.0
 11
-655.5
 21
33.22
 31
0.0
  0
LINE
  5
C17
330
1A
100
AcDbEntity
  8
GUIDE
100
AcDbLine
 10
-634.5
 20
40.74
 30
0.0
 11
-634.5
 21
33.22
 31
0.0
  0
LINE
  5
C18
330
1A
100
AcDbEntity
  8
GUIDE
100
AcDbLine
 10
-634.5
 20
14.42
 30
0.0
 11
-634.5
 21
6.9
 31
0.0
  0
LINE
  5
C19
330
1A
100
AcDbEntity
  8
GUIDE
100
AcDbLine
 10
-687.0
 20
3.1
 30
0.0
 11
-708.0
 21
3.1
 31
0.0
  0
LINE
  5
C1A
330
1A
100
AcDbEntity
  8
GUIDE
100
AcDbLine
 10
-687.0
 20
-4.42
 30
0.0
 11
-708.0
 21
-4.42
 31
0.0
  0
LINE
  5
C1B
330
1A
100
AcDbEntity
  8
GUIDE
100
AcDbLine
 10
-687.0
 20
21.9
 30
0.0
 11
-708.0
 21
21.9
 31
0.0
  0
LINE
  5
C1C
330
1A
100
AcDbEntity
  8
GUIDE
100
AcDbLine
 10
-687.0
 20
29.42
 30
0.0
 11
-708.0
 21
29.42
 31
0.0
  0
LINE
  5
C1D
330
1A
100
AcDbEntity
  8
GUIDE
100
AcDbLine
 10
-708.0
 20
-4.42
 30
0.0
 11
-708.0
 21
3.1
 31
0.0
  0
LINE
  5
C1E
330
1A
100
AcDbEntity
  8
GUIDE
100
AcDbLine
 10
-708.0
 20
21.9
 30
0.0
 11
-708.0
 21
29.42
 31
0.0
  0
LINE
  5
C1F
330
1A
100
AcDbEntity
  8
GUIDE
100
AcDbLine
 10
-694.5
 20
44.5
 30
0.0
 11
-694.5
 21
29.42
 31
0.0
  0
LINE
  5
C20
330
1A
100
AcDbEntity
  8
GUIDE
100
AcDbLine
 10
-700.5
 20
44.5
 30
0.0
 11
-700.5
 21
29.42
 31
0.0
  0
LINE
  5
C21
330
1A
100
AcDbEntity
  8
GUIDE
100
AcDbLine
 10
-694.5
 20
18.14
 30
0.0
 11
-700.5
 21
18.14
 31
0.0
  0
LINE
  5
C22
330
1A
100
AcDbEntity
  8
GUIDE
100
AcDbLine
 10
-687.0
 20
-4.42
 30
0.0
 11
-687.0
 21
3.1
 31
0.0
  0
LINE
  5
C23
330
1A
100
AcDbEntity
  8
GUIDE
100
AcDbLine
 10
-687.0
 20
21.9
 30
0.0
 11
-687.0
 21
29.42
 31
0.0
  0
LINE
  5
C24
330
1A
100
AcDbEntity
  8
GUIDE
100
AcDbLine
 10
-700.5
 20
21.9
 30
0.0
 11
-700.5
 21
3.1
 31
0.0
  0
LINE
  5
C25
330
1A
100
AcDbEntity
  8
GUIDE
100
AcDbLine
 10
-694.5
 20
21.9
 30
0.0
 11
-694.5
 21
3.1
 31
0.0
  0
LINE
  5
C26
330
1A
100
AcDbEntity
  8
GUIDE
100
AcDbLine
 10
-694.5
 20
-4.42
 30
0.0
 11
-694.5
 21
-8.0
 31
0.0
  0
LINE
  5
C27
330
1A
100
AcDbEntity
  8
GUIDE
100
AcDbLine
 10
-700.5
 20
-4.42
 30
0.0
 11
-700.5
 21
-8.0
 31
0.0
  0
LINE
  5
C28
330
1A
100
AcDbEntity
  8
GUIDE
100
AcDbLine
 10
-677.0
 20
40.74
 30
0.0
 11
-677.0
 21
44.5
 31
0.0
  0
LINE
  5
C29
330
1A
100
AcDbEntity
  8
GUIDE
100
AcDbLine
 10
-683.0
 20
40.74
 30
0.0
 11
-683.0
 21
44.5
 31
0.0
  0
LINE
  5
C2A
330
1A
100
AcDbEntity
  8
GUIDE
100
AcDbLine
 10
-683.0
 20
14.42
 30
0.0
 11
-683.0
 21
33.22
 31
0.0
  0
LINE
  5
C2B
330
1A
100
AcDbEntity
  8
GUIDE
100
AcDbLine
 10
-677.0
 20
14.42
 30
0.0
 11
-677.0
 21
33.22
 31
0.0
  0
LINE
  5
C2C
330
1A
100
AcDbEntity
  8
GUIDE
100
AcDbLine
 10
-677.0
 20
-8.0
 30
0.0
 11
-677.0
 21
6.9
 31
0.0
  0
LINE
  5
C2D
330
1A
100
AcDbEntity
  8
GUIDE
100
AcDbLine
 10
-683.0
 20
-8.0
 30
0.0
 11
-683.0
 21
6.9
 31
0.0
  0
LINE
  5
C2E
330
1A
100
AcDbEntity
  8
GUIDE
100
AcDbLine
 10
-690.5
 20
14.42
 30
0.0
 11
-690.5
 21
6.9
 31
0.0
  0
LINE
  5
C2F
330
1A
100
AcDbEntity
  8
GUIDE
100
AcDbLine
 10
-669.5
 20
14.42
 30
0.0
 11
-690.5
 21
14.42
 31
0.0
  0
LINE
  5
C30
330
1A
100
AcDbEntity
  8
GUIDE
100
AcDbLine
 10
-669.5
 20
6.9
 30
0.0
 11
-690.5
 21
6.9
 31
0.0
  0
LINE
  5
C31
330
1A
100
AcDbEntity
  8
GUIDE
100
AcDbLine
 10
-677.0
 20
18.18
 30
0.0
 11
-683.0
 21
18.18
 31
0.0
  0
LINE
  5
C32
330
1A
100
AcDbEntity
  8
GUIDE
100
AcDbLine
 10
-669.5
 20
33.22
 30
0.0
 11
-690.5
 21
33.22
 31
0.0
  0
LINE
  5
C33
330
1A
100
AcDbEntity
  8
GUIDE
100
AcDbLine
 10
-669.5
 20
40.74
 30
0.0
 11
-690.5
 21
40.74
 31
0.0
  0
LINE
  5
C34
330
1A
100
AcDbEntity
  8
GUIDE
100
AcDbLine
 10
-690.5
 20
40.74
 30
0.0
 11
-690.5
 21
33.22
 31
0.0
  0
LINE
  5
C35
330
1A
100
AcDbEntity
  8
GUIDE
100
AcDbLine
 10
-669.5
 20
40.74
 30
0.0
 11
-669.5
 21
33.22
 31
0.0
  0
LINE
  5
C36
330
1A
100
AcDbEntity
  8
GUIDE
100
AcDbLine
 10
-669.5
 20
14.42
 30
0.0
 11
-669.5
 21
6.9
 31
0.0
  0
LINE
  5
C37
330
1A
100
AcDbEntity
  8
GUIDE
100
AcDbLine
 10
-704.5
 20
14.42
 30
0.0
 11
-704.5
 21
6.9
 31
0.0
  0
LINE
  5
C38
330
1A
100
AcDbEntity
  8
GUIDE
100
AcDbLine
 10
-704.5
 20
40.74
 30
0.0
 11
-704.5
 21
33.22
 31
0.0
  0
LINE
  5
C39
330
1A
100
AcDbEntity
  8
GUIDE
100
AcDbLine
 10
374.0
 20
54.5
 30
0.0
 11
374.0
 21
40.74
 31
0.0
  0
LINE
  5
C3A
330
1A
100
AcDbEntity
  8
GUIDE
100
AcDbLine
 10
-1719.0
 20
-18.0
 30
0.0
 11
374.0
 21
-18.0
 31
0.0
  0
LINE
  5
C3B
330
1A
100
AcDbEntity
  8
GUIDE
100
AcDbLine
 10
-1719.0
 20
-4.42
 30
0.0
 11
-1719.0
 21
-18.0
 31
0.0
  0
LINE
  5
C3C
330
1A
100
AcDbEntity
  8
GUIDE
100
AcDbLine
 10
-1719.0
 20
-8.0
 30
0.0
 11
374.0
 21
-8.0
 31
0.0
  0
LINE
  5
C3D
330
1A
100
AcDbEntity
  8
GUIDE
100
AcDbLine
 10
-1719.0
 20
54.5
 30
0.0
 11
-1719.0
 21
29.42
 31
0.0
  0
LINE
  5
C3E
330
1A
100
AcDbEntity
  8
GUIDE
100
AcDbLine
 10
-1719.0
 20
54.5
 30
0.0
 11
374.0
 21
54.5
 31
0.0
  0
LINE
  5
C3F
330
1A
100
AcDbEntity
  8
GUIDE
100
AcDbLine
 10
-1709.5
 20
44.5
 30
0.0
 11
-1709.5
 21
29.42
 31
0.0
  0
LINE
  5
C40
330
1A
100
AcDbEntity
  8
GUIDE
100
AcDbLine
 10
-1715.5
 20
44.5
 30
0.0
 11
-1715.5
 21
29.42
 31
0.0
  0
LINE
  5
C41
330
1A
100
AcDbEntity
  8
GUIDE
100
AcDbLine
 10
-1719.0
 20
44.5
 30
0.0
 11
374.0
 21
44.5
 31
0.0
  0
LINE
  5
C42
330
1A
100
AcDbEntity
  8
GUIDE
100
AcDbLine
 10
-1709.5
 20
18.14
 30
0.0
 11
-1715.5
 21
18.14
 31
0.0
  0
LINE
  5
C43
330
1A
100
AcDbEntity
  8
GUIDE
100
AcDbLine
 10
-1702.0
 20
3.1
 30
0.0
 11
-1723.0
 21
3.1
 31
0.0
  0
LINE
  5
C44
330
1A
100
AcDbEntity
  8
GUIDE
100
AcDbLine
 10
-1702.0
 20
-4.42
 30
0.0
 11
-1723.0
 21
-4.42
 31
0.0
  0
LINE
  5
C45
330
1A
100
AcDbEntity
  8
GUIDE
100
AcDbLine
 10
-1702.0
 20
21.9
 30
0.0
 11
-1723.0
 21
21.9
 31
0.0
  0
LINE
  5
C46
330
1A
100
AcDbEntity
  8
GUIDE
100
AcDbLine
 10
-1702.0
 20
29.42
 30
0.0
 11
-1723.0
 21
29.42
 31
0.0
  0
LINE
  5
C47
330
1A
100
AcDbEntity
  8
GUIDE
100
AcDbLine
 10
-1723.0
 20
21.9
 30
0.0
 11
-1723.0
 21
29.42
 31
0.0
  0
LINE
  5
C48
330
1A
100
AcDbEntity
  8
GUIDE
100
AcDbLine
 10
-1723.0
 20
-4.42
 30
0.0
 11
-1723.0
 21
3.1
 31
0.0
  0
LINE
  5
C49
330
1A
100
AcDbEntity
  8
GUIDE
100
AcDbLine
 10
-1702.0
 20
-4.42
 30
0.0
 11
-1702.0
 21
3.1
 31
0.0
  0
LINE
  5
C4A
330
1A
100
AcDbEntity
  8
GUIDE
100
AcDbLine
 10
-1702.0
 20
21.9
 30
0.0
 11
-1702.0
 21
29.42
 31
0.0
  0
LINE
  5
C4B
330
1A
100
AcDbEntity
  8
GUIDE
100
AcDbLine
 10
-1715.5
 20
21.9
 30
0.0
 11
-1715.5
 21
3.1
 31
0.0
  0
LINE
  5
C4C
330
1A
100
AcDbEntity
  8
GUIDE
100
AcDbLine
 10
-1709.5
 20
21.9
 30
0.0
 11
-1709.5
 21
3.1
 31
0.0
  0
LINE
  5
C4D
330
1A
100
AcDbEntity
  8
GUIDE
100
AcDbLine
 10
-1709.5
 20
-4.42
 30
0.0
 11
-1709.5
 21
-8.0
 31
0.0
  0
LINE
  5
C4E
330
1A
100
AcDbEntity
  8
GUIDE
100
AcDbLine
 10
-1715.5
 20
-4.42
 30
0.0
 11
-1715.5
 21
-8.0
 31
0.0
  0
LINE
  5
C4F
330
1A
100
AcDbEntity
  8
GUIDE
100
AcDbLine
 10
-1719.0
 20
21.9
 30
0.0
 11
-1719.0
 21
3.1
 31
0.0
  0
LINE
  5
C50
330
1A
100
AcDbEntity
  8
GUIDE
100
AcDbLine
 10
-1692.0
 20
40.74
 30
0.0
 11
-1692.0
 21
44.5
 31
0.0
  0
LINE
  5
C51
330
1A
100
AcDbEntity
  8
GUIDE
100
AcDbLine
 10
-1698.0
 20
40.74
 30
0.0
 11
-1698.0
 21
44.5
 31
0.0
  0
LINE
  5
C52
330
1A
100
AcDbEntity
  8
GUIDE
100
AcDbLine
 10
-1698.0
 20
14.42
 30
0.0
 11
-1698.0
 21
33.22
 31
0.0
  0
LINE
  5
C53
330
1A
100
AcDbEntity
  8
GUIDE
100
AcDbLine
 10
-1692.0
 20
14.42
 30
0.0
 11
-1692.0
 21
33.22
 31
0.0
  0
LINE
  5
C54
330
1A
100
AcDbEntity
  8
GUIDE
100
AcDbLine
 10
-1692.0
 20
-8.0
 30
0.0
 11
-1692.0
 21
6.9
 31
0.0
  0
LINE
  5
C55
330
1A
100
AcDbEntity
  8
GUIDE
100
AcDbLine
 10
-1698.0
 20
-8.0
 30
0.0
 11
-1698.0
 21
6.9
 31
0.0
  0
LINE
  5
C56
330
1A
100
AcDbEntity
  8
GUIDE
100
AcDbLine
 10
-1684.5
 20
14.42
 30
0.0
 11
-1684.5
 21
6.9
 31
0.0
  0
LINE
  5
C57
330
1A
100
AcDbEntity
  8
GUIDE
100
AcDbLine
 10
-1705.5
 20
14.42
 30
0.0
 11
-1705.5
 21
6.9
 31
0.0
  0
LINE
  5
C58
330
1A
100
AcDbEntity
  8
GUIDE
100
AcDbLine
 10
-1684.5
 20
14.42
 30
0.0
 11
-1705.5
 21
14.42
 31
0.0
  0
LINE
  5
C59
330
1A
100
AcDbEntity
  8
GUIDE
100
AcDbLine
 10
-1684.5
 20
6.9
 30
0.0
 11
-1705.5
 21
6.9
 31
0.0
  0
LINE
  5
C5A
330
1A
100
AcDbEntity
  8
GUIDE
100
AcDbLine
 10
-1692.0
 20
18.18
 30
0.0
 11
-1698.0
 21
18.18
 31
0.0
  0
LINE
  5
C5B
330
1A
100
AcDbEntity
  8
GUIDE
100
AcDbLine
 10
-1684.5
 20
33.22
 30
0.0
 11
-1705.5
 21
33.22
 31
0.0
  0
LINE
  5
C5C
330
1A
100
AcDbEntity
  8
GUIDE
100
AcDbLine
 10
-1684.5
 20
40.74
 30
0.0
 11
-1705.5
 21
40.74
 31
0.0
  0
LINE
  5
C5D
330
1A
100
AcDbEntity
  8
GUIDE
100
AcDbLine
 10
-1705.5
 20
40.74
 30
0.0
 11
-1705.5
 21
33.22
 31
0.0
  0
LINE
  5
C5E
330
1A
100
AcDbEntity
  8
GUIDE
100
AcDbLine
 10
-1684.5
 20
40.74
 30
0.0
 11
-1684.5
 21
33.22
 31
0.0
  0
LINE
  5
C5F
330
1A
100
AcDbEntity
  8
GUIDE
100
AcDbLine
 10
-1649.5
 20
40.74
 30
0.0
 11
-1649.5
 21
33.22
 31
0.0
  0
LINE
  5
C60
330
1A
100
AcDbEntity
  8
GUIDE
100
AcDbLine
 10
-1670.5
 20
40.74
 30
0.0
 11
-1670.5
 21
33.22
 31
0.0
  0
LINE
  5
C61
330
1A
100
AcDbEntity
  8
GUIDE
100
AcDbLine
 10
-1649.5
 20
40.74
 30
0.0
 11
-1670.5
 21
40.74
 31
0.0
  0
LINE
  5
C62
330
1A
100
AcDbEntity
  8
GUIDE
100
AcDbLine
 10
-1649.5
 20
33.22
 30
0.0
 11
-1670.5
 21
33.22
 31
0.0
  0
LINE
  5
C63
330
1A
100
AcDbEntity
  8
GUIDE
100
AcDbLine
 10
-1657.0
 20
18.18
 30
0.0
 11
-1663.0
 21
18.18
 31
0.0
  0
LINE
  5
C64
330
1A
100
AcDbEntity
  8
GUIDE
100
AcDbLine
 10
-1649.5
 20
6.9
 30
0.0
 11
-1670.5
 21
6.9
 31
0.0
  0
LINE
  5
C65
330
1A
100
AcDbEntity
  8
GUIDE
100
AcDbLine
 10
-1649.5
 20
14.42
 30
0.0
 11
-1670.5
 21
14.42
 31
0.0
  0
LINE
  5
C66
330
1A
100
AcDbEntity
  8
GUIDE
100
AcDbLine
 10
-1670.5
 20
14.42
 30
0.0
 11
-1670.5
 21
6.9
 31
0.0
  0
LINE
  5
C67
330
1A
100
AcDbEntity
  8
GUIDE
100
AcDbLine
 10
-1649.5
 20
14.42
 30
0.0
 11
-1649.5
 21
6.9
 31
0.0
  0
LINE
  5
C68
330
1A
100
AcDbEntity
  8
GUIDE
100
AcDbLine
 10
-1663.0
 20
-8.0
 30
0.0
 11
-1663.0
 21
6.9
 31
0.0
  0
LINE
  5
C69
330
1A
100
AcDbEntity
  8
GUIDE
100
AcDbLine
 10
-1657.0
 20
-8.0
 30
0.0
 11
-1657.0
 21
6.9
 31
0.0
  0
LINE
  5
C6A
330
1A
100
AcDbEntity
  8
GUIDE
100
AcDbLine
 10
-1657.0
 20
14.42
 30
0.0
 11
-1657.0
 21
33.22
 31
0.0
  0
LINE
  5
C6B
330
1A
100
AcDbEntity
  8
GUIDE
100
AcDbLine
 10
-1663.0
 20
14.42
 30
0.0
 11
-1663.0
 21
33.22
 31
0.0
  0
LINE
  5
C6C
330
1A
100
AcDbEntity
  8
GUIDE
100
AcDbLine
 10
-1663.0
 20
40.74
 30
0.0
 11
-1663.0
 21
44.5
 31
0.0
  0
LINE
  5
C6D
330
1A
100
AcDbEntity
  8
GUIDE
100
AcDbLine
 10
-1657.0
 20
40.74
 30
0.0
 11
-1657.0
 21
44.5
 31
0.0
  0
LINE
  5
C6E
330
1A
100
AcDbEntity
  8
GUIDE
100
AcDbLine
 10
-1680.5
 20
-4.42
 30
0.0
 11
-1680.5
 21
-8.0
 31
0.0
  0
LINE
  5
C6F
330
1A
100
AcDbEntity
  8
GUIDE
100
AcDbLine
 10
-1674.5
 20
-4.42
 30
0.0
 11
-1674.5
 21
-8.0
 31
0.0
  0
LINE
  5
C70
330
1A
100
AcDbEntity
  8
GUIDE
100
AcDbLine
 10
-1674.5
 20
21.9
 30
0.0
 11
-1674.5
 21
3.1
 31
0.0
  0
LINE
  5
C71
330
1A
100
AcDbEntity
  8
GUIDE
100
AcDbLine
 10
-1680.5
 20
21.9
 30
0.0
 11
-1680.5
 21
3.1
 31
0.0
  0
LINE
  5
C72
330
1A
100
AcDbEntity
  8
GUIDE
100
AcDbLine
 10
-1667.0
 20
21.9
 30
0.0
 11
-1667.0
 21
29.42
 31
0.0
  0
LINE
  5
C73
330
1A
100
AcDbEntity
  8
GUIDE
100
AcDbLine
 10
-1667.0
 20
-4.42
 30
0.0
 11
-1667.0
 21
3.1
 31
0.0
  0
LINE
  5
C74
330
1A
100
AcDbEntity
  8
GUIDE
100
AcDbLine
 10
-1688.0
 20
-4.42
 30
0.0
 11
-1688.0
 21
3.1
 31
0.0
  0
LINE
  5
C75
330
1A
100
AcDbEntity
  8
GUIDE
100
AcDbLine
 10
-1688.0
 20
21.9
 30
0.0
 11
-1688.0
 21
29.42
 31
0.0
  0
LINE
  5
C76
330
1A
100
AcDbEntity
  8
GUIDE
100
AcDbLine
 10
-1667.0
 20
29.42
 30
0.0
 11
-1688.0
 21
29.42
 31
0.0
  0
LINE
  5
C77
330
1A
100
AcDbEntity
  8
GUIDE
100
AcDbLine
 10
-1667.0
 20
21.9
 30
0.0
 11
-1688.0
 21
21.9
 31
0.0
  0
LINE
  5
C78
330
1A
100
AcDbEntity
  8
GUIDE
100
AcDbLine
 10
-1667.0
 20
-4.42
 30
0.0
 11
-1688.0
 21
-4.42
 31
0.0
  0
LINE
  5
C79
330
1A
100
AcDbEntity
  8
GUIDE
100
AcDbLine
 10
-1667.0
 20
3.1
 30
0.0
 11
-1688.0
 21
3.1
 31
0.0
  0
LINE
  5
C7A
330
1A
100
AcDbEntity
  8
GUIDE
100
AcDbLine
 10
-1674.5
 20
18.14
 30
0.0
 11
-1680.5
 21
18.14
 31
0.0
  0
LINE
  5
C7B
330
1A
100
AcDbEntity
  8
GUIDE
100
AcDbLine
 10
-1680.5
 20
44.5
 30
0.0
 11
-1680.5
 21
29.42
 31
0.0
  0
LINE
  5
C7C
330
1A
100
AcDbEntity
  8
GUIDE
100
AcDbLine
 10
-1674.5
 20
44.5
 30
0.0
 11
-1674.5
 21
29.42
 31
0.0
  0
LINE
  5
C7D
330
1A
100
AcDbEntity
  8
GUIDE
100
AcDbLine
 10
-1614.5
 20
40.74
 30
0.0
 11
-1614.5
 21
33.22
 31
0.0
  0
LINE
  5
C7E
330
1A
100
AcDbEntity
  8
GUIDE
100
AcDbLine
 10
-1635.5
 20
40.74
 30
0.0
 11
-1635.5
 21
33.22
 31
0.0
  0
LINE
  5
C7F
330
1A
100
AcDbEntity
  8
GUIDE
100
AcDbLine
 10
-1614.5
 20
40.74
 30
0.0
 11
-1635.5
 21
40.74
 31
0.0
  0
LINE
  5
C80
330
1A
100
AcDbEntity
  8
GUIDE
100
AcDbLine
 10
-1614.5
 20
33.22
 30
0.0
 11
-1635.5
 21
33.22
 31
0.0
  0
LINE
  5
C81
330
1A
100
AcDbEntity
  8
GUIDE
100
AcDbLine
 10
-1622.0
 20
18.18
 30
0.0
 11
-1628.0
 21
18.18
 31
0.0
  0
LINE
  5
C82
330
1A
100
AcDbEntity
  8
GUIDE
100
AcDbLine
 10
-1614.5
 20
6.9
 30
0.0
 11
-1635.5
 21
6.9
 31
0.0
  0
LINE
  5
C83
330
1A
100
AcDbEntity
  8
GUIDE
100
AcDbLine
 10
-1614.5
 20
14.42
 30
0.0
 11
-1635.5
 21
14.42
 31
0.0
  0
LINE
  5
C84
330
1A
100
AcDbEntity
  8
GUIDE
100
AcDbLine
 10
-1635.5
 20
14.42
 30
0.0
 11
-1635.5
 21
6.9
 31
0.0
  0
LINE
  5
C85
330
1A
100
AcDbEntity
  8
GUIDE
100
AcDbLine
 10
-1614.5
 20
14.42
 30
0.0
 11
-1614.5
 21
6.9
 31
0.0
  0
LINE
  5
C86
330
1A
100
AcDbEntity
  8
GUIDE
100
AcDbLine
 10
-1628.0
 20
-8.0
 30
0.0
 11
-1628.0
 21
6.9
 31
0.0
  0
LINE
  5
C87
330
1A
100
AcDbEntity
  8
GUIDE
100
AcDbLine
 10
-1622.0
 20
-8.0
 30
0.0
 11
-1622.0
 21
6.9
 31
0.0
  0
LINE
  5
C88
330
1A
100
AcDbEntity
  8
GUIDE
100
AcDbLine
 10
-1622.0
 20
14.42
 30
0.0
 11
-1622.0
 21
33.22
 31
0.0
  0
LINE
  5
C89
330
1A
100
AcDbEntity
  8
GUIDE
100
AcDbLine
 10
-1628.0
 20
14.42
 30
0.0
 11
-1628.0
 21
33.22
 31
0.0
  0
LINE
  5
C8A
330
1A
100
AcDbEntity
  8
GUIDE
100
AcDbLine
 10
-1628.0
 20
40.74
 30
0.0
 11
-1628.0
 21
44.5
 31
0.0
  0
LINE
  5
C8B
330
1A
100
AcDbEntity
  8
GUIDE
100
AcDbLine
 10
-1622.0
 20
40.74
 30
0.0
 11
-1622.0
 21
44.5
 31
0.0
  0
LINE
  5
C8C
330
1A
100
AcDbEntity
  8
GUIDE
100
AcDbLine
 10
-1645.5
 20
-4.42
 30
0.0
 11
-1645.5
 21
-8.0
 31
0.0
  0
LINE
  5
C8D
330
1A
100
AcDbEntity
  8
GUIDE
100
AcDbLine
 10
-1639.5
 20
-4.42
 30
0.0
 11
-1639.5
 21
-8.0
 31
0.0
  0
LINE
  5
C8E
330
1A
100
AcDbEntity
  8
GUIDE
100
AcDbLine
 10
-1639.5
 20
21.9
 30
0.0
 11
-1639.5
 21
3.1
 31
0.0
  0
LINE
  5
C8F
330
1A
100
AcDbEntity
  8
GUIDE
100
AcDbLine
 10
-1645.5
 20
21.9
 30
0.0
 11
-1645.5
 21
3.1
 31
0.0
  0
LINE
  5
C90
330
1A
100
AcDbEntity
  8
GUIDE
100
AcDbLine
 10
-1632.0
 20
21.9
 30
0.0
 11
-1632.0
 21
29.42
 31
0.0
  0
LINE
  5
C91
330
1A
100
AcDbEntity
  8
GUIDE
100
AcDbLine
 10
-1632.0
 20
-4.42
 30
0.0
 11
-1632.0
 21
3.1
 31
0.0
  0
LINE
  5
C92
330
1A
100
AcDbEntity
  8
GUIDE
100
AcDbLine
 10
-1653.0
 20
-4.42
 30
0.0
 11
-1653.0
 21
3.1
 31
0.0
  0
LINE
  5
C93
330
1A
100
AcDbEntity
  8
GUIDE
100
AcDbLine
 10
-1653.0
 20
21.9
 30
0.0
 11
-1653.0
 21
29.42
 31
0.0
  0
LINE
  5
C94
330
1A
100
AcDbEntity
  8
GUIDE
100
AcDbLine
 10
-1632.0
 20
29.42
 30
0.0
 11
-1653.0
 21
29.42
 31
0.0
  0
LINE
  5
C95
330
1A
100
AcDbEntity
  8
GUIDE
100
AcDbLine
 10
-1632.0
 20
21.9
 30
0.0
 11
-1653.0
 21
21.9
 31
0.0
  0
LINE
  5
C96
330
1A
100
AcDbEntity
  8
GUIDE
100
AcDbLine
 10
-1632.0
 20
-4.42
 30
0.0
 11
-1653.0
 21
-4.42
 31
0.0
  0
LINE
  5
C97
330
1A
100
AcDbEntity
  8
GUIDE
100
AcDbLine
 10
-1632.0
 20
3.1
 30
0.0
 11
-1653.0
 21
3.1
 31
0.0
  0
LINE
  5
C98
330
1A
100
AcDbEntity
  8
GUIDE
100
AcDbLine
 10
-1639.5
 20
18.14
 30
0.0
 11
-1645.5
 21
18.14
 31
0.0
  0
LINE
  5
C99
330
1A
100
AcDbEntity
  8
GUIDE
100
AcDbLine
 10
-1645.5
 20
44.5
 30
0.0
 11
-1645.5
 21
29.42
 31
0.0
  0
LINE
  5
C9A
330
1A
100
AcDbEntity
  8
GUIDE
100
AcDbLine
 10
-1639.5
 20
44.5
 30
0.0
 11
-1639.5
 21
29.42
 31
0.0
  0
LINE
  5
C9B
330
1A
100
AcDbEntity
  8
GUIDE
100
AcDbLine
 10
-1579.5
 20
40.74
 30
0.0
 11
-1579.5
 21
33.22
 31
0.0
  0
LINE
  5
C9C
330
1A
100
AcDbEntity
  8
GUIDE
100
AcDbLine
 10
-1600.5
 20
40.74
 30
0.0
 11
-1600.5
 21
33.22
 31
0.0
  0
LINE
  5
C9D
330
1A
100
AcDbEntity
  8
GUIDE
100
AcDbLine
 10
-1579.5
 20
40.74
 30
0.0
 11
-1600.5
 21
40.74
 31
0.0
  0
LINE
  5
C9E
330
1A
100
AcDbEntity
  8
GUIDE
100
AcDbLine
 10
-1579.5
 20
33.22
 30
0.0
 11
-1600.5
 21
33.22
 31
0.0
  0
LINE
  5
C9F
330
1A
100
AcDbEntity
  8
GUIDE
100
AcDbLine
 10
-1587.0
 20
18.18
 30
0.0
 11
-1593.0
 21
18.18
 31
0.0
  0
LINE
  5
CA0
330
1A
100
AcDbEntity
  8
GUIDE
100
AcDbLine
 10
-1579.5
 20
6.9
 30
0.0
 11
-1600.5
 21
6.9
 31
0.0
  0
LINE
  5
CA1
330
1A
100
AcDbEntity
  8
GUIDE
100
AcDbLine
 10
-1579.5
 20
14.42
 30
0.0
 11
-1600.5
 21
14.42
 31
0.0
  0
LINE
  5
CA2
330
1A
100
AcDbEntity
  8
GUIDE
100
AcDbLine
 10
-1600.5
 20
14.42
 30
0.0
 11
-1600.5
 21
6.9
 31
0.0
  0
LINE
  5
CA3
330
1A
100
AcDbEntity
  8
GUIDE
100
AcDbLine
 10
-1579.5
 20
14.42
 30
0.0
 11
-1579.5
 21
6.9
 31
0.0
  0
LINE
  5
CA4
330
1A
100
AcDbEntity
  8
GUIDE
100
AcDbLine
 10
-1593.0
 20
-8.0
 30
0.0
 11
-1593.0
 21
6.9
 31
0.0
  0
LINE
  5
CA5
330
1A
100
AcDbEntity
  8
GUIDE
100
AcDbLine
 10
-1587.0
 20
-8.0
 30
0.0
 11
-1587.0
 21
6.9
 31
0.0
  0
LINE
  5
CA6
330
1A
100
AcDbEntity
  8
GUIDE
100
AcDbLine
 10
-1587.0
 20
14.42
 30
0.0
 11
-1587.0
 21
33.22
 31
0.0
  0
LINE
  5
CA7
330
1A
100
AcDbEntity
  8
GUIDE
100
AcDbLine
 10
-1593.0
 20
14.42
 30
0.0
 11
-1593.0
 21
33.22
 31
0.0
  0
LINE
  5
CA8
330
1A
100
AcDbEntity
  8
GUIDE
100
AcDbLine
 10
-1593.0
 20
40.74
 30
0.0
 11
-1593.0
 21
44.5
 31
0.0
  0
LINE
  5
CA9
330
1A
100
AcDbEntity
  8
GUIDE
100
AcDbLine
 10
-1587.0
 20
40.74
 30
0.0
 11
-1587.0
 21
44.5
 31
0.0
  0
LINE
  5
CAA
330
1A
100
AcDbEntity
  8
GUIDE
100
AcDbLine
 10
-1610.5
 20
-4.42
 30
0.0
 11
-1610.5
 21
-8.0
 31
0.0
  0
LINE
  5
CAB
330
1A
100
AcDbEntity
  8
GUIDE
100
AcDbLine
 10
-1604.5
 20
-4.42
 30
0.0
 11
-1604.5
 21
-8.0
 31
0.0
  0
LINE
  5
CAC
330
1A
100
AcDbEntity
  8
GUIDE
100
AcDbLine
 10
-1604.5
 20
21.9
 30
0.0
 11
-1604.5
 21
3.1
 31
0.0
  0
LINE
  5
CAD
330
1A
100
AcDbEntity
  8
GUIDE
100
AcDbLine
 10
-1610.5
 20
21.9
 30
0.0
 11
-1610.5
 21
3.1
 31
0.0
  0
LINE
  5
CAE
330
1A
100
AcDbEntity
  8
GUIDE
100
AcDbLine
 10
-1597.0
 20
21.9
 30
0.0
 11
-1597.0
 21
29.42
 31
0.0
  0
LINE
  5
CAF
330
1A
100
AcDbEntity
  8
GUIDE
100
AcDbLine
 10
-1597.0
 20
-4.42
 30
0.0
 11
-1597.0
 21
3.1
 31
0.0
  0
LINE
  5
CB0
330
1A
100
AcDbEntity
  8
GUIDE
100
AcDbLine
 10
-1618.0
 20
-4.42
 30
0.0
 11
-1618.0
 21
3.1
 31
0.0
  0
LINE
  5
CB1
330
1A
100
AcDbEntity
  8
GUIDE
100
AcDbLine
 10
-1618.0
 20
21.9
 30
0.0
 11
-1618.0
 21
29.42
 31
0.0
  0
LINE
  5
CB2
330
1A
100
AcDbEntity
  8
GUIDE
100
AcDbLine
 10
-1597.0
 20
29.42
 30
0.0
 11
-1618.0
 21
29.42
 31
0.0
  0
LINE
  5
CB3
330
1A
100
AcDbEntity
  8
GUIDE
100
AcDbLine
 10
-1597.0
 20
21.9
 30
0.0
 11
-1618.0
 21
21.9
 31
0.0
  0
LINE
  5
CB4
330
1A
100
AcDbEntity
  8
GUIDE
100
AcDbLine
 10
-1597.0
 20
-4.42
 30
0.0
 11
-1618.0
 21
-4.42
 31
0.0
  0
LINE
  5
CB5
330
1A
100
AcDbEntity
  8
GUIDE
100
AcDbLine
 10
-1597.0
 20
3.1
 30
0.0
 11
-1618.0
 21
3.1
 31
0.0
  0
LINE
  5
CB6
330
1A
100
AcDbEntity
  8
GUIDE
100
AcDbLine
 10
-1604.5
 20
18.14
 30
0.0
 11
-1610.5
 21
18.14
 31
0.0
  0
LINE
  5
CB7
330
1A
100
AcDbEntity
  8
GUIDE
100
AcDbLine
 10
-1610.5
 20
44.5
 30
0.0
 11
-1610.5
 21
29.42
 31
0.0
  0
LINE
  5
CB8
330
1A
100
AcDbEntity
  8
GUIDE
100
AcDbLine
 10
-1604.5
 20
44.5
 30
0.0
 11
-1604.5
 21
29.42
 31
0.0
  0
LINE
  5
CB9
330
1A
100
AcDbEntity
  8
GUIDE
100
AcDbLine
 10
-1544.5
 20
40.74
 30
0.0
 11
-1544.5
 21
33.22
 31
0.0
  0
LINE
  5
CBA
330
1A
100
AcDbEntity
  8
GUIDE
100
AcDbLine
 10
-1565.5
 20
40.74
 30
0.0
 11
-1565.5
 21
33.22
 31
0.0
  0
LINE
  5
CBB
330
1A
100
AcDbEntity
  8
GUIDE
100
AcDbLine
 10
-1544.5
 20
40.74
 30
0.0
 11
-1565.5
 21
40.74
 31
0.0
  0
LINE
  5
CBC
330
1A
100
AcDbEntity
  8
GUIDE
100
AcDbLine
 10
-1544.5
 20
33.22
 30
0.0
 11
-1565.5
 21
33.22
 31
0.0
  0
LINE
  5
CBD
330
1A
100
AcDbEntity
  8
GUIDE
100
AcDbLine
 10
-1552.0
 20
18.18
 30
0.0
 11
-1558.0
 21
18.18
 31
0.0
  0
LINE
  5
CBE
330
1A
100
AcDbEntity
  8
GUIDE
100
AcDbLine
 10
-1544.5
 20
6.9
 30
0.0
 11
-1565.5
 21
6.9
 31
0.0
  0
LINE
  5
CBF
330
1A
100
AcDbEntity
  8
GUIDE
100
AcDbLine
 10
-1544.5
 20
14.42
 30
0.0
 11
-1565.5
 21
14.42
 31
0.0
  0
LINE
  5
CC0
330
1A
100
AcDbEntity
  8
GUIDE
100
AcDbLine
 10
-1565.5
 20
14.42
 30
0.0
 11
-1565.5
 21
6.9
 31
0.0
  0
LINE
  5
CC1
330
1A
100
AcDbEntity
  8
GUIDE
100
AcDbLine
 10
-1544.5
 20
14.42
 30
0.0
 11
-1544.5
 21
6.9
 31
0.0
  0
LINE
  5
CC2
330
1A
100
AcDbEntity
  8
GUIDE
100
AcDbLine
 10
-1558.0
 20
-8.0
 30
0.0
 11
-1558.0
 21
6.9
 31
0.0
  0
LINE
  5
CC3
330
1A
100
AcDbEntity
  8
GUIDE
100
AcDbLine
 10
-1552.0
 20
-8.0
 30
0.0
 11
-1552.0
 21
6.9
 31
0.0
  0
LINE
  5
CC4
330
1A
100
AcDbEntity
  8
GUIDE
100
AcDbLine
 10
-1552.0
 20
14.42
 30
0.0
 11
-1552.0
 21
33.22
 31
0.0
  0
LINE
  5
CC5
330
1A
100
AcDbEntity
  8
GUIDE
100
AcDbLine
 10
-1558.0
 20
14.42
 30
0.0
 11
-1558.0
 21
33.22
 31
0.0
  0
LINE
  5
CC6
330
1A
100
AcDbEntity
  8
GUIDE
100
AcDbLine
 10
-1558.0
 20
40.74
 30
0.0
 11
-1558.0
 21
44.5
 31
0.0
  0
LINE
  5
CC7
330
1A
100
AcDbEntity
  8
GUIDE
100
AcDbLine
 10
-1552.0
 20
40.74
 30
0.0
 11
-1552.0
 21
44.5
 31
0.0
  0
LINE
  5
CC8
330
1A
100
AcDbEntity
  8
GUIDE
100
AcDbLine
 10
-1575.5
 20
-4.42
 30
0.0
 11
-1575.5
 21
-8.0
 31
0.0
  0
LINE
  5
CC9
330
1A
100
AcDbEntity
  8
GUIDE
100
AcDbLine
 10
-1569.5
 20
-4.42
 30
0.0
 11
-1569.5
 21
-8.0
 31
0.0
  0
LINE
  5
CCA
330
1A
100
AcDbEntity
  8
GUIDE
100
AcDbLine
 10
-1569.5
 20
21.9
 30
0.0
 11
-1569.5
 21
3.1
 31
0.0
  0
LINE
  5
CCB
330
1A
100
AcDbEntity
  8
GUIDE
100
AcDbLine
 10
-1575.5
 20
21.9
 30
0.0
 11
-1575.5
 21
3.1
 31
0.0
  0
LINE
  5
CCC
330
1A
100
AcDbEntity
  8
GUIDE
100
AcDbLine
 10
-1562.0
 20
21.9
 30
0.0
 11
-1562.0
 21
29.42
 31
0.0
  0
LINE
  5
CCD
330
1A
100
AcDbEntity
  8
GUIDE
100
AcDbLine
 10
-1562.0
 20
-4.42
 30
0.0
 11
-1562.0
 21
3.1
 31
0.0
  0
LINE
  5
CCE
330
1A
100
AcDbEntity
  8
GUIDE
100
AcDbLine
 10
-1583.0
 20
-4.42
 30
0.0
 11
-1583.0
 21
3.1
 31
0.0
  0
LINE
  5
CCF
330
1A
100
AcDbEntity
  8
GUIDE
100
AcDbLine
 10
-1583.0
 20
21.9
 30
0.0
 11
-1583.0
 21
29.42
 31
0.0
  0
LINE
  5
CD0
330
1A
100
AcDbEntity
  8
GUIDE
100
AcDbLine
 10
-1562.0
 20
29.42
 30
0.0
 11
-1583.0
 21
29.42
 31
0.0
  0
LINE
  5
CD1
330
1A
100
AcDbEntity
  8
GUIDE
100
AcDbLine
 10
-1562.0
 20
21.9
 30
0.0
 11
-1583.0
 21
21.9
 31
0.0
  0
LINE
  5
CD2
330
1A
100
AcDbEntity
  8
GUIDE
100
AcDbLine
 10
-1562.0
 20
-4.42
 30
0.0
 11
-1583.0
 21
-4.42
 31
0.0
  0
LINE
  5
CD3
330
1A
100
AcDbEntity
  8
GUIDE
100
AcDbLine
 10
-1562.0
 20
3.1
 30
0.0
 11
-1583.0
 21
3.1
 31
0.0
  0
LINE
  5
CD4
330
1A
100
AcDbEntity
  8
GUIDE
100
AcDbLine
 10
-1569.5
 20
18.14
 30
0.0
 11
-1575.5
 21
18.14
 31
0.0
  0
LINE
  5
CD5
330
1A
100
AcDbEntity
  8
GUIDE
100
AcDbLine
 10
-1575.5
 20
44.5
 30
0.0
 11
-1575.5
 21
29.42
 31
0.0
  0
LINE
  5
CD6
330
1A
100
AcDbEntity
  8
GUIDE
100
AcDbLine
 10
-1569.5
 20
44.5
 30
0.0
 11
-1569.5
 21
29.42
 31
0.0
  0
LINE
  5
CD7
330
1A
100
AcDbEntity
  8
GUIDE
100
AcDbLine
 10
-1509.5
 20
40.74
 30
0.0
 11
-1509.5
 21
33.22
 31
0.0
  0
LINE
  5
CD8
330
1A
100
AcDbEntity
  8
GUIDE
100
AcDbLine
 10
-1530.5
 20
40.74
 30
0.0
 11
-1530.5
 21
33.22
 31
0.0
  0
LINE
  5
CD9
330
1A
100
AcDbEntity
  8
GUIDE
100
AcDbLine
 10
-1509.5
 20
40.74
 30
0.0
 11
-1530.5
 21
40.74
 31
0.0
  0
LINE
  5
CDA
330
1A
100
AcDbEntity
  8
GUIDE
100
AcDbLine
 10
-1509.5
 20
33.22
 30
0.0
 11
-1530.5
 21
33.22
 31
0.0
  0
LINE
  5
CDB
330
1A
100
AcDbEntity
  8
GUIDE
100
AcDbLine
 10
-1517.0
 20
18.18
 30
0.0
 11
-1523.0
 21
18.18
 31
0.0
  0
LINE
  5
CDC
330
1A
100
AcDbEntity
  8
GUIDE
100
AcDbLine
 10
-1509.5
 20
6.9
 30
0.0
 11
-1530.5
 21
6.9
 31
0.0
  0
LINE
  5
CDD
330
1A
100
AcDbEntity
  8
GUIDE
100
AcDbLine
 10
-1509.5
 20
14.42
 30
0.0
 11
-1530.5
 21
14.42
 31
0.0
  0
LINE
  5
CDE
330
1A
100
AcDbEntity
  8
GUIDE
100
AcDbLine
 10
-1530.5
 20
14.42
 30
0.0
 11
-1530.5
 21
6.9
 31
0.0
  0
LINE
  5
CDF
330
1A
100
AcDbEntity
  8
GUIDE
100
AcDbLine
 10
-1509.5
 20
14.42
 30
0.0
 11
-1509.5
 21
6.9
 31
0.0
  0
LINE
  5
CE0
330
1A
100
AcDbEntity
  8
GUIDE
100
AcDbLine
 10
-1523.0
 20
-8.0
 30
0.0
 11
-1523.0
 21
6.9
 31
0.0
  0
LINE
  5
CE1
330
1A
100
AcDbEntity
  8
GUIDE
100
AcDbLine
 10
-1517.0
 20
-8.0
 30
0.0
 11
-1517.0
 21
6.9
 31
0.0
  0
LINE
  5
CE2
330
1A
100
AcDbEntity
  8
GUIDE
100
AcDbLine
 10
-1517.0
 20
14.42
 30
0.0
 11
-1517.0
 21
33.22
 31
0.0
  0
LINE
  5
CE3
330
1A
100
AcDbEntity
  8
GUIDE
100
AcDbLine
 10
-1523.0
 20
14.42
 30
0.0
 11
-1523.0
 21
33.22
 31
0.0
  0
LINE
  5
CE4
330
1A
100
AcDbEntity
  8
GUIDE
100
AcDbLine
 10
-1523.0
 20
40.74
 30
0.0
 11
-1523.0
 21
44.5
 31
0.0
  0
LINE
  5
CE5
330
1A
100
AcDbEntity
  8
GUIDE
100
AcDbLine
 10
-1517.0
 20
40.74
 30
0.0
 11
-1517.0
 21
44.5
 31
0.0
  0
LINE
  5
CE6
330
1A
100
AcDbEntity
  8
GUIDE
100
AcDbLine
 10
-1540.5
 20
-4.42
 30
0.0
 11
-1540.5
 21
-8.0
 31
0.0
  0
LINE
  5
CE7
330
1A
100
AcDbEntity
  8
GUIDE
100
AcDbLine
 10
-1534.5
 20
-4.42
 30
0.0
 11
-1534.5
 21
-8.0
 31
0.0
  0
LINE
  5
CE8
330
1A
100
AcDbEntity
  8
GUIDE
100
AcDbLine
 10
-1534.5
 20
21.9
 30
0.0
 11
-1534.5
 21
3.1
 31
0.0
  0
LINE
  5
CE9
330
1A
100
AcDbEntity
  8
GUIDE
100
AcDbLine
 10
-1540.5
 20
21.9
 30
0.0
 11
-1540.5
 21
3.1
 31
0.0
  0
LINE
  5
CEA
330
1A
100
AcDbEntity
  8
GUIDE
100
AcDbLine
 10
-1527.0
 20
21.9
 30
0.0
 11
-1527.0
 21
29.42
 31
0.0
  0
LINE
  5
CEB
330
1A
100
AcDbEntity
  8
GUIDE
100
AcDbLine
 10
-1527.0
 20
-4.42
 30
0.0
 11
-1527.0
 21
3.1
 31
0.0
  0
LINE
  5
CEC
330
1A
100
AcDbEntity
  8
GUIDE
100
AcDbLine
 10
-1548.0
 20
-4.42
 30
0.0
 11
-1548.0
 21
3.1
 31
0.0
  0
LINE
  5
CED
330
1A
100
AcDbEntity
  8
GUIDE
100
AcDbLine
 10
-1548.0
 20
21.9
 30
0.0
 11
-1548.0
 21
29.42
 31
0.0
  0
LINE
  5
CEE
330
1A
100
AcDbEntity
  8
GUIDE
100
AcDbLine
 10
-1527.0
 20
29.42
 30
0.0
 11
-1548.0
 21
29.42
 31
0.0
  0
LINE
  5
CEF
330
1A
100
AcDbEntity
  8
GUIDE
100
AcDbLine
 10
-1527.0
 20
21.9
 30
0.0
 11
-1548.0
 21
21.9
 31
0.0
  0
LINE
  5
CF0
330
1A
100
AcDbEntity
  8
GUIDE
100
AcDbLine
 10
-1527.0
 20
-4.42
 30
0.0
 11
-1548.0
 21
-4.42
 31
0.0
  0
LINE
  5
CF1
330
1A
100
AcDbEntity
  8
GUIDE
100
AcDbLine
 10
-1527.0
 20
3.1
 30
0.0
 11
-1548.0
 21
3.1
 31
0.0
  0
LINE
  5
CF2
330
1A
100
AcDbEntity
  8
GUIDE
100
AcDbLine
 10
-1534.5
 20
18.14
 30
0.0
 11
-1540.5
 21
18.14
 31
0.0
  0
LINE
  5
CF3
330
1A
100
AcDbEntity
  8
GUIDE
100
AcDbLine
 10
-1540.5
 20
44.5
 30
0.0
 11
-1540.5
 21
29.42
 31
0.0
  0
LINE
  5
CF4
330
1A
100
AcDbEntity
  8
GUIDE
100
AcDbLine
 10
-1534.5
 20
44.5
 30
0.0
 11
-1534.5
 21
29.42
 31
0.0
  0
LINE
  5
CF5
330
1A
100
AcDbEntity
  8
GUIDE
100
AcDbLine
 10
-1474.5
 20
40.74
 30
0.0
 11
-1474.5
 21
33.22
 31
0.0
  0
LINE
  5
CF6
330
1A
100
AcDbEntity
  8
GUIDE
100
AcDbLine
 10
-1495.5
 20
40.74
 30
0.0
 11
-1495.5
 21
33.22
 31
0.0
  0
LINE
  5
CF7
330
1A
100
AcDbEntity
  8
GUIDE
100
AcDbLine
 10
-1474.5
 20
40.74
 30
0.0
 11
-1495.5
 21
40.74
 31
0.0
  0
LINE
  5
CF8
330
1A
100
AcDbEntity
  8
GUIDE
100
AcDbLine
 10
-1474.5
 20
33.22
 30
0.0
 11
-1495.5
 21
33.22
 31
0.0
  0
LINE
  5
CF9
330
1A
100
AcDbEntity
  8
GUIDE
100
AcDbLine
 10
-1482.0
 20
18.18
 30
0.0
 11
-1488.0
 21
18.18
 31
0.0
  0
LINE
  5
CFA
330
1A
100
AcDbEntity
  8
GUIDE
100
AcDbLine
 10
-1474.5
 20
6.9
 30
0.0
 11
-1495.5
 21
6.9
 31
0.0
  0
LINE
  5
CFB
330
1A
100
AcDbEntity
  8
GUIDE
100
AcDbLine
 10
-1474.5
 20
14.42
 30
0.0
 11
-1495.5
 21
14.42
 31
0.0
  0
LINE
  5
CFC
330
1A
100
AcDbEntity
  8
GUIDE
100
AcDbLine
 10
-1495.5
 20
14.42
 30
0.0
 11
-1495.5
 21
6.9
 31
0.0
  0
LINE
  5
CFD
330
1A
100
AcDbEntity
  8
GUIDE
100
AcDbLine
 10
-1474.5
 20
14.42
 30
0.0
 11
-1474.5
 21
6.9
 31
0.0
  0
LINE
  5
CFE
330
1A
100
AcDbEntity
  8
GUIDE
100
AcDbLine
 10
-1488.0
 20
-8.0
 30
0.0
 11
-1488.0
 21
6.9
 31
0.0
  0
LINE
  5
CFF
330
1A
100
AcDbEntity
  8
GUIDE
100
AcDbLine
 10
-1482.0
 20
-8.0
 30
0.0
 11
-1482.0
 21
6.9
 31
0.0
  0
LINE
  5
D00
330
1A
100
AcDbEntity
  8
GUIDE
100
AcDbLine
 10
-1482.0
 20
14.42
 30
0.0
 11
-1482.0
 21
33.22
 31
0.0
  0
LINE
  5
D01
330
1A
100
AcDbEntity
  8
GUIDE
100
AcDbLine
 10
-1488.0
 20
14.42
 30
0.0
 11
-1488.0
 21
33.22
 31
0.0
  0
LINE
  5
D02
330
1A
100
AcDbEntity
  8
GUIDE
100
AcDbLine
 10
-1488.0
 20
40.74
 30
0.0
 11
-1488.0
 21
44.5
 31
0.0
  0
LINE
  5
D03
330
1A
100
AcDbEntity
  8
GUIDE
100
AcDbLine
 10
-1482.0
 20
40.74
 30
0.0
 11
-1482.0
 21
44.5
 31
0.0
  0
LINE
  5
D04
330
1A
100
AcDbEntity
  8
GUIDE
100
AcDbLine
 10
-1505.5
 20
-4.42
 30
0.0
 11
-1505.5
 21
-8.0
 31
0.0
  0
LINE
  5
D05
330
1A
100
AcDbEntity
  8
GUIDE
100
AcDbLine
 10
-1499.5
 20
-4.42
 30
0.0
 11
-1499.5
 21
-8.0
 31
0.0
  0
LINE
  5
D06
330
1A
100
AcDbEntity
  8
GUIDE
100
AcDbLine
 10
-1499.5
 20
21.9
 30
0.0
 11
-1499.5
 21
3.1
 31
0.0
  0
LINE
  5
D07
330
1A
100
AcDbEntity
  8
GUIDE
100
AcDbLine
 10
-1505.5
 20
21.9
 30
0.0
 11
-1505.5
 21
3.1
 31
0.0
  0
LINE
  5
D08
330
1A
100
AcDbEntity
  8
GUIDE
100
AcDbLine
 10
-1492.0
 20
21.9
 30
0.0
 11
-1492.0
 21
29.42
 31
0.0
  0
LINE
  5
D09
330
1A
100
AcDbEntity
  8
GUIDE
100
AcDbLine
 10
-1492.0
 20
-4.42
 30
0.0
 11
-1492.0
 21
3.1
 31
0.0
  0
LINE
  5
D0A
330
1A
100
AcDbEntity
  8
GUIDE
100
AcDbLine
 10
-1513.0
 20
-4.42
 30
0.0
 11
-1513.0
 21
3.1
 31
0.0
  0
LINE
  5
D0B
330
1A
100
AcDbEntity
  8
GUIDE
100
AcDbLine
 10
-1513.0
 20
21.9
 30
0.0
 11
-1513.0
 21
29.42
 31
0.0
  0
LINE
  5
D0C
330
1A
100
AcDbEntity
  8
GUIDE
100
AcDbLine
 10
-1492.0
 20
29.42
 30
0.0
 11
-1513.0
 21
29.42
 31
0.0
  0
LINE
  5
D0D
330
1A
100
AcDbEntity
  8
GUIDE
100
AcDbLine
 10
-1492.0
 20
21.9
 30
0.0
 11
-1513.0
 21
21.9
 31
0.0
  0
LINE
  5
D0E
330
1A
100
AcDbEntity
  8
GUIDE
100
AcDbLine
 10
-1492.0
 20
-4.42
 30
0.0
 11
-1513.0
 21
-4.42
 31
0.0
  0
LINE
  5
D0F
330
1A
100
AcDbEntity
  8
GUIDE
100
AcDbLine
 10
-1492.0
 20
3.1
 30
0.0
 11
-1513.0
 21
3.1
 31
0.0
  0
LINE
  5
D10
330
1A
100
AcDbEntity
  8
GUIDE
100
AcDbLine
 10
-1499.5
 20
18.14
 30
0.0
 11
-1505.5
 21
18.14
 31
0.0
  0
LINE
  5
D11
330
1A
100
AcDbEntity
  8
GUIDE
100
AcDbLine
 10
-1505.5
 20
44.5
 30
0.0
 11
-1505.5
 21
29.42
 31
0.0
  0
LINE
  5
D12
330
1A
100
AcDbEntity
  8
GUIDE
100
AcDbLine
 10
-1499.5
 20
44.5
 30
0.0
 11
-1499.5
 21
29.42
 31
0.0
  0
LINE
  5
D13
330
1A
100
AcDbEntity
  8
GUIDE
100
AcDbLine
 10
-1439.5
 20
40.74
 30
0.0
 11
-1439.5
 21
33.22
 31
0.0
  0
LINE
  5
D14
330
1A
100
AcDbEntity
  8
GUIDE
100
AcDbLine
 10
-1460.5
 20
40.74
 30
0.0
 11
-1460.5
 21
33.22
 31
0.0
  0
LINE
  5
D15
330
1A
100
AcDbEntity
  8
GUIDE
100
AcDbLine
 10
-1439.5
 20
40.74
 30
0.0
 11
-1460.5
 21
40.74
 31
0.0
  0
LINE
  5
D16
330
1A
100
AcDbEntity
  8
GUIDE
100
AcDbLine
 10
-1439.5
 20
33.22
 30
0.0
 11
-1460.5
 21
33.22
 31
0.0
  0
LINE
  5
D17
330
1A
100
AcDbEntity
  8
GUIDE
100
AcDbLine
 10
-1447.0
 20
18.18
 30
0.0
 11
-1453.0
 21
18.18
 31
0.0
  0
LINE
  5
D18
330
1A
100
AcDbEntity
  8
GUIDE
100
AcDbLine
 10
-1439.5
 20
6.9
 30
0.0
 11
-1460.5
 21
6.9
 31
0.0
  0
LINE
  5
D19
330
1A
100
AcDbEntity
  8
GUIDE
100
AcDbLine
 10
-1439.5
 20
14.42
 30
0.0
 11
-1460.5
 21
14.42
 31
0.0
  0
LINE
  5
D1A
330
1A
100
AcDbEntity
  8
GUIDE
100
AcDbLine
 10
-1460.5
 20
14.42
 30
0.0
 11
-1460.5
 21
6.9
 31
0.0
  0
LINE
  5
D1B
330
1A
100
AcDbEntity
  8
GUIDE
100
AcDbLine
 10
-1439.5
 20
14.42
 30
0.0
 11
-1439.5
 21
6.9
 31
0.0
  0
LINE
  5
D1C
330
1A
100
AcDbEntity
  8
GUIDE
100
AcDbLine
 10
-1453.0
 20
-8.0
 30
0.0
 11
-1453.0
 21
6.9
 31
0.0
  0
LINE
  5
D1D
330
1A
100
AcDbEntity
  8
GUIDE
100
AcDbLine
 10
-1447.0
 20
-8.0
 30
0.0
 11
-1447.0
 21
6.9
 31
0.0
  0
LINE
  5
D1E
330
1A
100
AcDbEntity
  8
GUIDE
100
AcDbLine
 10
-1447.0
 20
14.42
 30
0.0
 11
-1447.0
 21
33.22
 31
0.0
  0
LINE
  5
D1F
330
1A
100
AcDbEntity
  8
GUIDE
100
AcDbLine
 10
-1453.0
 20
14.42
 30
0.0
 11
-1453.0
 21
33.22
 31
0.0
  0
LINE
  5
D20
330
1A
100
AcDbEntity
  8
GUIDE
100
AcDbLine
 10
-1453.0
 20
40.74
 30
0.0
 11
-1453.0
 21
44.5
 31
0.0
  0
LINE
  5
D21
330
1A
100
AcDbEntity
  8
GUIDE
100
AcDbLine
 10
-1447.0
 20
40.74
 30
0.0
 11
-1447.0
 21
44.5
 31
0.0
  0
LINE
  5
D22
330
1A
100
AcDbEntity
  8
GUIDE
100
AcDbLine
 10
-1470.5
 20
-4.42
 30
0.0
 11
-1470.5
 21
-8.0
 31
0.0
  0
LINE
  5
D23
330
1A
100
AcDbEntity
  8
GUIDE
100
AcDbLine
 10
-1464.5
 20
-4.42
 30
0.0
 11
-1464.5
 21
-8.0
 31
0.0
  0
LINE
  5
D24
330
1A
100
AcDbEntity
  8
GUIDE
100
AcDbLine
 10
-1464.5
 20
21.9
 30
0.0
 11
-1464.5
 21
3.1
 31
0.0
  0
LINE
  5
D25
330
1A
100
AcDbEntity
  8
GUIDE
100
AcDbLine
 10
-1470.5
 20
21.9
 30
0.0
 11
-1470.5
 21
3.1
 31
0.0
  0
LINE
  5
D26
330
1A
100
AcDbEntity
  8
GUIDE
100
AcDbLine
 10
-1457.0
 20
21.9
 30
0.0
 11
-1457.0
 21
29.42
 31
0.0
  0
LINE
  5
D27
330
1A
100
AcDbEntity
  8
GUIDE
100
AcDbLine
 10
-1457.0
 20
-4.42
 30
0.0
 11
-1457.0
 21
3.1
 31
0.0
  0
LINE
  5
D28
330
1A
100
AcDbEntity
  8
GUIDE
100
AcDbLine
 10
-1478.0
 20
-4.42
 30
0.0
 11
-1478.0
 21
3.1
 31
0.0
  0
LINE
  5
D29
330
1A
100
AcDbEntity
  8
GUIDE
100
AcDbLine
 10
-1478.0
 20
21.9
 30
0.0
 11
-1478.0
 21
29.42
 31
0.0
  0
LINE
  5
D2A
330
1A
100
AcDbEntity
  8
GUIDE
100
AcDbLine
 10
-1457.0
 20
29.42
 30
0.0
 11
-1478.0
 21
29.42
 31
0.0
  0
LINE
  5
D2B
330
1A
100
AcDbEntity
  8
GUIDE
100
AcDbLine
 10
-1457.0
 20
21.9
 30
0.0
 11
-1478.0
 21
21.9
 31
0.0
  0
LINE
  5
D2C
330
1A
100
AcDbEntity
  8
GUIDE
100
AcDbLine
 10
-1457.0
 20
-4.42
 30
0.0
 11
-1478.0
 21
-4.42
 31
0.0
  0
LINE
  5
D2D
330
1A
100
AcDbEntity
  8
GUIDE
100
AcDbLine
 10
-1457.0
 20
3.1
 30
0.0
 11
-1478.0
 21
3.1
 31
0.0
  0
LINE
  5
D2E
330
1A
100
AcDbEntity
  8
GUIDE
100
AcDbLine
 10
-1464.5
 20
18.14
 30
0.0
 11
-1470.5
 21
18.14
 31
0.0
  0
LINE
  5
D2F
330
1A
100
AcDbEntity
  8
GUIDE
100
AcDbLine
 10
-1470.5
 20
44.5
 30
0.0
 11
-1470.5
 21
29.42
 31
0.0
  0
LINE
  5
D30
330
1A
100
AcDbEntity
  8
GUIDE
100
AcDbLine
 10
-1464.5
 20
44.5
 30
0.0
 11
-1464.5
 21
29.42
 31
0.0
  0
LINE
  5
D31
330
1A
100
AcDbEntity
  8
GUIDE
100
AcDbLine
 10
-1404.5
 20
40.74
 30
0.0
 11
-1404.5
 21
33.22
 31
0.0
  0
LINE
  5
D32
330
1A
100
AcDbEntity
  8
GUIDE
100
AcDbLine
 10
-1425.5
 20
40.74
 30
0.0
 11
-1425.5
 21
33.22
 31
0.0
  0
LINE
  5
D33
330
1A
100
AcDbEntity
  8
GUIDE
100
AcDbLine
 10
-1404.5
 20
40.74
 30
0.0
 11
-1425.5
 21
40.74
 31
0.0
  0
LINE
  5
D34
330
1A
100
AcDbEntity
  8
GUIDE
100
AcDbLine
 10
-1404.5
 20
33.22
 30
0.0
 11
-1425.5
 21
33.22
 31
0.0
  0
LINE
  5
D35
330
1A
100
AcDbEntity
  8
GUIDE
100
AcDbLine
 10
-1412.0
 20
18.18
 30
0.0
 11
-1418.0
 21
18.18
 31
0.0
  0
LINE
  5
D36
330
1A
100
AcDbEntity
  8
GUIDE
100
AcDbLine
 10
-1404.5
 20
6.9
 30
0.0
 11
-1425.5
 21
6.9
 31
0.0
  0
LINE
  5
D37
330
1A
100
AcDbEntity
  8
GUIDE
100
AcDbLine
 10
-1404.5
 20
14.42
 30
0.0
 11
-1425.5
 21
14.42
 31
0.0
  0
LINE
  5
D38
330
1A
100
AcDbEntity
  8
GUIDE
100
AcDbLine
 10
-1425.5
 20
14.42
 30
0.0
 11
-1425.5
 21
6.9
 31
0.0
  0
LINE
  5
D39
330
1A
100
AcDbEntity
  8
GUIDE
100
AcDbLine
 10
-1404.5
 20
14.42
 30
0.0
 11
-1404.5
 21
6.9
 31
0.0
  0
LINE
  5
D3A
330
1A
100
AcDbEntity
  8
GUIDE
100
AcDbLine
 10
-1418.0
 20
-8.0
 30
0.0
 11
-1418.0
 21
6.9
 31
0.0
  0
LINE
  5
D3B
330
1A
100
AcDbEntity
  8
GUIDE
100
AcDbLine
 10
-1412.0
 20
-8.0
 30
0.0
 11
-1412.0
 21
6.9
 31
0.0
  0
LINE
  5
D3C
330
1A
100
AcDbEntity
  8
GUIDE
100
AcDbLine
 10
-1412.0
 20
14.42
 30
0.0
 11
-1412.0
 21
33.22
 31
0.0
  0
LINE
  5
D3D
330
1A
100
AcDbEntity
  8
GUIDE
100
AcDbLine
 10
-1418.0
 20
14.42
 30
0.0
 11
-1418.0
 21
33.22
 31
0.0
  0
LINE
  5
D3E
330
1A
100
AcDbEntity
  8
GUIDE
100
AcDbLine
 10
-1418.0
 20
40.74
 30
0.0
 11
-1418.0
 21
44.5
 31
0.0
  0
LINE
  5
D3F
330
1A
100
AcDbEntity
  8
GUIDE
100
AcDbLine
 10
-1412.0
 20
40.74
 30
0.0
 11
-1412.0
 21
44.5
 31
0.0
  0
LINE
  5
D40
330
1A
100
AcDbEntity
  8
GUIDE
100
AcDbLine
 10
-1435.5
 20
-4.42
 30
0.0
 11
-1435.5
 21
-8.0
 31
0.0
  0
LINE
  5
D41
330
1A
100
AcDbEntity
  8
GUIDE
100
AcDbLine
 10
-1429.5
 20
-4.42
 30
0.0
 11
-1429.5
 21
-8.0
 31
0.0
  0
LINE
  5
D42
330
1A
100
AcDbEntity
  8
GUIDE
100
AcDbLine
 10
-1429.5
 20
21.9
 30
0.0
 11
-1429.5
 21
3.1
 31
0.0
  0
LINE
  5
D43
330
1A
100
AcDbEntity
  8
GUIDE
100
AcDbLine
 10
-1435.5
 20
21.9
 30
0.0
 11
-1435.5
 21
3.1
 31
0.0
  0
LINE
  5
D44
330
1A
100
AcDbEntity
  8
GUIDE
100
AcDbLine
 10
-1422.0
 20
21.9
 30
0.0
 11
-1422.0
 21
29.42
 31
0.0
  0
LINE
  5
D45
330
1A
100
AcDbEntity
  8
GUIDE
100
AcDbLine
 10
-1422.0
 20
-4.42
 30
0.0
 11
-1422.0
 21
3.1
 31
0.0
  0
LINE
  5
D46
330
1A
100
AcDbEntity
  8
GUIDE
100
AcDbLine
 10
-1443.0
 20
-4.42
 30
0.0
 11
-1443.0
 21
3.1
 31
0.0
  0
LINE
  5
D47
330
1A
100
AcDbEntity
  8
GUIDE
100
AcDbLine
 10
-1443.0
 20
21.9
 30
0.0
 11
-1443.0
 21
29.42
 31
0.0
  0
LINE
  5
D48
330
1A
100
AcDbEntity
  8
GUIDE
100
AcDbLine
 10
-1422.0
 20
29.42
 30
0.0
 11
-1443.0
 21
29.42
 31
0.0
  0
LINE
  5
D49
330
1A
100
AcDbEntity
  8
GUIDE
100
AcDbLine
 10
-1422.0
 20
21.9
 30
0.0
 11
-1443.0
 21
21.9
 31
0.0
  0
LINE
  5
D4A
330
1A
100
AcDbEntity
  8
GUIDE
100
AcDbLine
 10
-1422.0
 20
-4.42
 30
0.0
 11
-1443.0
 21
-4.42
 31
0.0
  0
LINE
  5
D4B
330
1A
100
AcDbEntity
  8
GUIDE
100
AcDbLine
 10
-1422.0
 20
3.1
 30
0.0
 11
-1443.0
 21
3.1
 31
0.0
  0
LINE
  5
D4C
330
1A
100
AcDbEntity
  8
GUIDE
100
AcDbLine
 10
-1429.5
 20
18.14
 30
0.0
 11
-1435.5
 21
18.14
 31
0.0
  0
LINE
  5
D4D
330
1A
100
AcDbEntity
  8
GUIDE
100
AcDbLine
 10
-1435.5
 20
44.5
 30
0.0
 11
-1435.5
 21
29.42
 31
0.0
  0
LINE
  5
D4E
330
1A
100
AcDbEntity
  8
GUIDE
100
AcDbLine
 10
-1429.5
 20
44.5
 30
0.0
 11
-1429.5
 21
29.42
 31
0.0
  0
LINE
  5
D4F
330
1A
100
AcDbEntity
  8
GUIDE
100
AcDbLine
 10
-1369.5
 20
40.74
 30
0.0
 11
-1369.5
 21
33.22
 31
0.0
  0
LINE
  5
D50
330
1A
100
AcDbEntity
  8
GUIDE
100
AcDbLine
 10
-1390.5
 20
40.74
 30
0.0
 11
-1390.5
 21
33.22
 31
0.0
  0
LINE
  5
D51
330
1A
100
AcDbEntity
  8
GUIDE
100
AcDbLine
 10
-1369.5
 20
40.74
 30
0.0
 11
-1390.5
 21
40.74
 31
0.0
  0
LINE
  5
D52
330
1A
100
AcDbEntity
  8
GUIDE
100
AcDbLine
 10
-1369.5
 20
33.22
 30
0.0
 11
-1390.5
 21
33.22
 31
0.0
  0
LINE
  5
D53
330
1A
100
AcDbEntity
  8
GUIDE
100
AcDbLine
 10
-1377.0
 20
18.18
 30
0.0
 11
-1383.0
 21
18.18
 31
0.0
  0
LINE
  5
D54
330
1A
100
AcDbEntity
  8
GUIDE
100
AcDbLine
 10
-1369.5
 20
6.9
 30
0.0
 11
-1390.5
 21
6.9
 31
0.0
  0
LINE
  5
D55
330
1A
100
AcDbEntity
  8
GUIDE
100
AcDbLine
 10
-1369.5
 20
14.42
 30
0.0
 11
-1390.5
 21
14.42
 31
0.0
  0
LINE
  5
D56
330
1A
100
AcDbEntity
  8
GUIDE
100
AcDbLine
 10
-1390.5
 20
14.42
 30
0.0
 11
-1390.5
 21
6.9
 31
0.0
  0
LINE
  5
D57
330
1A
100
AcDbEntity
  8
GUIDE
100
AcDbLine
 10
-1369.5
 20
14.42
 30
0.0
 11
-1369.5
 21
6.9
 31
0.0
  0
LINE
  5
D58
330
1A
100
AcDbEntity
  8
GUIDE
100
AcDbLine
 10
-1383.0
 20
-8.0
 30
0.0
 11
-1383.0
 21
6.9
 31
0.0
  0
LINE
  5
D59
330
1A
100
AcDbEntity
  8
GUIDE
100
AcDbLine
 10
-1377.0
 20
-8.0
 30
0.0
 11
-1377.0
 21
6.9
 31
0.0
  0
LINE
  5
D5A
330
1A
100
AcDbEntity
  8
GUIDE
100
AcDbLine
 10
-1377.0
 20
14.42
 30
0.0
 11
-1377.0
 21
33.22
 31
0.0
  0
LINE
  5
D5B
330
1A
100
AcDbEntity
  8
GUIDE
100
AcDbLine
 10
-1383.0
 20
14.42
 30
0.0
 11
-1383.0
 21
33.22
 31
0.0
  0
LINE
  5
D5C
330
1A
100
AcDbEntity
  8
GUIDE
100
AcDbLine
 10
-1383.0
 20
40.74
 30
0.0
 11
-1383.0
 21
44.5
 31
0.0
  0
LINE
  5
D5D
330
1A
100
AcDbEntity
  8
GUIDE
100
AcDbLine
 10
-1377.0
 20
40.74
 30
0.0
 11
-1377.0
 21
44.5
 31
0.0
  0
LINE
  5
D5E
330
1A
100
AcDbEntity
  8
GUIDE
100
AcDbLine
 10
-1400.5
 20
-4.42
 30
0.0
 11
-1400.5
 21
-8.0
 31
0.0
  0
LINE
  5
D5F
330
1A
100
AcDbEntity
  8
GUIDE
100
AcDbLine
 10
-1394.5
 20
-4.42
 30
0.0
 11
-1394.5
 21
-8.0
 31
0.0
  0
LINE
  5
D60
330
1A
100
AcDbEntity
  8
GUIDE
100
AcDbLine
 10
-1394.5
 20
21.9
 30
0.0
 11
-1394.5
 21
3.1
 31
0.0
  0
LINE
  5
D61
330
1A
100
AcDbEntity
  8
GUIDE
100
AcDbLine
 10
-1400.5
 20
21.9
 30
0.0
 11
-1400.5
 21
3.1
 31
0.0
  0
LINE
  5
D62
330
1A
100
AcDbEntity
  8
GUIDE
100
AcDbLine
 10
-1387.0
 20
21.9
 30
0.0
 11
-1387.0
 21
29.42
 31
0.0
  0
LINE
  5
D63
330
1A
100
AcDbEntity
  8
GUIDE
100
AcDbLine
 10
-1387.0
 20
-4.42
 30
0.0
 11
-1387.0
 21
3.1
 31
0.0
  0
LINE
  5
D64
330
1A
100
AcDbEntity
  8
GUIDE
100
AcDbLine
 10
-1408.0
 20
-4.42
 30
0.0
 11
-1408.0
 21
3.1
 31
0.0
  0
LINE
  5
D65
330
1A
100
AcDbEntity
  8
GUIDE
100
AcDbLine
 10
-1408.0
 20
21.9
 30
0.0
 11
-1408.0
 21
29.42
 31
0.0
  0
LINE
  5
D66
330
1A
100
AcDbEntity
  8
GUIDE
100
AcDbLine
 10
-1387.0
 20
29.42
 30
0.0
 11
-1408.0
 21
29.42
 31
0.0
  0
LINE
  5
D67
330
1A
100
AcDbEntity
  8
GUIDE
100
AcDbLine
 10
-1387.0
 20
21.9
 30
0.0
 11
-1408.0
 21
21.9
 31
0.0
  0
LINE
  5
D68
330
1A
100
AcDbEntity
  8
GUIDE
100
AcDbLine
 10
-1387.0
 20
-4.42
 30
0.0
 11
-1408.0
 21
-4.42
 31
0.0
  0
LINE
  5
D69
330
1A
100
AcDbEntity
  8
GUIDE
100
AcDbLine
 10
-1387.0
 20
3.1
 30
0.0
 11
-1408.0
 21
3.1
 31
0.0
  0
LINE
  5
D6A
330
1A
100
AcDbEntity
  8
GUIDE
100
AcDbLine
 10
-1394.5
 20
18.14
 30
0.0
 11
-1400.5
 21
18.14
 31
0.0
  0
LINE
  5
D6B
330
1A
100
AcDbEntity
  8
GUIDE
100
AcDbLine
 10
-1400.5
 20
44.5
 30
0.0
 11
-1400.5
 21
29.42
 31
0.0
  0
LINE
  5
D6C
330
1A
100
AcDbEntity
  8
GUIDE
100
AcDbLine
 10
-1394.5
 20
44.5
 30
0.0
 11
-1394.5
 21
29.42
 31
0.0
  0
LINE
  5
D6D
330
1A
100
AcDbEntity
  8
GUIDE
100
AcDbLine
 10
-1334.5
 20
40.74
 30
0.0
 11
-1334.5
 21
33.22
 31
0.0
  0
LINE
  5
D6E
330
1A
100
AcDbEntity
  8
GUIDE
100
AcDbLine
 10
-1355.5
 20
40.74
 30
0.0
 11
-1355.5
 21
33.22
 31
0.0
  0
LINE
  5
D6F
330
1A
100
AcDbEntity
  8
GUIDE
100
AcDbLine
 10
-1334.5
 20
40.74
 30
0.0
 11
-1355.5
 21
40.74
 31
0.0
  0
LINE
  5
D70
330
1A
100
AcDbEntity
  8
GUIDE
100
AcDbLine
 10
-1334.5
 20
33.22
 30
0.0
 11
-1355.5
 21
33.22
 31
0.0
  0
LINE
  5
D71
330
1A
100
AcDbEntity
  8
GUIDE
100
AcDbLine
 10
-1342.0
 20
18.18
 30
0.0
 11
-1348.0
 21
18.18
 31
0.0
  0
LINE
  5
D72
330
1A
100
AcDbEntity
  8
GUIDE
100
AcDbLine
 10
-1334.5
 20
6.9
 30
0.0
 11
-1355.5
 21
6.9
 31
0.0
  0
LINE
  5
D73
330
1A
100
AcDbEntity
  8
GUIDE
100
AcDbLine
 10
-1334.5
 20
14.42
 30
0.0
 11
-1355.5
 21
14.42
 31
0.0
  0
LINE
  5
D74
330
1A
100
AcDbEntity
  8
GUIDE
100
AcDbLine
 10
-1355.5
 20
14.42
 30
0.0
 11
-1355.5
 21
6.9
 31
0.0
  0
LINE
  5
D75
330
1A
100
AcDbEntity
  8
GUIDE
100
AcDbLine
 10
-1334.5
 20
14.42
 30
0.0
 11
-1334.5
 21
6.9
 31
0.0
  0
LINE
  5
D76
330
1A
100
AcDbEntity
  8
GUIDE
100
AcDbLine
 10
-1348.0
 20
-8.0
 30
0.0
 11
-1348.0
 21
6.9
 31
0.0
  0
LINE
  5
D77
330
1A
100
AcDbEntity
  8
GUIDE
100
AcDbLine
 10
-1342.0
 20
-8.0
 30
0.0
 11
-1342.0
 21
6.9
 31
0.0
  0
LINE
  5
D78
330
1A
100
AcDbEntity
  8
GUIDE
100
AcDbLine
 10
-1342.0
 20
14.42
 30
0.0
 11
-1342.0
 21
33.22
 31
0.0
  0
LINE
  5
D79
330
1A
100
AcDbEntity
  8
GUIDE
100
AcDbLine
 10
-1348.0
 20
14.42
 30
0.0
 11
-1348.0
 21
33.22
 31
0.0
  0
LINE
  5
D7A
330
1A
100
AcDbEntity
  8
GUIDE
100
AcDbLine
 10
-1348.0
 20
40.74
 30
0.0
 11
-1348.0
 21
44.5
 31
0.0
  0
LINE
  5
D7B
330
1A
100
AcDbEntity
  8
GUIDE
100
AcDbLine
 10
-1342.0
 20
40.74
 30
0.0
 11
-1342.0
 21
44.5
 31
0.0
  0
LINE
  5
D7C
330
1A
100
AcDbEntity
  8
GUIDE
100
AcDbLine
 10
-1365.5
 20
-4.42
 30
0.0
 11
-1365.5
 21
-8.0
 31
0.0
  0
LINE
  5
D7D
330
1A
100
AcDbEntity
  8
GUIDE
100
AcDbLine
 10
-1359.5
 20
-4.42
 30
0.0
 11
-1359.5
 21
-8.0
 31
0.0
  0
LINE
  5
D7E
330
1A
100
AcDbEntity
  8
GUIDE
100
AcDbLine
 10
-1359.5
 20
21.9
 30
0.0
 11
-1359.5
 21
3.1
 31
0.0
  0
LINE
  5
D7F
330
1A
100
AcDbEntity
  8
GUIDE
100
AcDbLine
 10
-1365.5
 20
21.9
 30
0.0
 11
-1365.5
 21
3.1
 31
0.0
  0
LINE
  5
D80
330
1A
100
AcDbEntity
  8
GUIDE
100
AcDbLine
 10
-1352.0
 20
21.9
 30
0.0
 11
-1352.0
 21
29.42
 31
0.0
  0
LINE
  5
D81
330
1A
100
AcDbEntity
  8
GUIDE
100
AcDbLine
 10
-1352.0
 20
-4.42
 30
0.0
 11
-1352.0
 21
3.1
 31
0.0
  0
LINE
  5
D82
330
1A
100
AcDbEntity
  8
GUIDE
100
AcDbLine
 10
-1373.0
 20
-4.42
 30
0.0
 11
-1373.0
 21
3.1
 31
0.0
  0
LINE
  5
D83
330
1A
100
AcDbEntity
  8
GUIDE
100
AcDbLine
 10
-1373.0
 20
21.9
 30
0.0
 11
-1373.0
 21
29.42
 31
0.0
  0
LINE
  5
D84
330
1A
100
AcDbEntity
  8
GUIDE
100
AcDbLine
 10
-1352.0
 20
29.42
 30
0.0
 11
-1373.0
 21
29.42
 31
0.0
  0
LINE
  5
D85
330
1A
100
AcDbEntity
  8
GUIDE
100
AcDbLine
 10
-1352.0
 20
21.9
 30
0.0
 11
-1373.0
 21
21.9
 31
0.0
  0
LINE
  5
D86
330
1A
100
AcDbEntity
  8
GUIDE
100
AcDbLine
 10
-1352.0
 20
-4.42
 30
0.0
 11
-1373.0
 21
-4.42
 31
0.0
  0
LINE
  5
D87
330
1A
100
AcDbEntity
  8
GUIDE
100
AcDbLine
 10
-1352.0
 20
3.1
 30
0.0
 11
-1373.0
 21
3.1
 31
0.0
  0
LINE
  5
D88
330
1A
100
AcDbEntity
  8
GUIDE
100
AcDbLine
 10
-1359.5
 20
18.14
 30
0.0
 11
-1365.5
 21
18.14
 31
0.0
  0
LINE
  5
D89
330
1A
100
AcDbEntity
  8
GUIDE
100
AcDbLine
 10
-1365.5
 20
44.5
 30
0.0
 11
-1365.5
 21
29.42
 31
0.0
  0
LINE
  5
D8A
330
1A
100
AcDbEntity
  8
GUIDE
100
AcDbLine
 10
-1359.5
 20
44.5
 30
0.0
 11
-1359.5
 21
29.42
 31
0.0
  0
LINE
  5
D8B
330
1A
100
AcDbEntity
  8
GUIDE
100
AcDbLine
 10
-1299.5
 20
40.74
 30
0.0
 11
-1299.5
 21
33.22
 31
0.0
  0
LINE
  5
D8C
330
1A
100
AcDbEntity
  8
GUIDE
100
AcDbLine
 10
-1320.5
 20
40.74
 30
0.0
 11
-1320.5
 21
33.22
 31
0.0
  0
LINE
  5
D8D
330
1A
100
AcDbEntity
  8
GUIDE
100
AcDbLine
 10
-1299.5
 20
40.74
 30
0.0
 11
-1320.5
 21
40.74
 31
0.0
  0
LINE
  5
D8E
330
1A
100
AcDbEntity
  8
GUIDE
100
AcDbLine
 10
-1299.5
 20
33.22
 30
0.0
 11
-1320.5
 21
33.22
 31
0.0
  0
LINE
  5
D8F
330
1A
100
AcDbEntity
  8
GUIDE
100
AcDbLine
 10
-1307.0
 20
18.18
 30
0.0
 11
-1313.0
 21
18.18
 31
0.0
  0
LINE
  5
D90
330
1A
100
AcDbEntity
  8
GUIDE
100
AcDbLine
 10
-1299.5
 20
6.9
 30
0.0
 11
-1320.5
 21
6.9
 31
0.0
  0
LINE
  5
D91
330
1A
100
AcDbEntity
  8
GUIDE
100
AcDbLine
 10
-1299.5
 20
14.42
 30
0.0
 11
-1320.5
 21
14.42
 31
0.0
  0
LINE
  5
D92
330
1A
100
AcDbEntity
  8
GUIDE
100
AcDbLine
 10
-1320.5
 20
14.42
 30
0.0
 11
-1320.5
 21
6.9
 31
0.0
  0
LINE
  5
D93
330
1A
100
AcDbEntity
  8
GUIDE
100
AcDbLine
 10
-1299.5
 20
14.42
 30
0.0
 11
-1299.5
 21
6.9
 31
0.0
  0
LINE
  5
D94
330
1A
100
AcDbEntity
  8
GUIDE
100
AcDbLine
 10
-1313.0
 20
-8.0
 30
0.0
 11
-1313.0
 21
6.9
 31
0.0
  0
LINE
  5
D95
330
1A
100
AcDbEntity
  8
GUIDE
100
AcDbLine
 10
-1307.0
 20
-8.0
 30
0.0
 11
-1307.0
 21
6.9
 31
0.0
  0
LINE
  5
D96
330
1A
100
AcDbEntity
  8
GUIDE
100
AcDbLine
 10
-1307.0
 20
14.42
 30
0.0
 11
-1307.0
 21
33.22
 31
0.0
  0
LINE
  5
D97
330
1A
100
AcDbEntity
  8
GUIDE
100
AcDbLine
 10
-1313.0
 20
14.42
 30
0.0
 11
-1313.0
 21
33.22
 31
0.0
  0
LINE
  5
D98
330
1A
100
AcDbEntity
  8
GUIDE
100
AcDbLine
 10
-1313.0
 20
40.74
 30
0.0
 11
-1313.0
 21
44.5
 31
0.0
  0
LINE
  5
D99
330
1A
100
AcDbEntity
  8
GUIDE
100
AcDbLine
 10
-1307.0
 20
40.74
 30
0.0
 11
-1307.0
 21
44.5
 31
0.0
  0
LINE
  5
D9A
330
1A
100
AcDbEntity
  8
GUIDE
100
AcDbLine
 10
-1330.5
 20
-4.42
 30
0.0
 11
-1330.5
 21
-8.0
 31
0.0
  0
LINE
  5
D9B
330
1A
100
AcDbEntity
  8
GUIDE
100
AcDbLine
 10
-1324.5
 20
-4.42
 30
0.0
 11
-1324.5
 21
-8.0
 31
0.0
  0
LINE
  5
D9C
330
1A
100
AcDbEntity
  8
GUIDE
100
AcDbLine
 10
-1324.5
 20
21.9
 30
0.0
 11
-1324.5
 21
3.1
 31
0.0
  0
LINE
  5
D9D
330
1A
100
AcDbEntity
  8
GUIDE
100
AcDbLine
 10
-1330.5
 20
21.9
 30
0.0
 11
-1330.5
 21
3.1
 31
0.0
  0
LINE
  5
D9E
330
1A
100
AcDbEntity
  8
GUIDE
100
AcDbLine
 10
-1317.0
 20
21.9
 30
0.0
 11
-1317.0
 21
29.42
 31
0.0
  0
LINE
  5
D9F
330
1A
100
AcDbEntity
  8
GUIDE
100
AcDbLine
 10
-1317.0
 20
-4.42
 30
0.0
 11
-1317.0
 21
3.1
 31
0.0
  0
LINE
  5
DA0
330
1A
100
AcDbEntity
  8
GUIDE
100
AcDbLine
 10
-1338.0
 20
-4.42
 30
0.0
 11
-1338.0
 21
3.1
 31
0.0
  0
LINE
  5
DA1
330
1A
100
AcDbEntity
  8
GUIDE
100
AcDbLine
 10
-1338.0
 20
21.9
 30
0.0
 11
-1338.0
 21
29.42
 31
0.0
  0
LINE
  5
DA2
330
1A
100
AcDbEntity
  8
GUIDE
100
AcDbLine
 10
-1317.0
 20
29.42
 30
0.0
 11
-1338.0
 21
29.42
 31
0.0
  0
LINE
  5
DA3
330
1A
100
AcDbEntity
  8
GUIDE
100
AcDbLine
 10
-1317.0
 20
21.9
 30
0.0
 11
-1338.0
 21
21.9
 31
0.0
  0
LINE
  5
DA4
330
1A
100
AcDbEntity
  8
GUIDE
100
AcDbLine
 10
-1317.0
 20
-4.42
 30
0.0
 11
-1338.0
 21
-4.42
 31
0.0
  0
LINE
  5
DA5
330
1A
100
AcDbEntity
  8
GUIDE
100
AcDbLine
 10
-1317.0
 20
3.1
 30
0.0
 11
-1338.0
 21
3.1
 31
0.0
  0
LINE
  5
DA6
330
1A
100
AcDbEntity
  8
GUIDE
100
AcDbLine
 10
-1324.5
 20
18.14
 30
0.0
 11
-1330.5
 21
18.14
 31
0.0
  0
LINE
  5
DA7
330
1A
100
AcDbEntity
  8
GUIDE
100
AcDbLine
 10
-1330.5
 20
44.5
 30
0.0
 11
-1330.5
 21
29.42
 31
0.0
  0
LINE
  5
DA8
330
1A
100
AcDbEntity
  8
GUIDE
100
AcDbLine
 10
-1324.5
 20
44.5
 30
0.0
 11
-1324.5
 21
29.42
 31
0.0
  0
LINE
  5
DA9
330
1A
100
AcDbEntity
  8
GUIDE
100
AcDbLine
 10
-1264.5
 20
40.74
 30
0.0
 11
-1264.5
 21
33.22
 31
0.0
  0
LINE
  5
DAA
330
1A
100
AcDbEntity
  8
GUIDE
100
AcDbLine
 10
-1285.5
 20
40.74
 30
0.0
 11
-1285.5
 21
33.22
 31
0.0
  0
LINE
  5
DAB
330
1A
100
AcDbEntity
  8
GUIDE
100
AcDbLine
 10
-1264.5
 20
40.74
 30
0.0
 11
-1285.5
 21
40.74
 31
0.0
  0
LINE
  5
DAC
330
1A
100
AcDbEntity
  8
GUIDE
100
AcDbLine
 10
-1264.5
 20
33.22
 30
0.0
 11
-1285.5
 21
33.22
 31
0.0
  0
LINE
  5
DAD
330
1A
100
AcDbEntity
  8
GUIDE
100
AcDbLine
 10
-1272.0
 20
18.18
 30
0.0
 11
-1278.0
 21
18.18
 31
0.0
  0
LINE
  5
DAE
330
1A
100
AcDbEntity
  8
GUIDE
100
AcDbLine
 10
-1264.5
 20
6.9
 30
0.0
 11
-1285.5
 21
6.9
 31
0.0
  0
LINE
  5
DAF
330
1A
100
AcDbEntity
  8
GUIDE
100
AcDbLine
 10
-1264.5
 20
14.42
 30
0.0
 11
-1285.5
 21
14.42
 31
0.0
  0
LINE
  5
DB0
330
1A
100
AcDbEntity
  8
GUIDE
100
AcDbLine
 10
-1285.5
 20
14.42
 30
0.0
 11
-1285.5
 21
6.9
 31
0.0
  0
LINE
  5
DB1
330
1A
100
AcDbEntity
  8
GUIDE
100
AcDbLine
 10
-1264.5
 20
14.42
 30
0.0
 11
-1264.5
 21
6.9
 31
0.0
  0
LINE
  5
DB2
330
1A
100
AcDbEntity
  8
GUIDE
100
AcDbLine
 10
-1278.0
 20
-8.0
 30
0.0
 11
-1278.0
 21
6.9
 31
0.0
  0
LINE
  5
DB3
330
1A
100
AcDbEntity
  8
GUIDE
100
AcDbLine
 10
-1272.0
 20
-8.0
 30
0.0
 11
-1272.0
 21
6.9
 31
0.0
  0
LINE
  5
DB4
330
1A
100
AcDbEntity
  8
GUIDE
100
AcDbLine
 10
-1272.0
 20
14.42
 30
0.0
 11
-1272.0
 21
33.22
 31
0.0
  0
LINE
  5
DB5
330
1A
100
AcDbEntity
  8
GUIDE
100
AcDbLine
 10
-1278.0
 20
14.42
 30
0.0
 11
-1278.0
 21
33.22
 31
0.0
  0
LINE
  5
DB6
330
1A
100
AcDbEntity
  8
GUIDE
100
AcDbLine
 10
-1278.0
 20
40.74
 30
0.0
 11
-1278.0
 21
44.5
 31
0.0
  0
LINE
  5
DB7
330
1A
100
AcDbEntity
  8
GUIDE
100
AcDbLine
 10
-1272.0
 20
40.74
 30
0.0
 11
-1272.0
 21
44.5
 31
0.0
  0
LINE
  5
DB8
330
1A
100
AcDbEntity
  8
GUIDE
100
AcDbLine
 10
-1295.5
 20
-4.42
 30
0.0
 11
-1295.5
 21
-8.0
 31
0.0
  0
LINE
  5
DB9
330
1A
100
AcDbEntity
  8
GUIDE
100
AcDbLine
 10
-1289.5
 20
-4.42
 30
0.0
 11
-1289.5
 21
-8.0
 31
0.0
  0
LINE
  5
DBA
330
1A
100
AcDbEntity
  8
GUIDE
100
AcDbLine
 10
-1289.5
 20
21.9
 30
0.0
 11
-1289.5
 21
3.1
 31
0.0
  0
LINE
  5
DBB
330
1A
100
AcDbEntity
  8
GUIDE
100
AcDbLine
 10
-1295.5
 20
21.9
 30
0.0
 11
-1295.5
 21
3.1
 31
0.0
  0
LINE
  5
DBC
330
1A
100
AcDbEntity
  8
GUIDE
100
AcDbLine
 10
-1282.0
 20
21.9
 30
0.0
 11
-1282.0
 21
29.42
 31
0.0
  0
LINE
  5
DBD
330
1A
100
AcDbEntity
  8
GUIDE
100
AcDbLine
 10
-1282.0
 20
-4.42
 30
0.0
 11
-1282.0
 21
3.1
 31
0.0
  0
LINE
  5
DBE
330
1A
100
AcDbEntity
  8
GUIDE
100
AcDbLine
 10
-1303.0
 20
-4.42
 30
0.0
 11
-1303.0
 21
3.1
 31
0.0
  0
LINE
  5
DBF
330
1A
100
AcDbEntity
  8
GUIDE
100
AcDbLine
 10
-1303.0
 20
21.9
 30
0.0
 11
-1303.0
 21
29.42
 31
0.0
  0
LINE
  5
DC0
330
1A
100
AcDbEntity
  8
GUIDE
100
AcDbLine
 10
-1282.0
 20
29.42
 30
0.0
 11
-1303.0
 21
29.42
 31
0.0
  0
LINE
  5
DC1
330
1A
100
AcDbEntity
  8
GUIDE
100
AcDbLine
 10
-1282.0
 20
21.9
 30
0.0
 11
-1303.0
 21
21.9
 31
0.0
  0
LINE
  5
DC2
330
1A
100
AcDbEntity
  8
GUIDE
100
AcDbLine
 10
-1282.0
 20
-4.42
 30
0.0
 11
-1303.0
 21
-4.42
 31
0.0
  0
LINE
  5
DC3
330
1A
100
AcDbEntity
  8
GUIDE
100
AcDbLine
 10
-1282.0
 20
3.1
 30
0.0
 11
-1303.0
 21
3.1
 31
0.0
  0
LINE
  5
DC4
330
1A
100
AcDbEntity
  8
GUIDE
100
AcDbLine
 10
-1289.5
 20
18.14
 30
0.0
 11
-1295.5
 21
18.14
 31
0.0
  0
LINE
  5
DC5
330
1A
100
AcDbEntity
  8
GUIDE
100
AcDbLine
 10
-1295.5
 20
44.5
 30
0.0
 11
-1295.5
 21
29.42
 31
0.0
  0
LINE
  5
DC6
330
1A
100
AcDbEntity
  8
GUIDE
100
AcDbLine
 10
-1289.5
 20
44.5
 30
0.0
 11
-1289.5
 21
29.42
 31
0.0
  0
LINE
  5
DC7
330
1A
100
AcDbEntity
  8
GUIDE
100
AcDbLine
 10
-1229.5
 20
40.74
 30
0.0
 11
-1229.5
 21
33.22
 31
0.0
  0
LINE
  5
DC8
330
1A
100
AcDbEntity
  8
GUIDE
100
AcDbLine
 10
-1250.5
 20
40.74
 30
0.0
 11
-1250.5
 21
33.22
 31
0.0
  0
LINE
  5
DC9
330
1A
100
AcDbEntity
  8
GUIDE
100
AcDbLine
 10
-1229.5
 20
40.74
 30
0.0
 11
-1250.5
 21
40.74
 31
0.0
  0
LINE
  5
DCA
330
1A
100
AcDbEntity
  8
GUIDE
100
AcDbLine
 10
-1229.5
 20
33.22
 30
0.0
 11
-1250.5
 21
33.22
 31
0.0
  0
LINE
  5
DCB
330
1A
100
AcDbEntity
  8
GUIDE
100
AcDbLine
 10
-1237.0
 20
18.18
 30
0.0
 11
-1243.0
 21
18.18
 31
0.0
  0
LINE
  5
DCC
330
1A
100
AcDbEntity
  8
GUIDE
100
AcDbLine
 10
-1229.5
 20
6.9
 30
0.0
 11
-1250.5
 21
6.9
 31
0.0
  0
LINE
  5
DCD
330
1A
100
AcDbEntity
  8
GUIDE
100
AcDbLine
 10
-1229.5
 20
14.42
 30
0.0
 11
-1250.5
 21
14.42
 31
0.0
  0
LINE
  5
DCE
330
1A
100
AcDbEntity
  8
GUIDE
100
AcDbLine
 10
-1250.5
 20
14.42
 30
0.0
 11
-1250.5
 21
6.9
 31
0.0
  0
LINE
  5
DCF
330
1A
100
AcDbEntity
  8
GUIDE
100
AcDbLine
 10
-1229.5
 20
14.42
 30
0.0
 11
-1229.5
 21
6.9
 31
0.0
  0
LINE
  5
DD0
330
1A
100
AcDbEntity
  8
GUIDE
100
AcDbLine
 10
-1243.0
 20
-8.0
 30
0.0
 11
-1243.0
 21
6.9
 31
0.0
  0
LINE
  5
DD1
330
1A
100
AcDbEntity
  8
GUIDE
100
AcDbLine
 10
-1237.0
 20
-8.0
 30
0.0
 11
-1237.0
 21
6.9
 31
0.0
  0
LINE
  5
DD2
330
1A
100
AcDbEntity
  8
GUIDE
100
AcDbLine
 10
-1237.0
 20
14.42
 30
0.0
 11
-1237.0
 21
33.22
 31
0.0
  0
LINE
  5
DD3
330
1A
100
AcDbEntity
  8
GUIDE
100
AcDbLine
 10
-1243.0
 20
14.42
 30
0.0
 11
-1243.0
 21
33.22
 31
0.0
  0
LINE
  5
DD4
330
1A
100
AcDbEntity
  8
GUIDE
100
AcDbLine
 10
-1243.0
 20
40.74
 30
0.0
 11
-1243.0
 21
44.5
 31
0.0
  0
LINE
  5
DD5
330
1A
100
AcDbEntity
  8
GUIDE
100
AcDbLine
 10
-1237.0
 20
40.74
 30
0.0
 11
-1237.0
 21
44.5
 31
0.0
  0
LINE
  5
DD6
330
1A
100
AcDbEntity
  8
GUIDE
100
AcDbLine
 10
-1260.5
 20
-4.42
 30
0.0
 11
-1260.5
 21
-8.0
 31
0.0
  0
LINE
  5
DD7
330
1A
100
AcDbEntity
  8
GUIDE
100
AcDbLine
 10
-1254.5
 20
-4.42
 30
0.0
 11
-1254.5
 21
-8.0
 31
0.0
  0
LINE
  5
DD8
330
1A
100
AcDbEntity
  8
GUIDE
100
AcDbLine
 10
-1254.5
 20
21.9
 30
0.0
 11
-1254.5
 21
3.1
 31
0.0
  0
LINE
  5
DD9
330
1A
100
AcDbEntity
  8
GUIDE
100
AcDbLine
 10
-1260.5
 20
21.9
 30
0.0
 11
-1260.5
 21
3.1
 31
0.0
  0
LINE
  5
DDA
330
1A
100
AcDbEntity
  8
GUIDE
100
AcDbLine
 10
-1247.0
 20
21.9
 30
0.0
 11
-1247.0
 21
29.42
 31
0.0
  0
LINE
  5
DDB
330
1A
100
AcDbEntity
  8
GUIDE
100
AcDbLine
 10
-1247.0
 20
-4.42
 30
0.0
 11
-1247.0
 21
3.1
 31
0.0
  0
LINE
  5
DDC
330
1A
100
AcDbEntity
  8
GUIDE
100
AcDbLine
 10
-1268.0
 20
-4.42
 30
0.0
 11
-1268.0
 21
3.1
 31
0.0
  0
LINE
  5
DDD
330
1A
100
AcDbEntity
  8
GUIDE
100
AcDbLine
 10
-1268.0
 20
21.9
 30
0.0
 11
-1268.0
 21
29.42
 31
0.0
  0
LINE
  5
DDE
330
1A
100
AcDbEntity
  8
GUIDE
100
AcDbLine
 10
-1247.0
 20
29.42
 30
0.0
 11
-1268.0
 21
29.42
 31
0.0
  0
LINE
  5
DDF
330
1A
100
AcDbEntity
  8
GUIDE
100
AcDbLine
 10
-1247.0
 20
21.9
 30
0.0
 11
-1268.0
 21
21.9
 31
0.0
  0
LINE
  5
DE0
330
1A
100
AcDbEntity
  8
GUIDE
100
AcDbLine
 10
-1247.0
 20
-4.42
 30
0.0
 11
-1268.0
 21
-4.42
 31
0.0
  0
LINE
  5
DE1
330
1A
100
AcDbEntity
  8
GUIDE
100
AcDbLine
 10
-1247.0
 20
3.1
 30
0.0
 11
-1268.0
 21
3.1
 31
0.0
  0
LINE
  5
DE2
330
1A
100
AcDbEntity
  8
GUIDE
100
AcDbLine
 10
-1254.5
 20
18.14
 30
0.0
 11
-1260.5
 21
18.14
 31
0.0
  0
LINE
  5
DE3
330
1A
100
AcDbEntity
  8
GUIDE
100
AcDbLine
 10
-1260.5
 20
44.5
 30
0.0
 11
-1260.5
 21
29.42
 31
0.0
  0
LINE
  5
DE4
330
1A
100
AcDbEntity
  8
GUIDE
100
AcDbLine
 10
-1254.5
 20
44.5
 30
0.0
 11
-1254.5
 21
29.42
 31
0.0
  0
LINE
  5
DE5
330
1A
100
AcDbEntity
  8
GUIDE
100
AcDbLine
 10
-1194.5
 20
40.74
 30
0.0
 11
-1194.5
 21
33.22
 31
0.0
  0
LINE
  5
DE6
330
1A
100
AcDbEntity
  8
GUIDE
100
AcDbLine
 10
-1215.5
 20
40.74
 30
0.0
 11
-1215.5
 21
33.22
 31
0.0
  0
LINE
  5
DE7
330
1A
100
AcDbEntity
  8
GUIDE
100
AcDbLine
 10
-1194.5
 20
40.74
 30
0.0
 11
-1215.5
 21
40.74
 31
0.0
  0
LINE
  5
DE8
330
1A
100
AcDbEntity
  8
GUIDE
100
AcDbLine
 10
-1194.5
 20
33.22
 30
0.0
 11
-1215.5
 21
33.22
 31
0.0
  0
LINE
  5
DE9
330
1A
100
AcDbEntity
  8
GUIDE
100
AcDbLine
 10
-1202.0
 20
18.18
 30
0.0
 11
-1208.0
 21
18.18
 31
0.0
  0
LINE
  5
DEA
330
1A
100
AcDbEntity
  8
GUIDE
100
AcDbLine
 10
-1194.5
 20
6.9
 30
0.0
 11
-1215.5
 21
6.9
 31
0.0
  0
LINE
  5
DEB
330
1A
100
AcDbEntity
  8
GUIDE
100
AcDbLine
 10
-1194.5
 20
14.42
 30
0.0
 11
-1215.5
 21
14.42
 31
0.0
  0
LINE
  5
DEC
330
1A
100
AcDbEntity
  8
GUIDE
100
AcDbLine
 10
-1215.5
 20
14.42
 30
0.0
 11
-1215.5
 21
6.9
 31
0.0
  0
LINE
  5
DED
330
1A
100
AcDbEntity
  8
GUIDE
100
AcDbLine
 10
-1194.5
 20
14.42
 30
0.0
 11
-1194.5
 21
6.9
 31
0.0
  0
LINE
  5
DEE
330
1A
100
AcDbEntity
  8
GUIDE
100
AcDbLine
 10
-1208.0
 20
-8.0
 30
0.0
 11
-1208.0
 21
6.9
 31
0.0
  0
LINE
  5
DEF
330
1A
100
AcDbEntity
  8
GUIDE
100
AcDbLine
 10
-1202.0
 20
-8.0
 30
0.0
 11
-1202.0
 21
6.9
 31
0.0
  0
LINE
  5
DF0
330
1A
100
AcDbEntity
  8
GUIDE
100
AcDbLine
 10
-1202.0
 20
14.42
 30
0.0
 11
-1202.0
 21
33.22
 31
0.0
  0
LINE
  5
DF1
330
1A
100
AcDbEntity
  8
GUIDE
100
AcDbLine
 10
-1208.0
 20
14.42
 30
0.0
 11
-1208.0
 21
33.22
 31
0.0
  0
LINE
  5
DF2
330
1A
100
AcDbEntity
  8
GUIDE
100
AcDbLine
 10
-1208.0
 20
40.74
 30
0.0
 11
-1208.0
 21
44.5
 31
0.0
  0
LINE
  5
DF3
330
1A
100
AcDbEntity
  8
GUIDE
100
AcDbLine
 10
-1202.0
 20
40.74
 30
0.0
 11
-1202.0
 21
44.5
 31
0.0
  0
LINE
  5
DF4
330
1A
100
AcDbEntity
  8
GUIDE
100
AcDbLine
 10
-1225.5
 20
-4.42
 30
0.0
 11
-1225.5
 21
-8.0
 31
0.0
  0
LINE
  5
DF5
330
1A
100
AcDbEntity
  8
GUIDE
100
AcDbLine
 10
-1219.5
 20
-4.42
 30
0.0
 11
-1219.5
 21
-8.0
 31
0.0
  0
LINE
  5
DF6
330
1A
100
AcDbEntity
  8
GUIDE
100
AcDbLine
 10
-1219.5
 20
21.9
 30
0.0
 11
-1219.5
 21
3.1
 31
0.0
  0
LINE
  5
DF7
330
1A
100
AcDbEntity
  8
GUIDE
100
AcDbLine
 10
-1225.5
 20
21.9
 30
0.0
 11
-1225.5
 21
3.1
 31
0.0
  0
LINE
  5
DF8
330
1A
100
AcDbEntity
  8
GUIDE
100
AcDbLine
 10
-1212.0
 20
21.9
 30
0.0
 11
-1212.0
 21
29.42
 31
0.0
  0
LINE
  5
DF9
330
1A
100
AcDbEntity
  8
GUIDE
100
AcDbLine
 10
-1212.0
 20
-4.42
 30
0.0
 11
-1212.0
 21
3.1
 31
0.0
  0
LINE
  5
DFA
330
1A
100
AcDbEntity
  8
GUIDE
100
AcDbLine
 10
-1233.0
 20
-4.42
 30
0.0
 11
-1233.0
 21
3.1
 31
0.0
  0
LINE
  5
DFB
330
1A
100
AcDbEntity
  8
GUIDE
100
AcDbLine
 10
-1233.0
 20
21.9
 30
0.0
 11
-1233.0
 21
29.42
 31
0.0
  0
LINE
  5
DFC
330
1A
100
AcDbEntity
  8
GUIDE
100
AcDbLine
 10
-1212.0
 20
29.42
 30
0.0
 11
-1233.0
 21
29.42
 31
0.0
  0
LINE
  5
DFD
330
1A
100
AcDbEntity
  8
GUIDE
100
AcDbLine
 10
-1212.0
 20
21.9
 30
0.0
 11
-1233.0
 21
21.9
 31
0.0
  0
LINE
  5
DFE
330
1A
100
AcDbEntity
  8
GUIDE
100
AcDbLine
 10
-1212.0
 20
-4.42
 30
0.0
 11
-1233.0
 21
-4.42
 31
0.0
  0
LINE
  5
DFF
330
1A
100
AcDbEntity
  8
GUIDE
100
AcDbLine
 10
-1212.0
 20
3.1
 30
0.0
 11
-1233.0
 21
3.1
 31
0.0
  0
LINE
  5
E00
330
1A
100
AcDbEntity
  8
GUIDE
100
AcDbLine
 10
-1219.5
 20
18.14
 30
0.0
 11
-1225.5
 21
18.14
 31
0.0
  0
LINE
  5
E01
330
1A
100
AcDbEntity
  8
GUIDE
100
AcDbLine
 10
-1225.5
 20
44.5
 30
0.0
 11
-1225.5
 21
29.42
 31
0.0
  0
LINE
  5
E02
330
1A
100
AcDbEntity
  8
GUIDE
100
AcDbLine
 10
-1219.5
 20
44.5
 30
0.0
 11
-1219.5
 21
29.42
 31
0.0
  0
LINE
  5
E03
330
1A
100
AcDbEntity
  8
GUIDE
100
AcDbLine
 10
-1159.5
 20
40.74
 30
0.0
 11
-1159.5
 21
33.22
 31
0.0
  0
LINE
  5
E04
330
1A
100
AcDbEntity
  8
GUIDE
100
AcDbLine
 10
-1180.5
 20
40.74
 30
0.0
 11
-1180.5
 21
33.22
 31
0.0
  0
LINE
  5
E05
330
1A
100
AcDbEntity
  8
GUIDE
100
AcDbLine
 10
-1159.5
 20
40.74
 30
0.0
 11
-1180.5
 21
40.74
 31
0.0
  0
LINE
  5
E06
330
1A
100
AcDbEntity
  8
GUIDE
100
AcDbLine
 10
-1159.5
 20
33.22
 30
0.0
 11
-1180.5
 21
33.22
 31
0.0
  0
LINE
  5
E07
330
1A
100
AcDbEntity
  8
GUIDE
100
AcDbLine
 10
-1167.0
 20
18.18
 30
0.0
 11
-1173.0
 21
18.18
 31
0.0
  0
LINE
  5
E08
330
1A
100
AcDbEntity
  8
GUIDE
100
AcDbLine
 10
-1159.5
 20
6.9
 30
0.0
 11
-1180.5
 21
6.9
 31
0.0
  0
LINE
  5
E09
330
1A
100
AcDbEntity
  8
GUIDE
100
AcDbLine
 10
-1159.5
 20
14.42
 30
0.0
 11
-1180.5
 21
14.42
 31
0.0
  0
LINE
  5
E0A
330
1A
100
AcDbEntity
  8
GUIDE
100
AcDbLine
 10
-1180.5
 20
14.42
 30
0.0
 11
-1180.5
 21
6.9
 31
0.0
  0
LINE
  5
E0B
330
1A
100
AcDbEntity
  8
GUIDE
100
AcDbLine
 10
-1159.5
 20
14.42
 30
0.0
 11
-1159.5
 21
6.9
 31
0.0
  0
LINE
  5
E0C
330
1A
100
AcDbEntity
  8
GUIDE
100
AcDbLine
 10
-1173.0
 20
-8.0
 30
0.0
 11
-1173.0
 21
6.9
 31
0.0
  0
LINE
  5
E0D
330
1A
100
AcDbEntity
  8
GUIDE
100
AcDbLine
 10
-1167.0
 20
-8.0
 30
0.0
 11
-1167.0
 21
6.9
 31
0.0
  0
LINE
  5
E0E
330
1A
100
AcDbEntity
  8
GUIDE
100
AcDbLine
 10
-1167.0
 20
14.42
 30
0.0
 11
-1167.0
 21
33.22
 31
0.0
  0
LINE
  5
E0F
330
1A
100
AcDbEntity
  8
GUIDE
100
AcDbLine
 10
-1173.0
 20
14.42
 30
0.0
 11
-1173.0
 21
33.22
 31
0.0
  0
LINE
  5
E10
330
1A
100
AcDbEntity
  8
GUIDE
100
AcDbLine
 10
-1173.0
 20
40.74
 30
0.0
 11
-1173.0
 21
44.5
 31
0.0
  0
LINE
  5
E11
330
1A
100
AcDbEntity
  8
GUIDE
100
AcDbLine
 10
-1167.0
 20
40.74
 30
0.0
 11
-1167.0
 21
44.5
 31
0.0
  0
LINE
  5
E12
330
1A
100
AcDbEntity
  8
GUIDE
100
AcDbLine
 10
-1190.5
 20
-4.42
 30
0.0
 11
-1190.5
 21
-8.0
 31
0.0
  0
LINE
  5
E13
330
1A
100
AcDbEntity
  8
GUIDE
100
AcDbLine
 10
-1184.5
 20
-4.42
 30
0.0
 11
-1184.5
 21
-8.0
 31
0.0
  0
LINE
  5
E14
330
1A
100
AcDbEntity
  8
GUIDE
100
AcDbLine
 10
-1184.5
 20
21.9
 30
0.0
 11
-1184.5
 21
3.1
 31
0.0
  0
LINE
  5
E15
330
1A
100
AcDbEntity
  8
GUIDE
100
AcDbLine
 10
-1190.5
 20
21.9
 30
0.0
 11
-1190.5
 21
3.1
 31
0.0
  0
LINE
  5
E16
330
1A
100
AcDbEntity
  8
GUIDE
100
AcDbLine
 10
-1177.0
 20
21.9
 30
0.0
 11
-1177.0
 21
29.42
 31
0.0
  0
LINE
  5
E17
330
1A
100
AcDbEntity
  8
GUIDE
100
AcDbLine
 10
-1177.0
 20
-4.42
 30
0.0
 11
-1177.0
 21
3.1
 31
0.0
  0
LINE
  5
E18
330
1A
100
AcDbEntity
  8
GUIDE
100
AcDbLine
 10
-1198.0
 20
-4.42
 30
0.0
 11
-1198.0
 21
3.1
 31
0.0
  0
LINE
  5
E19
330
1A
100
AcDbEntity
  8
GUIDE
100
AcDbLine
 10
-1198.0
 20
21.9
 30
0.0
 11
-1198.0
 21
29.42
 31
0.0
  0
LINE
  5
E1A
330
1A
100
AcDbEntity
  8
GUIDE
100
AcDbLine
 10
-1177.0
 20
29.42
 30
0.0
 11
-1198.0
 21
29.42
 31
0.0
  0
LINE
  5
E1B
330
1A
100
AcDbEntity
  8
GUIDE
100
AcDbLine
 10
-1177.0
 20
21.9
 30
0.0
 11
-1198.0
 21
21.9
 31
0.0
  0
LINE
  5
E1C
330
1A
100
AcDbEntity
  8
GUIDE
100
AcDbLine
 10
-1177.0
 20
-4.42
 30
0.0
 11
-1198.0
 21
-4.42
 31
0.0
  0
LINE
  5
E1D
330
1A
100
AcDbEntity
  8
GUIDE
100
AcDbLine
 10
-1177.0
 20
3.1
 30
0.0
 11
-1198.0
 21
3.1
 31
0.0
  0
LINE
  5
E1E
330
1A
100
AcDbEntity
  8
GUIDE
100
AcDbLine
 10
-1184.5
 20
18.14
 30
0.0
 11
-1190.5
 21
18.14
 31
0.0
  0
LINE
  5
E1F
330
1A
100
AcDbEntity
  8
GUIDE
100
AcDbLine
 10
-1190.5
 20
44.5
 30
0.0
 11
-1190.5
 21
29.42
 31
0.0
  0
LINE
  5
E20
330
1A
100
AcDbEntity
  8
GUIDE
100
AcDbLine
 10
-1184.5
 20
44.5
 30
0.0
 11
-1184.5
 21
29.42
 31
0.0
  0
LINE
  5
E21
330
1A
100
AcDbEntity
  8
GUIDE
100
AcDbLine
 10
-1124.5
 20
40.74
 30
0.0
 11
-1124.5
 21
33.22
 31
0.0
  0
LINE
  5
E22
330
1A
100
AcDbEntity
  8
GUIDE
100
AcDbLine
 10
-1145.5
 20
40.74
 30
0.0
 11
-1145.5
 21
33.22
 31
0.0
  0
LINE
  5
E23
330
1A
100
AcDbEntity
  8
GUIDE
100
AcDbLine
 10
-1124.5
 20
40.74
 30
0.0
 11
-1145.5
 21
40.74
 31
0.0
  0
LINE
  5
E24
330
1A
100
AcDbEntity
  8
GUIDE
100
AcDbLine
 10
-1124.5
 20
33.22
 30
0.0
 11
-1145.5
 21
33.22
 31
0.0
  0
LINE
  5
E25
330
1A
100
AcDbEntity
  8
GUIDE
100
AcDbLine
 10
-1132.0
 20
18.18
 30
0.0
 11
-1138.0
 21
18.18
 31
0.0
  0
LINE
  5
E26
330
1A
100
AcDbEntity
  8
GUIDE
100
AcDbLine
 10
-1124.5
 20
6.9
 30
0.0
 11
-1145.5
 21
6.9
 31
0.0
  0
LINE
  5
E27
330
1A
100
AcDbEntity
  8
GUIDE
100
AcDbLine
 10
-1124.5
 20
14.42
 30
0.0
 11
-1145.5
 21
14.42
 31
0.0
  0
LINE
  5
E28
330
1A
100
AcDbEntity
  8
GUIDE
100
AcDbLine
 10
-1145.5
 20
14.42
 30
0.0
 11
-1145.5
 21
6.9
 31
0.0
  0
LINE
  5
E29
330
1A
100
AcDbEntity
  8
GUIDE
100
AcDbLine
 10
-1124.5
 20
14.42
 30
0.0
 11
-1124.5
 21
6.9
 31
0.0
  0
LINE
  5
E2A
330
1A
100
AcDbEntity
  8
GUIDE
100
AcDbLine
 10
-1138.0
 20
-8.0
 30
0.0
 11
-1138.0
 21
6.9
 31
0.0
  0
LINE
  5
E2B
330
1A
100
AcDbEntity
  8
GUIDE
100
AcDbLine
 10
-1132.0
 20
-8.0
 30
0.0
 11
-1132.0
 21
6.9
 31
0.0
  0
LINE
  5
E2C
330
1A
100
AcDbEntity
  8
GUIDE
100
AcDbLine
 10
-1132.0
 20
14.42
 30
0.0
 11
-1132.0
 21
33.22
 31
0.0
  0
LINE
  5
E2D
330
1A
100
AcDbEntity
  8
GUIDE
100
AcDbLine
 10
-1138.0
 20
14.42
 30
0.0
 11
-1138.0
 21
33.22
 31
0.0
  0
LINE
  5
E2E
330
1A
100
AcDbEntity
  8
GUIDE
100
AcDbLine
 10
-1138.0
 20
40.74
 30
0.0
 11
-1138.0
 21
44.5
 31
0.0
  0
LINE
  5
E2F
330
1A
100
AcDbEntity
  8
GUIDE
100
AcDbLine
 10
-1132.0
 20
40.74
 30
0.0
 11
-1132.0
 21
44.5
 31
0.0
  0
LINE
  5
E30
330
1A
100
AcDbEntity
  8
GUIDE
100
AcDbLine
 10
-1155.5
 20
-4.42
 30
0.0
 11
-1155.5
 21
-8.0
 31
0.0
  0
LINE
  5
E31
330
1A
100
AcDbEntity
  8
GUIDE
100
AcDbLine
 10
-1149.5
 20
-4.42
 30
0.0
 11
-1149.5
 21
-8.0
 31
0.0
  0
LINE
  5
E32
330
1A
100
AcDbEntity
  8
GUIDE
100
AcDbLine
 10
-1149.5
 20
21.9
 30
0.0
 11
-1149.5
 21
3.1
 31
0.0
  0
LINE
  5
E33
330
1A
100
AcDbEntity
  8
GUIDE
100
AcDbLine
 10
-1155.5
 20
21.9
 30
0.0
 11
-1155.5
 21
3.1
 31
0.0
  0
LINE
  5
E34
330
1A
100
AcDbEntity
  8
GUIDE
100
AcDbLine
 10
-1142.0
 20
21.9
 30
0.0
 11
-1142.0
 21
29.42
 31
0.0
  0
LINE
  5
E35
330
1A
100
AcDbEntity
  8
GUIDE
100
AcDbLine
 10
-1142.0
 20
-4.42
 30
0.0
 11
-1142.0
 21
3.1
 31
0.0
  0
LINE
  5
E36
330
1A
100
AcDbEntity
  8
GUIDE
100
AcDbLine
 10
-1163.0
 20
-4.42
 30
0.0
 11
-1163.0
 21
3.1
 31
0.0
  0
LINE
  5
E37
330
1A
100
AcDbEntity
  8
GUIDE
100
AcDbLine
 10
-1163.0
 20
21.9
 30
0.0
 11
-1163.0
 21
29.42
 31
0.0
  0
LINE
  5
E38
330
1A
100
AcDbEntity
  8
GUIDE
100
AcDbLine
 10
-1142.0
 20
29.42
 30
0.0
 11
-1163.0
 21
29.42
 31
0.0
  0
LINE
  5
E39
330
1A
100
AcDbEntity
  8
GUIDE
100
AcDbLine
 10
-1142.0
 20
21.9
 30
0.0
 11
-1163.0
 21
21.9
 31
0.0
  0
LINE
  5
E3A
330
1A
100
AcDbEntity
  8
GUIDE
100
AcDbLine
 10
-1142.0
 20
-4.42
 30
0.0
 11
-1163.0
 21
-4.42
 31
0.0
  0
LINE
  5
E3B
330
1A
100
AcDbEntity
  8
GUIDE
100
AcDbLine
 10
-1142.0
 20
3.1
 30
0.0
 11
-1163.0
 21
3.1
 31
0.0
  0
LINE
  5
E3C
330
1A
100
AcDbEntity
  8
GUIDE
100
AcDbLine
 10
-1149.5
 20
18.14
 30
0.0
 11
-1155.5
 21
18.14
 31
0.0
  0
LINE
  5
E3D
330
1A
100
AcDbEntity
  8
GUIDE
100
AcDbLine
 10
-1155.5
 20
44.5
 30
0.0
 11
-1155.5
 21
29.42
 31
0.0
  0
LINE
  5
E3E
330
1A
100
AcDbEntity
  8
GUIDE
100
AcDbLine
 10
-1149.5
 20
44.5
 30
0.0
 11
-1149.5
 21
29.42
 31
0.0
  0
LINE
  5
E3F
330
1A
100
AcDbEntity
  8
GUIDE
100
AcDbLine
 10
-1089.5
 20
40.74
 30
0.0
 11
-1089.5
 21
33.22
 31
0.0
  0
LINE
  5
E40
330
1A
100
AcDbEntity
  8
GUIDE
100
AcDbLine
 10
-1110.5
 20
40.74
 30
0.0
 11
-1110.5
 21
33.22
 31
0.0
  0
LINE
  5
E41
330
1A
100
AcDbEntity
  8
GUIDE
100
AcDbLine
 10
-1089.5
 20
40.74
 30
0.0
 11
-1110.5
 21
40.74
 31
0.0
  0
LINE
  5
E42
330
1A
100
AcDbEntity
  8
GUIDE
100
AcDbLine
 10
-1089.5
 20
33.22
 30
0.0
 11
-1110.5
 21
33.22
 31
0.0
  0
LINE
  5
E43
330
1A
100
AcDbEntity
  8
GUIDE
100
AcDbLine
 10
-1097.0
 20
18.18
 30
0.0
 11
-1103.0
 21
18.18
 31
0.0
  0
LINE
  5
E44
330
1A
100
AcDbEntity
  8
GUIDE
100
AcDbLine
 10
-1089.5
 20
6.9
 30
0.0
 11
-1110.5
 21
6.9
 31
0.0
  0
LINE
  5
E45
330
1A
100
AcDbEntity
  8
GUIDE
100
AcDbLine
 10
-1089.5
 20
14.42
 30
0.0
 11
-1110.5
 21
14.42
 31
0.0
  0
LINE
  5
E46
330
1A
100
AcDbEntity
  8
GUIDE
100
AcDbLine
 10
-1110.5
 20
14.42
 30
0.0
 11
-1110.5
 21
6.9
 31
0.0
  0
LINE
  5
E47
330
1A
100
AcDbEntity
  8
GUIDE
100
AcDbLine
 10
-1089.5
 20
14.42
 30
0.0
 11
-1089.5
 21
6.9
 31
0.0
  0
LINE
  5
E48
330
1A
100
AcDbEntity
  8
GUIDE
100
AcDbLine
 10
-1103.0
 20
-8.0
 30
0.0
 11
-1103.0
 21
6.9
 31
0.0
  0
LINE
  5
E49
330
1A
100
AcDbEntity
  8
GUIDE
100
AcDbLine
 10
-1097.0
 20
-8.0
 30
0.0
 11
-1097.0
 21
6.9
 31
0.0
  0
LINE
  5
E4A
330
1A
100
AcDbEntity
  8
GUIDE
100
AcDbLine
 10
-1097.0
 20
14.42
 30
0.0
 11
-1097.0
 21
33.22
 31
0.0
  0
LINE
  5
E4B
330
1A
100
AcDbEntity
  8
GUIDE
100
AcDbLine
 10
-1103.0
 20
14.42
 30
0.0
 11
-1103.0
 21
33.22
 31
0.0
  0
LINE
  5
E4C
330
1A
100
AcDbEntity
  8
GUIDE
100
AcDbLine
 10
-1103.0
 20
40.74
 30
0.0
 11
-1103.0
 21
44.5
 31
0.0
  0
LINE
  5
E4D
330
1A
100
AcDbEntity
  8
GUIDE
100
AcDbLine
 10
-1097.0
 20
40.74
 30
0.0
 11
-1097.0
 21
44.5
 31
0.0
  0
LINE
  5
E4E
330
1A
100
AcDbEntity
  8
GUIDE
100
AcDbLine
 10
-1120.5
 20
-4.42
 30
0.0
 11
-1120.5
 21
-8.0
 31
0.0
  0
LINE
  5
E4F
330
1A
100
AcDbEntity
  8
GUIDE
100
AcDbLine
 10
-1114.5
 20
-4.42
 30
0.0
 11
-1114.5
 21
-8.0
 31
0.0
  0
LINE
  5
E50
330
1A
100
AcDbEntity
  8
GUIDE
100
AcDbLine
 10
-1114.5
 20
21.9
 30
0.0
 11
-1114.5
 21
3.1
 31
0.0
  0
LINE
  5
E51
330
1A
100
AcDbEntity
  8
GUIDE
100
AcDbLine
 10
-1120.5
 20
21.9
 30
0.0
 11
-1120.5
 21
3.1
 31
0.0
  0
LINE
  5
E52
330
1A
100
AcDbEntity
  8
GUIDE
100
AcDbLine
 10
-1107.0
 20
21.9
 30
0.0
 11
-1107.0
 21
29.42
 31
0.0
  0
LINE
  5
E53
330
1A
100
AcDbEntity
  8
GUIDE
100
AcDbLine
 10
-1107.0
 20
-4.42
 30
0.0
 11
-1107.0
 21
3.1
 31
0.0
  0
LINE
  5
E54
330
1A
100
AcDbEntity
  8
GUIDE
100
AcDbLine
 10
-1128.0
 20
-4.42
 30
0.0
 11
-1128.0
 21
3.1
 31
0.0
  0
LINE
  5
E55
330
1A
100
AcDbEntity
  8
GUIDE
100
AcDbLine
 10
-1128.0
 20
21.9
 30
0.0
 11
-1128.0
 21
29.42
 31
0.0
  0
LINE
  5
E56
330
1A
100
AcDbEntity
  8
GUIDE
100
AcDbLine
 10
-1107.0
 20
29.42
 30
0.0
 11
-1128.0
 21
29.42
 31
0.0
  0
LINE
  5
E57
330
1A
100
AcDbEntity
  8
GUIDE
100
AcDbLine
 10
-1107.0
 20
21.9
 30
0.0
 11
-1128.0
 21
21.9
 31
0.0
  0
LINE
  5
E58
330
1A
100
AcDbEntity
  8
GUIDE
100
AcDbLine
 10
-1107.0
 20
-4.42
 30
0.0
 11
-1128.0
 21
-4.42
 31
0.0
  0
LINE
  5
E59
330
1A
100
AcDbEntity
  8
GUIDE
100
AcDbLine
 10
-1107.0
 20
3.1
 30
0.0
 11
-1128.0
 21
3.1
 31
0.0
  0
LINE
  5
E5A
330
1A
100
AcDbEntity
  8
GUIDE
100
AcDbLine
 10
-1114.5
 20
18.14
 30
0.0
 11
-1120.5
 21
18.14
 31
0.0
  0
LINE
  5
E5B
330
1A
100
AcDbEntity
  8
GUIDE
100
AcDbLine
 10
-1120.5
 20
44.5
 30
0.0
 11
-1120.5
 21
29.42
 31
0.0
  0
LINE
  5
E5C
330
1A
100
AcDbEntity
  8
GUIDE
100
AcDbLine
 10
-1114.5
 20
44.5
 30
0.0
 11
-1114.5
 21
29.42
 31
0.0
  0
LINE
  5
E5D
330
1A
100
AcDbEntity
  8
GUIDE
100
AcDbLine
 10
-1054.5
 20
40.74
 30
0.0
 11
-1054.5
 21
33.22
 31
0.0
  0
LINE
  5
E5E
330
1A
100
AcDbEntity
  8
GUIDE
100
AcDbLine
 10
-1075.5
 20
40.74
 30
0.0
 11
-1075.5
 21
33.22
 31
0.0
  0
LINE
  5
E5F
330
1A
100
AcDbEntity
  8
GUIDE
100
AcDbLine
 10
-1054.5
 20
40.74
 30
0.0
 11
-1075.5
 21
40.74
 31
0.0
  0
LINE
  5
E60
330
1A
100
AcDbEntity
  8
GUIDE
100
AcDbLine
 10
-1054.5
 20
33.22
 30
0.0
 11
-1075.5
 21
33.22
 31
0.0
  0
LINE
  5
E61
330
1A
100
AcDbEntity
  8
GUIDE
100
AcDbLine
 10
-1062.0
 20
18.18
 30
0.0
 11
-1068.0
 21
18.18
 31
0.0
  0
LINE
  5
E62
330
1A
100
AcDbEntity
  8
GUIDE
100
AcDbLine
 10
-1054.5
 20
6.9
 30
0.0
 11
-1075.5
 21
6.9
 31
0.0
  0
LINE
  5
E63
330
1A
100
AcDbEntity
  8
GUIDE
100
AcDbLine
 10
-1054.5
 20
14.42
 30
0.0
 11
-1075.5
 21
14.42
 31
0.0
  0
LINE
  5
E64
330
1A
100
AcDbEntity
  8
GUIDE
100
AcDbLine
 10
-1075.5
 20
14.42
 30
0.0
 11
-1075.5
 21
6.9
 31
0.0
  0
LINE
  5
E65
330
1A
100
AcDbEntity
  8
GUIDE
100
AcDbLine
 10
-1054.5
 20
14.42
 30
0.0
 11
-1054.5
 21
6.9
 31
0.0
  0
LINE
  5
E66
330
1A
100
AcDbEntity
  8
GUIDE
100
AcDbLine
 10
-1068.0
 20
-8.0
 30
0.0
 11
-1068.0
 21
6.9
 31
0.0
  0
LINE
  5
E67
330
1A
100
AcDbEntity
  8
GUIDE
100
AcDbLine
 10
-1062.0
 20
-8.0
 30
0.0
 11
-1062.0
 21
6.9
 31
0.0
  0
LINE
  5
E68
330
1A
100
AcDbEntity
  8
GUIDE
100
AcDbLine
 10
-1062.0
 20
14.42
 30
0.0
 11
-1062.0
 21
33.22
 31
0.0
  0
LINE
  5
E69
330
1A
100
AcDbEntity
  8
GUIDE
100
AcDbLine
 10
-1068.0
 20
14.42
 30
0.0
 11
-1068.0
 21
33.22
 31
0.0
  0
LINE
  5
E6A
330
1A
100
AcDbEntity
  8
GUIDE
100
AcDbLine
 10
-1068.0
 20
40.74
 30
0.0
 11
-1068.0
 21
44.5
 31
0.0
  0
LINE
  5
E6B
330
1A
100
AcDbEntity
  8
GUIDE
100
AcDbLine
 10
-1062.0
 20
40.74
 30
0.0
 11
-1062.0
 21
44.5
 31
0.0
  0
LINE
  5
E6C
330
1A
100
AcDbEntity
  8
GUIDE
100
AcDbLine
 10
-1085.5
 20
-4.42
 30
0.0
 11
-1085.5
 21
-8.0
 31
0.0
  0
LINE
  5
E6D
330
1A
100
AcDbEntity
  8
GUIDE
100
AcDbLine
 10
-1079.5
 20
-4.42
 30
0.0
 11
-1079.5
 21
-8.0
 31
0.0
  0
LINE
  5
E6E
330
1A
100
AcDbEntity
  8
GUIDE
100
AcDbLine
 10
-1079.5
 20
21.9
 30
0.0
 11
-1079.5
 21
3.1
 31
0.0
  0
LINE
  5
E6F
330
1A
100
AcDbEntity
  8
GUIDE
100
AcDbLine
 10
-1085.5
 20
21.9
 30
0.0
 11
-1085.5
 21
3.1
 31
0.0
  0
LINE
  5
E70
330
1A
100
AcDbEntity
  8
GUIDE
100
AcDbLine
 10
-1072.0
 20
21.9
 30
0.0
 11
-1072.0
 21
29.42
 31
0.0
  0
LINE
  5
E71
330
1A
100
AcDbEntity
  8
GUIDE
100
AcDbLine
 10
-1072.0
 20
-4.42
 30
0.0
 11
-1072.0
 21
3.1
 31
0.0
  0
LINE
  5
E72
330
1A
100
AcDbEntity
  8
GUIDE
100
AcDbLine
 10
-1093.0
 20
-4.42
 30
0.0
 11
-1093.0
 21
3.1
 31
0.0
  0
LINE
  5
E73
330
1A
100
AcDbEntity
  8
GUIDE
100
AcDbLine
 10
-1093.0
 20
21.9
 30
0.0
 11
-1093.0
 21
29.42
 31
0.0
  0
LINE
  5
E74
330
1A
100
AcDbEntity
  8
GUIDE
100
AcDbLine
 10
-1072.0
 20
29.42
 30
0.0
 11
-1093.0
 21
29.42
 31
0.0
  0
LINE
  5
E75
330
1A
100
AcDbEntity
  8
GUIDE
100
AcDbLine
 10
-1072.0
 20
21.9
 30
0.0
 11
-1093.0
 21
21.9
 31
0.0
  0
LINE
  5
E76
330
1A
100
AcDbEntity
  8
GUIDE
100
AcDbLine
 10
-1072.0
 20
-4.42
 30
0.0
 11
-1093.0
 21
-4.42
 31
0.0
  0
LINE
  5
E77
330
1A
100
AcDbEntity
  8
GUIDE
100
AcDbLine
 10
-1072.0
 20
3.1
 30
0.0
 11
-1093.0
 21
3.1
 31
0.0
  0
LINE
  5
E78
330
1A
100
AcDbEntity
  8
GUIDE
100
AcDbLine
 10
-1079.5
 20
18.14
 30
0.0
 11
-1085.5
 21
18.14
 31
0.0
  0
LINE
  5
E79
330
1A
100
AcDbEntity
  8
GUIDE
100
AcDbLine
 10
-1085.5
 20
44.5
 30
0.0
 11
-1085.5
 21
29.42
 31
0.0
  0
LINE
  5
E7A
330
1A
100
AcDbEntity
  8
GUIDE
100
AcDbLine
 10
-1079.5
 20
44.5
 30
0.0
 11
-1079.5
 21
29.42
 31
0.0
  0
LINE
  5
E7B
330
1A
100
AcDbEntity
  8
GUIDE
100
AcDbLine
 10
-1019.5
 20
40.74
 30
0.0
 11
-1019.5
 21
33.22
 31
0.0
  0
LINE
  5
E7C
330
1A
100
AcDbEntity
  8
GUIDE
100
AcDbLine
 10
-1040.5
 20
40.74
 30
0.0
 11
-1040.5
 21
33.22
 31
0.0
  0
LINE
  5
E7D
330
1A
100
AcDbEntity
  8
GUIDE
100
AcDbLine
 10
-1019.5
 20
40.74
 30
0.0
 11
-1040.5
 21
40.74
 31
0.0
  0
LINE
  5
E7E
330
1A
100
AcDbEntity
  8
GUIDE
100
AcDbLine
 10
-1019.5
 20
33.22
 30
0.0
 11
-1040.5
 21
33.22
 31
0.0
  0
LINE
  5
E7F
330
1A
100
AcDbEntity
  8
GUIDE
100
AcDbLine
 10
-1027.0
 20
18.18
 30
0.0
 11
-1033.0
 21
18.18
 31
0.0
  0
LINE
  5
E80
330
1A
100
AcDbEntity
  8
GUIDE
100
AcDbLine
 10
-1019.5
 20
6.9
 30
0.0
 11
-1040.5
 21
6.9
 31
0.0
  0
LINE
  5
E81
330
1A
100
AcDbEntity
  8
GUIDE
100
AcDbLine
 10
-1019.5
 20
14.42
 30
0.0
 11
-1040.5
 21
14.42
 31
0.0
  0
LINE
  5
E82
330
1A
100
AcDbEntity
  8
GUIDE
100
AcDbLine
 10
-1040.5
 20
14.42
 30
0.0
 11
-1040.5
 21
6.9
 31
0.0
  0
LINE
  5
E83
330
1A
100
AcDbEntity
  8
GUIDE
100
AcDbLine
 10
-1019.5
 20
14.42
 30
0.0
 11
-1019.5
 21
6.9
 31
0.0
  0
LINE
  5
E84
330
1A
100
AcDbEntity
  8
GUIDE
100
AcDbLine
 10
-1033.0
 20
-8.0
 30
0.0
 11
-1033.0
 21
6.9
 31
0.0
  0
LINE
  5
E85
330
1A
100
AcDbEntity
  8
GUIDE
100
AcDbLine
 10
-1027.0
 20
-8.0
 30
0.0
 11
-1027.0
 21
6.9
 31
0.0
  0
LINE
  5
E86
330
1A
100
AcDbEntity
  8
GUIDE
100
AcDbLine
 10
-1027.0
 20
14.42
 30
0.0
 11
-1027.0
 21
33.22
 31
0.0
  0
LINE
  5
E87
330
1A
100
AcDbEntity
  8
GUIDE
100
AcDbLine
 10
-1033.0
 20
14.42
 30
0.0
 11
-1033.0
 21
33.22
 31
0.0
  0
LINE
  5
E88
330
1A
100
AcDbEntity
  8
GUIDE
100
AcDbLine
 10
-1033.0
 20
40.74
 30
0.0
 11
-1033.0
 21
44.5
 31
0.0
  0
LINE
  5
E89
330
1A
100
AcDbEntity
  8
GUIDE
100
AcDbLine
 10
-1027.0
 20
40.74
 30
0.0
 11
-1027.0
 21
44.5
 31
0.0
  0
LINE
  5
E8A
330
1A
100
AcDbEntity
  8
GUIDE
100
AcDbLine
 10
-1050.5
 20
-4.42
 30
0.0
 11
-1050.5
 21
-8.0
 31
0.0
  0
LINE
  5
E8B
330
1A
100
AcDbEntity
  8
GUIDE
100
AcDbLine
 10
-1044.5
 20
-4.42
 30
0.0
 11
-1044.5
 21
-8.0
 31
0.0
  0
LINE
  5
E8C
330
1A
100
AcDbEntity
  8
GUIDE
100
AcDbLine
 10
-1044.5
 20
21.9
 30
0.0
 11
-1044.5
 21
3.1
 31
0.0
  0
LINE
  5
E8D
330
1A
100
AcDbEntity
  8
GUIDE
100
AcDbLine
 10
-1050.5
 20
21.9
 30
0.0
 11
-1050.5
 21
3.1
 31
0.0
  0
LINE
  5
E8E
330
1A
100
AcDbEntity
  8
GUIDE
100
AcDbLine
 10
-1037.0
 20
21.9
 30
0.0
 11
-1037.0
 21
29.42
 31
0.0
  0
LINE
  5
E8F
330
1A
100
AcDbEntity
  8
GUIDE
100
AcDbLine
 10
-1037.0
 20
-4.42
 30
0.0
 11
-1037.0
 21
3.1
 31
0.0
  0
LINE
  5
E90
330
1A
100
AcDbEntity
  8
GUIDE
100
AcDbLine
 10
-1058.0
 20
-4.42
 30
0.0
 11
-1058.0
 21
3.1
 31
0.0
  0
LINE
  5
E91
330
1A
100
AcDbEntity
  8
GUIDE
100
AcDbLine
 10
-1058.0
 20
21.9
 30
0.0
 11
-1058.0
 21
29.42
 31
0.0
  0
LINE
  5
E92
330
1A
100
AcDbEntity
  8
GUIDE
100
AcDbLine
 10
-1037.0
 20
29.42
 30
0.0
 11
-1058.0
 21
29.42
 31
0.0
  0
LINE
  5
E93
330
1A
100
AcDbEntity
  8
GUIDE
100
AcDbLine
 10
-1037.0
 20
21.9
 30
0.0
 11
-1058.0
 21
21.9
 31
0.0
  0
LINE
  5
E94
330
1A
100
AcDbEntity
  8
GUIDE
100
AcDbLine
 10
-1037.0
 20
-4.42
 30
0.0
 11
-1058.0
 21
-4.42
 31
0.0
  0
LINE
  5
E95
330
1A
100
AcDbEntity
  8
GUIDE
100
AcDbLine
 10
-1037.0
 20
3.1
 30
0.0
 11
-1058.0
 21
3.1
 31
0.0
  0
LINE
  5
E96
330
1A
100
AcDbEntity
  8
GUIDE
100
AcDbLine
 10
-1044.5
 20
18.14
 30
0.0
 11
-1050.5
 21
18.14
 31
0.0
  0
LINE
  5
E97
330
1A
100
AcDbEntity
  8
GUIDE
100
AcDbLine
 10
-1050.5
 20
44.5
 30
0.0
 11
-1050.5
 21
29.42
 31
0.0
  0
LINE
  5
E98
330
1A
100
AcDbEntity
  8
GUIDE
100
AcDbLine
 10
-1044.5
 20
44.5
 30
0.0
 11
-1044.5
 21
29.42
 31
0.0
  0
LINE
  5
E99
330
1A
100
AcDbEntity
  8
GUIDE
100
AcDbLine
 10
-984.5
 20
40.74
 30
0.0
 11
-984.5
 21
33.22
 31
0.0
  0
LINE
  5
E9A
330
1A
100
AcDbEntity
  8
GUIDE
100
AcDbLine
 10
-1005.5
 20
40.74
 30
0.0
 11
-1005.5
 21
33.22
 31
0.0
  0
LINE
  5
E9B
330
1A
100
AcDbEntity
  8
GUIDE
100
AcDbLine
 10
-984.5
 20
40.74
 30
0.0
 11
-1005.5
 21
40.74
 31
0.0
  0
LINE
  5
E9C
330
1A
100
AcDbEntity
  8
GUIDE
100
AcDbLine
 10
-984.5
 20
33.22
 30
0.0
 11
-1005.5
 21
33.22
 31
0.0
  0
LINE
  5
E9D
330
1A
100
AcDbEntity
  8
GUIDE
100
AcDbLine
 10
-992.0
 20
18.18
 30
0.0
 11
-998.0
 21
18.18
 31
0.0
  0
LINE
  5
E9E
330
1A
100
AcDbEntity
  8
GUIDE
100
AcDbLine
 10
-984.5
 20
6.9
 30
0.0
 11
-1005.5
 21
6.9
 31
0.0
  0
LINE
  5
E9F
330
1A
100
AcDbEntity
  8
GUIDE
100
AcDbLine
 10
-984.5
 20
14.42
 30
0.0
 11
-1005.5
 21
14.42
 31
0.0
  0
LINE
  5
EA0
330
1A
100
AcDbEntity
  8
GUIDE
100
AcDbLine
 10
-1005.5
 20
14.42
 30
0.0
 11
-1005.5
 21
6.9
 31
0.0
  0
LINE
  5
EA1
330
1A
100
AcDbEntity
  8
GUIDE
100
AcDbLine
 10
-984.5
 20
14.42
 30
0.0
 11
-984.5
 21
6.9
 31
0.0
  0
LINE
  5
EA2
330
1A
100
AcDbEntity
  8
GUIDE
100
AcDbLine
 10
-998.0
 20
-8.0
 30
0.0
 11
-998.0
 21
6.9
 31
0.0
  0
LINE
  5
EA3
330
1A
100
AcDbEntity
  8
GUIDE
100
AcDbLine
 10
-992.0
 20
-8.0
 30
0.0
 11
-992.0
 21
6.9
 31
0.0
  0
LINE
  5
EA4
330
1A
100
AcDbEntity
  8
GUIDE
100
AcDbLine
 10
-992.0
 20
14.42
 30
0.0
 11
-992.0
 21
33.22
 31
0.0
  0
LINE
  5
EA5
330
1A
100
AcDbEntity
  8
GUIDE
100
AcDbLine
 10
-998.0
 20
14.42
 30
0.0
 11
-998.0
 21
33.22
 31
0.0
  0
LINE
  5
EA6
330
1A
100
AcDbEntity
  8
GUIDE
100
AcDbLine
 10
-998.0
 20
40.74
 30
0.0
 11
-998.0
 21
44.5
 31
0.0
  0
LINE
  5
EA7
330
1A
100
AcDbEntity
  8
GUIDE
100
AcDbLine
 10
-992.0
 20
40.74
 30
0.0
 11
-992.0
 21
44.5
 31
0.0
  0
LINE
  5
EA8
330
1A
100
AcDbEntity
  8
GUIDE
100
AcDbLine
 10
-1015.5
 20
-4.42
 30
0.0
 11
-1015.5
 21
-8.0
 31
0.0
  0
LINE
  5
EA9
330
1A
100
AcDbEntity
  8
GUIDE
100
AcDbLine
 10
-1009.5
 20
-4.42
 30
0.0
 11
-1009.5
 21
-8.0
 31
0.0
  0
LINE
  5
EAA
330
1A
100
AcDbEntity
  8
GUIDE
100
AcDbLine
 10
-1009.5
 20
21.9
 30
0.0
 11
-1009.5
 21
3.1
 31
0.0
  0
LINE
  5
EAB
330
1A
100
AcDbEntity
  8
GUIDE
100
AcDbLine
 10
-1015.5
 20
21.9
 30
0.0
 11
-1015.5
 21
3.1
 31
0.0
  0
LINE
  5
EAC
330
1A
100
AcDbEntity
  8
GUIDE
100
AcDbLine
 10
-1002.0
 20
21.9
 30
0.0
 11
-1002.0
 21
29.42
 31
0.0
  0
LINE
  5
EAD
330
1A
100
AcDbEntity
  8
GUIDE
100
AcDbLine
 10
-1002.0
 20
-4.42
 30
0.0
 11
-1002.0
 21
3.1
 31
0.0
  0
LINE
  5
EAE
330
1A
100
AcDbEntity
  8
GUIDE
100
AcDbLine
 10
-1023.0
 20
-4.42
 30
0.0
 11
-1023.0
 21
3.1
 31
0.0
  0
LINE
  5
EAF
330
1A
100
AcDbEntity
  8
GUIDE
100
AcDbLine
 10
-1023.0
 20
21.9
 30
0.0
 11
-1023.0
 21
29.42
 31
0.0
  0
LINE
  5
EB0
330
1A
100
AcDbEntity
  8
GUIDE
100
AcDbLine
 10
-1002.0
 20
29.42
 30
0.0
 11
-1023.0
 21
29.42
 31
0.0
  0
LINE
  5
EB1
330
1A
100
AcDbEntity
  8
GUIDE
100
AcDbLine
 10
-1002.0
 20
21.9
 30
0.0
 11
-1023.0
 21
21.9
 31
0.0
  0
LINE
  5
EB2
330
1A
100
AcDbEntity
  8
GUIDE
100
AcDbLine
 10
-1002.0
 20
-4.42
 30
0.0
 11
-1023.0
 21
-4.42
 31
0.0
  0
LINE
  5
EB3
330
1A
100
AcDbEntity
  8
GUIDE
100
AcDbLine
 10
-1002.0
 20
3.1
 30
0.0
 11
-1023.0
 21
3.1
 31
0.0
  0
LINE
  5
EB4
330
1A
100
AcDbEntity
  8
GUIDE
100
AcDbLine
 10
-1009.5
 20
18.14
 30
0.0
 11
-1015.5
 21
18.14
 31
0.0
  0
LINE
  5
EB5
330
1A
100
AcDbEntity
  8
GUIDE
100
AcDbLine
 10
-1015.5
 20
44.5
 30
0.0
 11
-1015.5
 21
29.42
 31
0.0
  0
LINE
  5
EB6
330
1A
100
AcDbEntity
  8
GUIDE
100
AcDbLine
 10
-1009.5
 20
44.5
 30
0.0
 11
-1009.5
 21
29.42
 31
0.0
  0
LINE
  5
EB7
330
1A
100
AcDbEntity
  8
GUIDE
100
AcDbLine
 10
-949.5
 20
40.74
 30
0.0
 11
-949.5
 21
33.22
 31
0.0
  0
LINE
  5
EB8
330
1A
100
AcDbEntity
  8
GUIDE
100
AcDbLine
 10
-970.5
 20
40.74
 30
0.0
 11
-970.5
 21
33.22
 31
0.0
  0
LINE
  5
EB9
330
1A
100
AcDbEntity
  8
GUIDE
100
AcDbLine
 10
-949.5
 20
40.74
 30
0.0
 11
-970.5
 21
40.74
 31
0.0
  0
LINE
  5
EBA
330
1A
100
AcDbEntity
  8
GUIDE
100
AcDbLine
 10
-949.5
 20
33.22
 30
0.0
 11
-970.5
 21
33.22
 31
0.0
  0
LINE
  5
EBB
330
1A
100
AcDbEntity
  8
GUIDE
100
AcDbLine
 10
-957.0
 20
18.18
 30
0.0
 11
-963.0
 21
18.18
 31
0.0
  0
LINE
  5
EBC
330
1A
100
AcDbEntity
  8
GUIDE
100
AcDbLine
 10
-949.5
 20
6.9
 30
0.0
 11
-970.5
 21
6.9
 31
0.0
  0
LINE
  5
EBD
330
1A
100
AcDbEntity
  8
GUIDE
100
AcDbLine
 10
-949.5
 20
14.42
 30
0.0
 11
-970.5
 21
14.42
 31
0.0
  0
LINE
  5
EBE
330
1A
100
AcDbEntity
  8
GUIDE
100
AcDbLine
 10
-970.5
 20
14.42
 30
0.0
 11
-970.5
 21
6.9
 31
0.0
  0
LINE
  5
EBF
330
1A
100
AcDbEntity
  8
GUIDE
100
AcDbLine
 10
-949.5
 20
14.42
 30
0.0
 11
-949.5
 21
6.9
 31
0.0
  0
LINE
  5
EC0
330
1A
100
AcDbEntity
  8
GUIDE
100
AcDbLine
 10
-963.0
 20
-8.0
 30
0.0
 11
-963.0
 21
6.9
 31
0.0
  0
LINE
  5
EC1
330
1A
100
AcDbEntity
  8
GUIDE
100
AcDbLine
 10
-957.0
 20
-8.0
 30
0.0
 11
-957.0
 21
6.9
 31
0.0
  0
LINE
  5
EC2
330
1A
100
AcDbEntity
  8
GUIDE
100
AcDbLine
 10
-957.0
 20
14.42
 30
0.0
 11
-957.0
 21
33.22
 31
0.0
  0
LINE
  5
EC3
330
1A
100
AcDbEntity
  8
GUIDE
100
AcDbLine
 10
-963.0
 20
14.42
 30
0.0
 11
-963.0
 21
33.22
 31
0.0
  0
LINE
  5
EC4
330
1A
100
AcDbEntity
  8
GUIDE
100
AcDbLine
 10
-963.0
 20
40.74
 30
0.0
 11
-963.0
 21
44.5
 31
0.0
  0
LINE
  5
EC5
330
1A
100
AcDbEntity
  8
GUIDE
100
AcDbLine
 10
-957.0
 20
40.74
 30
0.0
 11
-957.0
 21
44.5
 31
0.0
  0
LINE
  5
EC6
330
1A
100
AcDbEntity
  8
GUIDE
100
AcDbLine
 10
-980.5
 20
-4.42
 30
0.0
 11
-980.5
 21
-8.0
 31
0.0
  0
LINE
  5
EC7
330
1A
100
AcDbEntity
  8
GUIDE
100
AcDbLine
 10
-974.5
 20
-4.42
 30
0.0
 11
-974.5
 21
-8.0
 31
0.0
  0
LINE
  5
EC8
330
1A
100
AcDbEntity
  8
GUIDE
100
AcDbLine
 10
-974.5
 20
21.9
 30
0.0
 11
-974.5
 21
3.1
 31
0.0
  0
LINE
  5
EC9
330
1A
100
AcDbEntity
  8
GUIDE
100
AcDbLine
 10
-980.5
 20
21.9
 30
0.0
 11
-980.5
 21
3.1
 31
0.0
  0
LINE
  5
ECA
330
1A
100
AcDbEntity
  8
GUIDE
100
AcDbLine
 10
-967.0
 20
21.9
 30
0.0
 11
-967.0
 21
29.42
 31
0.0
  0
LINE
  5
ECB
330
1A
100
AcDbEntity
  8
GUIDE
100
AcDbLine
 10
-967.0
 20
-4.42
 30
0.0
 11
-967.0
 21
3.1
 31
0.0
  0
LINE
  5
ECC
330
1A
100
AcDbEntity
  8
GUIDE
100
AcDbLine
 10
-988.0
 20
-4.42
 30
0.0
 11
-988.0
 21
3.1
 31
0.0
  0
LINE
  5
ECD
330
1A
100
AcDbEntity
  8
GUIDE
100
AcDbLine
 10
-988.0
 20
21.9
 30
0.0
 11
-988.0
 21
29.42
 31
0.0
  0
LINE
  5
ECE
330
1A
100
AcDbEntity
  8
GUIDE
100
AcDbLine
 10
-967.0
 20
29.42
 30
0.0
 11
-988.0
 21
29.42
 31
0.0
  0
LINE
  5
ECF
330
1A
100
AcDbEntity
  8
GUIDE
100
AcDbLine
 10
-967.0
 20
21.9
 30
0.0
 11
-988.0
 21
21.9
 31
0.0
  0
LINE
  5
ED0
330
1A
100
AcDbEntity
  8
GUIDE
100
AcDbLine
 10
-967.0
 20
-4.42
 30
0.0
 11
-988.0
 21
-4.42
 31
0.0
  0
LINE
  5
ED1
330
1A
100
AcDbEntity
  8
GUIDE
100
AcDbLine
 10
-967.0
 20
3.1
 30
0.0
 11
-988.0
 21
3.1
 31
0.0
  0
LINE
  5
ED2
330
1A
100
AcDbEntity
  8
GUIDE
100
AcDbLine
 10
-974.5
 20
18.14
 30
0.0
 11
-980.5
 21
18.14
 31
0.0
  0
LINE
  5
ED3
330
1A
100
AcDbEntity
  8
GUIDE
100
AcDbLine
 10
-980.5
 20
44.5
 30
0.0
 11
-980.5
 21
29.42
 31
0.0
  0
LINE
  5
ED4
330
1A
100
AcDbEntity
  8
GUIDE
100
AcDbLine
 10
-974.5
 20
44.5
 30
0.0
 11
-974.5
 21
29.42
 31
0.0
  0
LINE
  5
ED5
330
1A
100
AcDbEntity
  8
GUIDE
100
AcDbLine
 10
-914.5
 20
40.74
 30
0.0
 11
-914.5
 21
33.22
 31
0.0
  0
LINE
  5
ED6
330
1A
100
AcDbEntity
  8
GUIDE
100
AcDbLine
 10
-935.5
 20
40.74
 30
0.0
 11
-935.5
 21
33.22
 31
0.0
  0
LINE
  5
ED7
330
1A
100
AcDbEntity
  8
GUIDE
100
AcDbLine
 10
-914.5
 20
40.74
 30
0.0
 11
-935.5
 21
40.74
 31
0.0
  0
LINE
  5
ED8
330
1A
100
AcDbEntity
  8
GUIDE
100
AcDbLine
 10
-914.5
 20
33.22
 30
0.0
 11
-935.5
 21
33.22
 31
0.0
  0
LINE
  5
ED9
330
1A
100
AcDbEntity
  8
GUIDE
100
AcDbLine
 10
-922.0
 20
18.18
 30
0.0
 11
-928.0
 21
18.18
 31
0.0
  0
LINE
  5
EDA
330
1A
100
AcDbEntity
  8
GUIDE
100
AcDbLine
 10
-914.5
 20
6.9
 30
0.0
 11
-935.5
 21
6.9
 31
0.0
  0
LINE
  5
EDB
330
1A
100
AcDbEntity
  8
GUIDE
100
AcDbLine
 10
-914.5
 20
14.42
 30
0.0
 11
-935.5
 21
14.42
 31
0.0
  0
LINE
  5
EDC
330
1A
100
AcDbEntity
  8
GUIDE
100
AcDbLine
 10
-935.5
 20
14.42
 30
0.0
 11
-935.5
 21
6.9
 31
0.0
  0
LINE
  5
EDD
330
1A
100
AcDbEntity
  8
GUIDE
100
AcDbLine
 10
-914.5
 20
14.42
 30
0.0
 11
-914.5
 21
6.9
 31
0.0
  0
LINE
  5
EDE
330
1A
100
AcDbEntity
  8
GUIDE
100
AcDbLine
 10
-928.0
 20
-8.0
 30
0.0
 11
-928.0
 21
6.9
 31
0.0
  0
LINE
  5
EDF
330
1A
100
AcDbEntity
  8
GUIDE
100
AcDbLine
 10
-922.0
 20
-8.0
 30
0.0
 11
-922.0
 21
6.9
 31
0.0
  0
LINE
  5
EE0
330
1A
100
AcDbEntity
  8
GUIDE
100
AcDbLine
 10
-922.0
 20
14.42
 30
0.0
 11
-922.0
 21
33.22
 31
0.0
  0
LINE
  5
EE1
330
1A
100
AcDbEntity
  8
GUIDE
100
AcDbLine
 10
-928.0
 20
14.42
 30
0.0
 11
-928.0
 21
33.22
 31
0.0
  0
LINE
  5
EE2
330
1A
100
AcDbEntity
  8
GUIDE
100
AcDbLine
 10
-928.0
 20
40.74
 30
0.0
 11
-928.0
 21
44.5
 31
0.0
  0
LINE
  5
EE3
330
1A
100
AcDbEntity
  8
GUIDE
100
AcDbLine
 10
-922.0
 20
40.74
 30
0.0
 11
-922.0
 21
44.5
 31
0.0
  0
LINE
  5
EE4
330
1A
100
AcDbEntity
  8
GUIDE
100
AcDbLine
 10
-945.5
 20
-4.42
 30
0.0
 11
-945.5
 21
-8.0
 31
0.0
  0
LINE
  5
EE5
330
1A
100
AcDbEntity
  8
GUIDE
100
AcDbLine
 10
-939.5
 20
-4.42
 30
0.0
 11
-939.5
 21
-8.0
 31
0.0
  0
LINE
  5
EE6
330
1A
100
AcDbEntity
  8
GUIDE
100
AcDbLine
 10
-939.5
 20
21.9
 30
0.0
 11
-939.5
 21
3.1
 31
0.0
  0
LINE
  5
EE7
330
1A
100
AcDbEntity
  8
GUIDE
100
AcDbLine
 10
-945.5
 20
21.9
 30
0.0
 11
-945.5
 21
3.1
 31
0.0
  0
LINE
  5
EE8
330
1A
100
AcDbEntity
  8
GUIDE
100
AcDbLine
 10
-932.0
 20
21.9
 30
0.0
 11
-932.0
 21
29.42
 31
0.0
  0
LINE
  5
EE9
330
1A
100
AcDbEntity
  8
GUIDE
100
AcDbLine
 10
-932.0
 20
-4.42
 30
0.0
 11
-932.0
 21
3.1
 31
0.0
  0
LINE
  5
EEA
330
1A
100
AcDbEntity
  8
GUIDE
100
AcDbLine
 10
-953.0
 20
-4.42
 30
0.0
 11
-953.0
 21
3.1
 31
0.0
  0
LINE
  5
EEB
330
1A
100
AcDbEntity
  8
GUIDE
100
AcDbLine
 10
-953.0
 20
21.9
 30
0.0
 11
-953.0
 21
29.42
 31
0.0
  0
LINE
  5
EEC
330
1A
100
AcDbEntity
  8
GUIDE
100
AcDbLine
 10
-932.0
 20
29.42
 30
0.0
 11
-953.0
 21
29.42
 31
0.0
  0
LINE
  5
EED
330
1A
100
AcDbEntity
  8
GUIDE
100
AcDbLine
 10
-932.0
 20
21.9
 30
0.0
 11
-953.0
 21
21.9
 31
0.0
  0
LINE
  5
EEE
330
1A
100
AcDbEntity
  8
GUIDE
100
AcDbLine
 10
-932.0
 20
-4.42
 30
0.0
 11
-953.0
 21
-4.42
 31
0.0
  0
LINE
  5
EEF
330
1A
100
AcDbEntity
  8
GUIDE
100
AcDbLine
 10
-932.0
 20
3.1
 30
0.0
 11
-953.0
 21
3.1
 31
0.0
  0
LINE
  5
EF0
330
1A
100
AcDbEntity
  8
GUIDE
100
AcDbLine
 10
-939.5
 20
18.14
 30
0.0
 11
-945.5
 21
18.14
 31
0.0
  0
LINE
  5
EF1
330
1A
100
AcDbEntity
  8
GUIDE
100
AcDbLine
 10
-945.5
 20
44.5
 30
0.0
 11
-945.5
 21
29.42
 31
0.0
  0
LINE
  5
EF2
330
1A
100
AcDbEntity
  8
GUIDE
100
AcDbLine
 10
-939.5
 20
44.5
 30
0.0
 11
-939.5
 21
29.42
 31
0.0
  0
LINE
  5
EF3
330
1A
100
AcDbEntity
  8
GUIDE
100
AcDbLine
 10
-879.5
 20
40.74
 30
0.0
 11
-879.5
 21
33.22
 31
0.0
  0
LINE
  5
EF4
330
1A
100
AcDbEntity
  8
GUIDE
100
AcDbLine
 10
-900.5
 20
40.74
 30
0.0
 11
-900.5
 21
33.22
 31
0.0
  0
LINE
  5
EF5
330
1A
100
AcDbEntity
  8
GUIDE
100
AcDbLine
 10
-879.5
 20
40.74
 30
0.0
 11
-900.5
 21
40.74
 31
0.0
  0
LINE
  5
EF6
330
1A
100
AcDbEntity
  8
GUIDE
100
AcDbLine
 10
-879.5
 20
33.22
 30
0.0
 11
-900.5
 21
33.22
 31
0.0
  0
LINE
  5
EF7
330
1A
100
AcDbEntity
  8
GUIDE
100
AcDbLine
 10
-887.0
 20
18.18
 30
0.0
 11
-893.0
 21
18.18
 31
0.0
  0
LINE
  5
EF8
330
1A
100
AcDbEntity
  8
GUIDE
100
AcDbLine
 10
-879.5
 20
6.9
 30
0.0
 11
-900.5
 21
6.9
 31
0.0
  0
LINE
  5
EF9
330
1A
100
AcDbEntity
  8
GUIDE
100
AcDbLine
 10
-879.5
 20
14.42
 30
0.0
 11
-900.5
 21
14.42
 31
0.0
  0
LINE
  5
EFA
330
1A
100
AcDbEntity
  8
GUIDE
100
AcDbLine
 10
-900.5
 20
14.42
 30
0.0
 11
-900.5
 21
6.9
 31
0.0
  0
LINE
  5
EFB
330
1A
100
AcDbEntity
  8
GUIDE
100
AcDbLine
 10
-879.5
 20
14.42
 30
0.0
 11
-879.5
 21
6.9
 31
0.0
  0
LINE
  5
EFC
330
1A
100
AcDbEntity
  8
GUIDE
100
AcDbLine
 10
-893.0
 20
-8.0
 30
0.0
 11
-893.0
 21
6.9
 31
0.0
  0
LINE
  5
EFD
330
1A
100
AcDbEntity
  8
GUIDE
100
AcDbLine
 10
-887.0
 20
-8.0
 30
0.0
 11
-887.0
 21
6.9
 31
0.0
  0
LINE
  5
EFE
330
1A
100
AcDbEntity
  8
GUIDE
100
AcDbLine
 10
-887.0
 20
14.42
 30
0.0
 11
-887.0
 21
33.22
 31
0.0
  0
LINE
  5
EFF
330
1A
100
AcDbEntity
  8
GUIDE
100
AcDbLine
 10
-893.0
 20
14.42
 30
0.0
 11
-893.0
 21
33.22
 31
0.0
  0
LINE
  5
F00
330
1A
100
AcDbEntity
  8
GUIDE
100
AcDbLine
 10
-893.0
 20
40.74
 30
0.0
 11
-893.0
 21
44.5
 31
0.0
  0
LINE
  5
F01
330
1A
100
AcDbEntity
  8
GUIDE
100
AcDbLine
 10
-887.0
 20
40.74
 30
0.0
 11
-887.0
 21
44.5
 31
0.0
  0
LINE
  5
F02
330
1A
100
AcDbEntity
  8
GUIDE
100
AcDbLine
 10
-910.5
 20
-4.42
 30
0.0
 11
-910.5
 21
-8.0
 31
0.0
  0
LINE
  5
F03
330
1A
100
AcDbEntity
  8
GUIDE
100
AcDbLine
 10
-904.5
 20
-4.42
 30
0.0
 11
-904.5
 21
-8.0
 31
0.0
  0
LINE
  5
F04
330
1A
100
AcDbEntity
  8
GUIDE
100
AcDbLine
 10
-904.5
 20
21.9
 30
0.0
 11
-904.5
 21
3.1
 31
0.0
  0
LINE
  5
F05
330
1A
100
AcDbEntity
  8
GUIDE
100
AcDbLine
 10
-910.5
 20
21.9
 30
0.0
 11
-910.5
 21
3.1
 31
0.0
  0
LINE
  5
F06
330
1A
100
AcDbEntity
  8
GUIDE
100
AcDbLine
 10
-897.0
 20
21.9
 30
0.0
 11
-897.0
 21
29.42
 31
0.0
  0
LINE
  5
F07
330
1A
100
AcDbEntity
  8
GUIDE
100
AcDbLine
 10
-897.0
 20
-4.42
 30
0.0
 11
-897.0
 21
3.1
 31
0.0
  0
LINE
  5
F08
330
1A
100
AcDbEntity
  8
GUIDE
100
AcDbLine
 10
-918.0
 20
-4.42
 30
0.0
 11
-918.0
 21
3.1
 31
0.0
  0
LINE
  5
F09
330
1A
100
AcDbEntity
  8
GUIDE
100
AcDbLine
 10
-918.0
 20
21.9
 30
0.0
 11
-918.0
 21
29.42
 31
0.0
  0
LINE
  5
F0A
330
1A
100
AcDbEntity
  8
GUIDE
100
AcDbLine
 10
-897.0
 20
29.42
 30
0.0
 11
-918.0
 21
29.42
 31
0.0
  0
LINE
  5
F0B
330
1A
100
AcDbEntity
  8
GUIDE
100
AcDbLine
 10
-897.0
 20
21.9
 30
0.0
 11
-918.0
 21
21.9
 31
0.0
  0
LINE
  5
F0C
330
1A
100
AcDbEntity
  8
GUIDE
100
AcDbLine
 10
-897.0
 20
-4.42
 30
0.0
 11
-918.0
 21
-4.42
 31
0.0
  0
LINE
  5
F0D
330
1A
100
AcDbEntity
  8
GUIDE
100
AcDbLine
 10
-897.0
 20
3.1
 30
0.0
 11
-918.0
 21
3.1
 31
0.0
  0
LINE
  5
F0E
330
1A
100
AcDbEntity
  8
GUIDE
100
AcDbLine
 10
-904.5
 20
18.14
 30
0.0
 11
-910.5
 21
18.14
 31
0.0
  0
LINE
  5
F0F
330
1A
100
AcDbEntity
  8
GUIDE
100
AcDbLine
 10
-910.5
 20
44.5
 30
0.0
 11
-910.5
 21
29.42
 31
0.0
  0
LINE
  5
F10
330
1A
100
AcDbEntity
  8
GUIDE
100
AcDbLine
 10
-904.5
 20
44.5
 30
0.0
 11
-904.5
 21
29.42
 31
0.0
  0
LINE
  5
F11
330
1A
100
AcDbEntity
  8
GUIDE
100
AcDbLine
 10
-844.5
 20
40.74
 30
0.0
 11
-844.5
 21
33.22
 31
0.0
  0
LINE
  5
F12
330
1A
100
AcDbEntity
  8
GUIDE
100
AcDbLine
 10
-865.5
 20
40.74
 30
0.0
 11
-865.5
 21
33.22
 31
0.0
  0
LINE
  5
F13
330
1A
100
AcDbEntity
  8
GUIDE
100
AcDbLine
 10
-844.5
 20
40.74
 30
0.0
 11
-865.5
 21
40.74
 31
0.0
  0
LINE
  5
F14
330
1A
100
AcDbEntity
  8
GUIDE
100
AcDbLine
 10
-844.5
 20
33.22
 30
0.0
 11
-865.5
 21
33.22
 31
0.0
  0
LINE
  5
F15
330
1A
100
AcDbEntity
  8
GUIDE
100
AcDbLine
 10
-852.0
 20
18.18
 30
0.0
 11
-858.0
 21
18.18
 31
0.0
  0
LINE
  5
F16
330
1A
100
AcDbEntity
  8
GUIDE
100
AcDbLine
 10
-844.5
 20
6.9
 30
0.0
 11
-865.5
 21
6.9
 31
0.0
  0
LINE
  5
F17
330
1A
100
AcDbEntity
  8
GUIDE
100
AcDbLine
 10
-844.5
 20
14.42
 30
0.0
 11
-865.5
 21
14.42
 31
0.0
  0
LINE
  5
F18
330
1A
100
AcDbEntity
  8
GUIDE
100
AcDbLine
 10
-865.5
 20
14.42
 30
0.0
 11
-865.5
 21
6.9
 31
0.0
  0
LINE
  5
F19
330
1A
100
AcDbEntity
  8
GUIDE
100
AcDbLine
 10
-844.5
 20
14.42
 30
0.0
 11
-844.5
 21
6.9
 31
0.0
  0
LINE
  5
F1A
330
1A
100
AcDbEntity
  8
GUIDE
100
AcDbLine
 10
-858.0
 20
-8.0
 30
0.0
 11
-858.0
 21
6.9
 31
0.0
  0
LINE
  5
F1B
330
1A
100
AcDbEntity
  8
GUIDE
100
AcDbLine
 10
-852.0
 20
-8.0
 30
0.0
 11
-852.0
 21
6.9
 31
0.0
  0
LINE
  5
F1C
330
1A
100
AcDbEntity
  8
GUIDE
100
AcDbLine
 10
-852.0
 20
14.42
 30
0.0
 11
-852.0
 21
33.22
 31
0.0
  0
LINE
  5
F1D
330
1A
100
AcDbEntity
  8
GUIDE
100
AcDbLine
 10
-858.0
 20
14.42
 30
0.0
 11
-858.0
 21
33.22
 31
0.0
  0
LINE
  5
F1E
330
1A
100
AcDbEntity
  8
GUIDE
100
AcDbLine
 10
-858.0
 20
40.74
 30
0.0
 11
-858.0
 21
44.5
 31
0.0
  0
LINE
  5
F1F
330
1A
100
AcDbEntity
  8
GUIDE
100
AcDbLine
 10
-852.0
 20
40.74
 30
0.0
 11
-852.0
 21
44.5
 31
0.0
  0
LINE
  5
F20
330
1A
100
AcDbEntity
  8
GUIDE
100
AcDbLine
 10
-875.5
 20
-4.42
 30
0.0
 11
-875.5
 21
-8.0
 31
0.0
  0
LINE
  5
F21
330
1A
100
AcDbEntity
  8
GUIDE
100
AcDbLine
 10
-869.5
 20
-4.42
 30
0.0
 11
-869.5
 21
-8.0
 31
0.0
  0
LINE
  5
F22
330
1A
100
AcDbEntity
  8
GUIDE
100
AcDbLine
 10
-869.5
 20
21.9
 30
0.0
 11
-869.5
 21
3.1
 31
0.0
  0
LINE
  5
F23
330
1A
100
AcDbEntity
  8
GUIDE
100
AcDbLine
 10
-875.5
 20
21.9
 30
0.0
 11
-875.5
 21
3.1
 31
0.0
  0
LINE
  5
F24
330
1A
100
AcDbEntity
  8
GUIDE
100
AcDbLine
 10
-862.0
 20
21.9
 30
0.0
 11
-862.0
 21
29.42
 31
0.0
  0
LINE
  5
F25
330
1A
100
AcDbEntity
  8
GUIDE
100
AcDbLine
 10
-862.0
 20
-4.42
 30
0.0
 11
-862.0
 21
3.1
 31
0.0
  0
LINE
  5
F26
330
1A
100
AcDbEntity
  8
GUIDE
100
AcDbLine
 10
-883.0
 20
-4.42
 30
0.0
 11
-883.0
 21
3.1
 31
0.0
  0
LINE
  5
F27
330
1A
100
AcDbEntity
  8
GUIDE
100
AcDbLine
 10
-883.0
 20
21.9
 30
0.0
 11
-883.0
 21
29.42
 31
0.0
  0
LINE
  5
F28
330
1A
100
AcDbEntity
  8
GUIDE
100
AcDbLine
 10
-862.0
 20
29.42
 30
0.0
 11
-883.0
 21
29.42
 31
0.0
  0
LINE
  5
F29
330
1A
100
AcDbEntity
  8
GUIDE
100
AcDbLine
 10
-862.0
 20
21.9
 30
0.0
 11
-883.0
 21
21.9
 31
0.0
  0
LINE
  5
F2A
330
1A
100
AcDbEntity
  8
GUIDE
100
AcDbLine
 10
-862.0
 20
-4.42
 30
0.0
 11
-883.0
 21
-4.42
 31
0.0
  0
LINE
  5
F2B
330
1A
100
AcDbEntity
  8
GUIDE
100
AcDbLine
 10
-862.0
 20
3.1
 30
0.0
 11
-883.0
 21
3.1
 31
0.0
  0
LINE
  5
F2C
330
1A
100
AcDbEntity
  8
GUIDE
100
AcDbLine
 10
-869.5
 20
18.14
 30
0.0
 11
-875.5
 21
18.14
 31
0.0
  0
LINE
  5
F2D
330
1A
100
AcDbEntity
  8
GUIDE
100
AcDbLine
 10
-875.5
 20
44.5
 30
0.0
 11
-875.5
 21
29.42
 31
0.0
  0
LINE
  5
F2E
330
1A
100
AcDbEntity
  8
GUIDE
100
AcDbLine
 10
-869.5
 20
44.5
 30
0.0
 11
-869.5
 21
29.42
 31
0.0
  0
LINE
  5
F2F
330
1A
100
AcDbEntity
  8
GUIDE
100
AcDbLine
 10
-809.5
 20
40.74
 30
0.0
 11
-809.5
 21
33.22
 31
0.0
  0
LINE
  5
F30
330
1A
100
AcDbEntity
  8
GUIDE
100
AcDbLine
 10
-830.5
 20
40.74
 30
0.0
 11
-830.5
 21
33.22
 31
0.0
  0
LINE
  5
F31
330
1A
100
AcDbEntity
  8
GUIDE
100
AcDbLine
 10
-809.5
 20
40.74
 30
0.0
 11
-830.5
 21
40.74
 31
0.0
  0
LINE
  5
F32
330
1A
100
AcDbEntity
  8
GUIDE
100
AcDbLine
 10
-809.5
 20
33.22
 30
0.0
 11
-830.5
 21
33.22
 31
0.0
  0
LINE
  5
F33
330
1A
100
AcDbEntity
  8
GUIDE
100
AcDbLine
 10
-817.0
 20
18.18
 30
0.0
 11
-823.0
 21
18.18
 31
0.0
  0
LINE
  5
F34
330
1A
100
AcDbEntity
  8
GUIDE
100
AcDbLine
 10
-809.5
 20
6.9
 30
0.0
 11
-830.5
 21
6.9
 31
0.0
  0
LINE
  5
F35
330
1A
100
AcDbEntity
  8
GUIDE
100
AcDbLine
 10
-809.5
 20
14.42
 30
0.0
 11
-830.5
 21
14.42
 31
0.0
  0
LINE
  5
F36
330
1A
100
AcDbEntity
  8
GUIDE
100
AcDbLine
 10
-830.5
 20
14.42
 30
0.0
 11
-830.5
 21
6.9
 31
0.0
  0
LINE
  5
F37
330
1A
100
AcDbEntity
  8
GUIDE
100
AcDbLine
 10
-809.5
 20
14.42
 30
0.0
 11
-809.5
 21
6.9
 31
0.0
  0
LINE
  5
F38
330
1A
100
AcDbEntity
  8
GUIDE
100
AcDbLine
 10
-823.0
 20
-8.0
 30
0.0
 11
-823.0
 21
6.9
 31
0.0
  0
LINE
  5
F39
330
1A
100
AcDbEntity
  8
GUIDE
100
AcDbLine
 10
-817.0
 20
-8.0
 30
0.0
 11
-817.0
 21
6.9
 31
0.0
  0
LINE
  5
F3A
330
1A
100
AcDbEntity
  8
GUIDE
100
AcDbLine
 10
-817.0
 20
14.42
 30
0.0
 11
-817.0
 21
33.22
 31
0.0
  0
LINE
  5
F3B
330
1A
100
AcDbEntity
  8
GUIDE
100
AcDbLine
 10
-823.0
 20
14.42
 30
0.0
 11
-823.0
 21
33.22
 31
0.0
  0
LINE
  5
F3C
330
1A
100
AcDbEntity
  8
GUIDE
100
AcDbLine
 10
-823.0
 20
40.74
 30
0.0
 11
-823.0
 21
44.5
 31
0.0
  0
LINE
  5
F3D
330
1A
100
AcDbEntity
  8
GUIDE
100
AcDbLine
 10
-817.0
 20
40.74
 30
0.0
 11
-817.0
 21
44.5
 31
0.0
  0
LINE
  5
F3E
330
1A
100
AcDbEntity
  8
GUIDE
100
AcDbLine
 10
-840.5
 20
-4.42
 30
0.0
 11
-840.5
 21
-8.0
 31
0.0
  0
LINE
  5
F3F
330
1A
100
AcDbEntity
  8
GUIDE
100
AcDbLine
 10
-834.5
 20
-4.42
 30
0.0
 11
-834.5
 21
-8.0
 31
0.0
  0
LINE
  5
F40
330
1A
100
AcDbEntity
  8
GUIDE
100
AcDbLine
 10
-834.5
 20
21.9
 30
0.0
 11
-834.5
 21
3.1
 31
0.0
  0
LINE
  5
F41
330
1A
100
AcDbEntity
  8
GUIDE
100
AcDbLine
 10
-840.5
 20
21.9
 30
0.0
 11
-840.5
 21
3.1
 31
0.0
  0
LINE
  5
F42
330
1A
100
AcDbEntity
  8
GUIDE
100
AcDbLine
 10
-827.0
 20
21.9
 30
0.0
 11
-827.0
 21
29.42
 31
0.0
  0
LINE
  5
F43
330
1A
100
AcDbEntity
  8
GUIDE
100
AcDbLine
 10
-827.0
 20
-4.42
 30
0.0
 11
-827.0
 21
3.1
 31
0.0
  0
LINE
  5
F44
330
1A
100
AcDbEntity
  8
GUIDE
100
AcDbLine
 10
-848.0
 20
-4.42
 30
0.0
 11
-848.0
 21
3.1
 31
0.0
  0
LINE
  5
F45
330
1A
100
AcDbEntity
  8
GUIDE
100
AcDbLine
 10
-848.0
 20
21.9
 30
0.0
 11
-848.0
 21
29.42
 31
0.0
  0
LINE
  5
F46
330
1A
100
AcDbEntity
  8
GUIDE
100
AcDbLine
 10
-827.0
 20
29.42
 30
0.0
 11
-848.0
 21
29.42
 31
0.0
  0
LINE
  5
F47
330
1A
100
AcDbEntity
  8
GUIDE
100
AcDbLine
 10
-827.0
 20
21.9
 30
0.0
 11
-848.0
 21
21.9
 31
0.0
  0
LINE
  5
F48
330
1A
100
AcDbEntity
  8
GUIDE
100
AcDbLine
 10
-827.0
 20
-4.42
 30
0.0
 11
-848.0
 21
-4.42
 31
0.0
  0
LINE
  5
F49
330
1A
100
AcDbEntity
  8
GUIDE
100
AcDbLine
 10
-827.0
 20
3.1
 30
0.0
 11
-848.0
 21
3.1
 31
0.0
  0
LINE
  5
F4A
330
1A
100
AcDbEntity
  8
GUIDE
100
AcDbLine
 10
-834.5
 20
18.14
 30
0.0
 11
-840.5
 21
18.14
 31
0.0
  0
LINE
  5
F4B
330
1A
100
AcDbEntity
  8
GUIDE
100
AcDbLine
 10
-840.5
 20
44.5
 30
0.0
 11
-840.5
 21
29.42
 31
0.0
  0
LINE
  5
F4C
330
1A
100
AcDbEntity
  8
GUIDE
100
AcDbLine
 10
-834.5
 20
44.5
 30
0.0
 11
-834.5
 21
29.42
 31
0.0
  0
LINE
  5
F4D
330
1A
100
AcDbEntity
  8
GUIDE
100
AcDbLine
 10
-774.5
 20
40.74
 30
0.0
 11
-774.5
 21
33.22
 31
0.0
  0
LINE
  5
F4E
330
1A
100
AcDbEntity
  8
GUIDE
100
AcDbLine
 10
-795.5
 20
40.74
 30
0.0
 11
-795.5
 21
33.22
 31
0.0
  0
LINE
  5
F4F
330
1A
100
AcDbEntity
  8
GUIDE
100
AcDbLine
 10
-774.5
 20
40.74
 30
0.0
 11
-795.5
 21
40.74
 31
0.0
  0
LINE
  5
F50
330
1A
100
AcDbEntity
  8
GUIDE
100
AcDbLine
 10
-774.5
 20
33.22
 30
0.0
 11
-795.5
 21
33.22
 31
0.0
  0
LINE
  5
F51
330
1A
100
AcDbEntity
  8
GUIDE
100
AcDbLine
 10
-782.0
 20
18.18
 30
0.0
 11
-788.0
 21
18.18
 31
0.0
  0
LINE
  5
F52
330
1A
100
AcDbEntity
  8
GUIDE
100
AcDbLine
 10
-774.5
 20
6.9
 30
0.0
 11
-795.5
 21
6.9
 31
0.0
  0
LINE
  5
F53
330
1A
100
AcDbEntity
  8
GUIDE
100
AcDbLine
 10
-774.5
 20
14.42
 30
0.0
 11
-795.5
 21
14.42
 31
0.0
  0
LINE
  5
F54
330
1A
100
AcDbEntity
  8
GUIDE
100
AcDbLine
 10
-795.5
 20
14.42
 30
0.0
 11
-795.5
 21
6.9
 31
0.0
  0
LINE
  5
F55
330
1A
100
AcDbEntity
  8
GUIDE
100
AcDbLine
 10
-774.5
 20
14.42
 30
0.0
 11
-774.5
 21
6.9
 31
0.0
  0
LINE
  5
F56
330
1A
100
AcDbEntity
  8
GUIDE
100
AcDbLine
 10
-788.0
 20
-8.0
 30
0.0
 11
-788.0
 21
6.9
 31
0.0
  0
LINE
  5
F57
330
1A
100
AcDbEntity
  8
GUIDE
100
AcDbLine
 10
-782.0
 20
-8.0
 30
0.0
 11
-782.0
 21
6.9
 31
0.0
  0
LINE
  5
F58
330
1A
100
AcDbEntity
  8
GUIDE
100
AcDbLine
 10
-782.0
 20
14.42
 30
0.0
 11
-782.0
 21
33.22
 31
0.0
  0
LINE
  5
F59
330
1A
100
AcDbEntity
  8
GUIDE
100
AcDbLine
 10
-788.0
 20
14.42
 30
0.0
 11
-788.0
 21
33.22
 31
0.0
  0
LINE
  5
F5A
330
1A
100
AcDbEntity
  8
GUIDE
100
AcDbLine
 10
-788.0
 20
40.74
 30
0.0
 11
-788.0
 21
44.5
 31
0.0
  0
LINE
  5
F5B
330
1A
100
AcDbEntity
  8
GUIDE
100
AcDbLine
 10
-782.0
 20
40.74
 30
0.0
 11
-782.0
 21
44.5
 31
0.0
  0
LINE
  5
F5C
330
1A
100
AcDbEntity
  8
GUIDE
100
AcDbLine
 10
-805.5
 20
-4.42
 30
0.0
 11
-805.5
 21
-8.0
 31
0.0
  0
LINE
  5
F5D
330
1A
100
AcDbEntity
  8
GUIDE
100
AcDbLine
 10
-799.5
 20
-4.42
 30
0.0
 11
-799.5
 21
-8.0
 31
0.0
  0
LINE
  5
F5E
330
1A
100
AcDbEntity
  8
GUIDE
100
AcDbLine
 10
-799.5
 20
21.9
 30
0.0
 11
-799.5
 21
3.1
 31
0.0
  0
LINE
  5
F5F
330
1A
100
AcDbEntity
  8
GUIDE
100
AcDbLine
 10
-805.5
 20
21.9
 30
0.0
 11
-805.5
 21
3.1
 31
0.0
  0
LINE
  5
F60
330
1A
100
AcDbEntity
  8
GUIDE
100
AcDbLine
 10
-792.0
 20
21.9
 30
0.0
 11
-792.0
 21
29.42
 31
0.0
  0
LINE
  5
F61
330
1A
100
AcDbEntity
  8
GUIDE
100
AcDbLine
 10
-792.0
 20
-4.42
 30
0.0
 11
-792.0
 21
3.1
 31
0.0
  0
LINE
  5
F62
330
1A
100
AcDbEntity
  8
GUIDE
100
AcDbLine
 10
-813.0
 20
-4.42
 30
0.0
 11
-813.0
 21
3.1
 31
0.0
  0
LINE
  5
F63
330
1A
100
AcDbEntity
  8
GUIDE
100
AcDbLine
 10
-813.0
 20
21.9
 30
0.0
 11
-813.0
 21
29.42
 31
0.0
  0
LINE
  5
F64
330
1A
100
AcDbEntity
  8
GUIDE
100
AcDbLine
 10
-792.0
 20
29.42
 30
0.0
 11
-813.0
 21
29.42
 31
0.0
  0
LINE
  5
F65
330
1A
100
AcDbEntity
  8
GUIDE
100
AcDbLine
 10
-792.0
 20
21.9
 30
0.0
 11
-813.0
 21
21.9
 31
0.0
  0
LINE
  5
F66
330
1A
100
AcDbEntity
  8
GUIDE
100
AcDbLine
 10
-792.0
 20
-4.42
 30
0.0
 11
-813.0
 21
-4.42
 31
0.0
  0
LINE
  5
F67
330
1A
100
AcDbEntity
  8
GUIDE
100
AcDbLine
 10
-792.0
 20
3.1
 30
0.0
 11
-813.0
 21
3.1
 31
0.0
  0
LINE
  5
F68
330
1A
100
AcDbEntity
  8
GUIDE
100
AcDbLine
 10
-799.5
 20
18.14
 30
0.0
 11
-805.5
 21
18.14
 31
0.0
  0
LINE
  5
F69
330
1A
100
AcDbEntity
  8
GUIDE
100
AcDbLine
 10
-805.5
 20
44.5
 30
0.0
 11
-805.5
 21
29.42
 31
0.0
  0
LINE
  5
F6A
330
1A
100
AcDbEntity
  8
GUIDE
100
AcDbLine
 10
-799.5
 20
44.5
 30
0.0
 11
-799.5
 21
29.42
 31
0.0
  0
LINE
  5
F6B
330
1A
100
AcDbEntity
  8
GUIDE
100
AcDbLine
 10
-739.5
 20
40.74
 30
0.0
 11
-739.5
 21
33.22
 31
0.0
  0
LINE
  5
F6C
330
1A
100
AcDbEntity
  8
GUIDE
100
AcDbLine
 10
-760.5
 20
40.74
 30
0.0
 11
-760.5
 21
33.22
 31
0.0
  0
LINE
  5
F6D
330
1A
100
AcDbEntity
  8
GUIDE
100
AcDbLine
 10
-739.5
 20
40.74
 30
0.0
 11
-760.5
 21
40.74
 31
0.0
  0
LINE
  5
F6E
330
1A
100
AcDbEntity
  8
GUIDE
100
AcDbLine
 10
-739.5
 20
33.22
 30
0.0
 11
-760.5
 21
33.22
 31
0.0
  0
LINE
  5
F6F
330
1A
100
AcDbEntity
  8
GUIDE
100
AcDbLine
 10
-747.0
 20
18.18
 30
0.0
 11
-753.0
 21
18.18
 31
0.0
  0
LINE
  5
F70
330
1A
100
AcDbEntity
  8
GUIDE
100
AcDbLine
 10
-739.5
 20
6.9
 30
0.0
 11
-760.5
 21
6.9
 31
0.0
  0
LINE
  5
F71
330
1A
100
AcDbEntity
  8
GUIDE
100
AcDbLine
 10
-739.5
 20
14.42
 30
0.0
 11
-760.5
 21
14.42
 31
0.0
  0
LINE
  5
F72
330
1A
100
AcDbEntity
  8
GUIDE
100
AcDbLine
 10
-760.5
 20
14.42
 30
0.0
 11
-760.5
 21
6.9
 31
0.0
  0
LINE
  5
F73
330
1A
100
AcDbEntity
  8
GUIDE
100
AcDbLine
 10
-739.5
 20
14.42
 30
0.0
 11
-739.5
 21
6.9
 31
0.0
  0
LINE
  5
F74
330
1A
100
AcDbEntity
  8
GUIDE
100
AcDbLine
 10
-753.0
 20
-8.0
 30
0.0
 11
-753.0
 21
6.9
 31
0.0
  0
LINE
  5
F75
330
1A
100
AcDbEntity
  8
GUIDE
100
AcDbLine
 10
-747.0
 20
-8.0
 30
0.0
 11
-747.0
 21
6.9
 31
0.0
  0
LINE
  5
F76
330
1A
100
AcDbEntity
  8
GUIDE
100
AcDbLine
 10
-747.0
 20
14.42
 30
0.0
 11
-747.0
 21
33.22
 31
0.0
  0
LINE
  5
F77
330
1A
100
AcDbEntity
  8
GUIDE
100
AcDbLine
 10
-753.0
 20
14.42
 30
0.0
 11
-753.0
 21
33.22
 31
0.0
  0
LINE
  5
F78
330
1A
100
AcDbEntity
  8
GUIDE
100
AcDbLine
 10
-753.0
 20
40.74
 30
0.0
 11
-753.0
 21
44.5
 31
0.0
  0
LINE
  5
F79
330
1A
100
AcDbEntity
  8
GUIDE
100
AcDbLine
 10
-747.0
 20
40.74
 30
0.0
 11
-747.0
 21
44.5
 31
0.0
  0
LINE
  5
F7A
330
1A
100
AcDbEntity
  8
GUIDE
100
AcDbLine
 10
-770.5
 20
-4.42
 30
0.0
 11
-770.5
 21
-8.0
 31
0.0
  0
LINE
  5
F7B
330
1A
100
AcDbEntity
  8
GUIDE
100
AcDbLine
 10
-764.5
 20
-4.42
 30
0.0
 11
-764.5
 21
-8.0
 31
0.0
  0
LINE
  5
F7C
330
1A
100
AcDbEntity
  8
GUIDE
100
AcDbLine
 10
-764.5
 20
21.9
 30
0.0
 11
-764.5
 21
3.1
 31
0.0
  0
LINE
  5
F7D
330
1A
100
AcDbEntity
  8
GUIDE
100
AcDbLine
 10
-770.5
 20
21.9
 30
0.0
 11
-770.5
 21
3.1
 31
0.0
  0
LINE
  5
F7E
330
1A
100
AcDbEntity
  8
GUIDE
100
AcDbLine
 10
-757.0
 20
21.9
 30
0.0
 11
-757.0
 21
29.42
 31
0.0
  0
LINE
  5
F7F
330
1A
100
AcDbEntity
  8
GUIDE
100
AcDbLine
 10
-757.0
 20
-4.42
 30
0.0
 11
-757.0
 21
3.1
 31
0.0
  0
LINE
  5
F80
330
1A
100
AcDbEntity
  8
GUIDE
100
AcDbLine
 10
-778.0
 20
-4.42
 30
0.0
 11
-778.0
 21
3.1
 31
0.0
  0
LINE
  5
F81
330
1A
100
AcDbEntity
  8
GUIDE
100
AcDbLine
 10
-778.0
 20
21.9
 30
0.0
 11
-778.0
 21
29.42
 31
0.0
  0
LINE
  5
F82
330
1A
100
AcDbEntity
  8
GUIDE
100
AcDbLine
 10
-757.0
 20
29.42
 30
0.0
 11
-778.0
 21
29.42
 31
0.0
  0
LINE
  5
F83
330
1A
100
AcDbEntity
  8
GUIDE
100
AcDbLine
 10
-757.0
 20
21.9
 30
0.0
 11
-778.0
 21
21.9
 31
0.0
  0
LINE
  5
F84
330
1A
100
AcDbEntity
  8
GUIDE
100
AcDbLine
 10
-757.0
 20
-4.42
 30
0.0
 11
-778.0
 21
-4.42
 31
0.0
  0
LINE
  5
F85
330
1A
100
AcDbEntity
  8
GUIDE
100
AcDbLine
 10
-757.0
 20
3.1
 30
0.0
 11
-778.0
 21
3.1
 31
0.0
  0
LINE
  5
F86
330
1A
100
AcDbEntity
  8
GUIDE
100
AcDbLine
 10
-764.5
 20
18.14
 30
0.0
 11
-770.5
 21
18.14
 31
0.0
  0
LINE
  5
F87
330
1A
100
AcDbEntity
  8
GUIDE
100
AcDbLine
 10
-770.5
 20
44.5
 30
0.0
 11
-770.5
 21
29.42
 31
0.0
  0
LINE
  5
F88
330
1A
100
AcDbEntity
  8
GUIDE
100
AcDbLine
 10
-764.5
 20
44.5
 30
0.0
 11
-764.5
 21
29.42
 31
0.0
  0
LINE
  5
F89
330
1A
100
AcDbEntity
  8
GUIDE
100
AcDbLine
 10
-725.5
 20
40.74
 30
0.0
 11
-725.5
 21
33.22
 31
0.0
  0
LINE
  5
F8A
330
1A
100
AcDbEntity
  8
GUIDE
100
AcDbLine
 10
-704.5
 20
40.74
 30
0.0
 11
-725.5
 21
40.74
 31
0.0
  0
LINE
  5
F8B
330
1A
100
AcDbEntity
  8
GUIDE
100
AcDbLine
 10
-704.5
 20
33.22
 30
0.0
 11
-725.5
 21
33.22
 31
0.0
  0
LINE
  5
F8C
330
1A
100
AcDbEntity
  8
GUIDE
100
AcDbLine
 10
-712.0
 20
18.18
 30
0.0
 11
-718.0
 21
18.18
 31
0.0
  0
LINE
  5
F8D
330
1A
100
AcDbEntity
  8
GUIDE
100
AcDbLine
 10
-704.5
 20
6.9
 30
0.0
 11
-725.5
 21
6.9
 31
0.0
  0
LINE
  5
F8E
330
1A
100
AcDbEntity
  8
GUIDE
100
AcDbLine
 10
-704.5
 20
14.42
 30
0.0
 11
-725.5
 21
14.42
 31
0.0
  0
LINE
  5
F8F
330
1A
100
AcDbEntity
  8
GUIDE
100
AcDbLine
 10
-725.5
 20
14.42
 30
0.0
 11
-725.5
 21
6.9
 31
0.0
  0
LINE
  5
F90
330
1A
100
AcDbEntity
  8
GUIDE
100
AcDbLine
 10
-718.0
 20
-8.0
 30
0.0
 11
-718.0
 21
6.9
 31
0.0
  0
LINE
  5
F91
330
1A
100
AcDbEntity
  8
GUIDE
100
AcDbLine
 10
-712.0
 20
-8.0
 30
0.0
 11
-712.0
 21
6.9
 31
0.0
  0
LINE
  5
F92
330
1A
100
AcDbEntity
  8
GUIDE
100
AcDbLine
 10
-712.0
 20
14.42
 30
0.0
 11
-712.0
 21
33.22
 31
0.0
  0
LINE
  5
F93
330
1A
100
AcDbEntity
  8
GUIDE
100
AcDbLine
 10
-718.0
 20
14.42
 30
0.0
 11
-718.0
 21
33.22
 31
0.0
  0
LINE
  5
F94
330
1A
100
AcDbEntity
  8
GUIDE
100
AcDbLine
 10
-718.0
 20
40.74
 30
0.0
 11
-718.0
 21
44.5
 31
0.0
  0
LINE
  5
F95
330
1A
100
AcDbEntity
  8
GUIDE
100
AcDbLine
 10
-712.0
 20
40.74
 30
0.0
 11
-712.0
 21
44.5
 31
0.0
  0
LINE
  5
F96
330
1A
100
AcDbEntity
  8
GUIDE
100
AcDbLine
 10
-735.5
 20
-4.42
 30
0.0
 11
-735.5
 21
-8.0
 31
0.0
  0
LINE
  5
F97
330
1A
100
AcDbEntity
  8
GUIDE
100
AcDbLine
 10
-729.5
 20
-4.42
 30
0.0
 11
-729.5
 21
-8.0
 31
0.0
  0
LINE
  5
F98
330
1A
100
AcDbEntity
  8
GUIDE
100
AcDbLine
 10
-729.5
 20
21.9
 30
0.0
 11
-729.5
 21
3.1
 31
0.0
  0
LINE
  5
F99
330
1A
100
AcDbEntity
  8
GUIDE
100
AcDbLine
 10
-735.5
 20
21.9
 30
0.0
 11
-735.5
 21
3.1
 31
0.0
  0
LINE
  5
F9A
330
1A
100
AcDbEntity
  8
GUIDE
100
AcDbLine
 10
-722.0
 20
21.9
 30
0.0
 11
-722.0
 21
29.42
 31
0.0
  0
LINE
  5
F9B
330
1A
100
AcDbEntity
  8
GUIDE
100
AcDbLine
 10
-722.0
 20
-4.42
 30
0.0
 11
-722.0
 21
3.1
 31
0.0
  0
LINE
  5
F9C
330
1A
100
AcDbEntity
  8
GUIDE
100
AcDbLine
 10
-743.0
 20
-4.42
 30
0.0
 11
-743.0
 21
3.1
 31
0.0
  0
LINE
  5
F9D
330
1A
100
AcDbEntity
  8
GUIDE
100
AcDbLine
 10
-743.0
 20
21.9
 30
0.0
 11
-743.0
 21
29.42
 31
0.0
  0
LINE
  5
F9E
330
1A
100
AcDbEntity
  8
GUIDE
100
AcDbLine
 10
-722.0
 20
29.42
 30
0.0
 11
-743.0
 21
29.42
 31
0.0
  0
LINE
  5
F9F
330
1A
100
AcDbEntity
  8
GUIDE
100
AcDbLine
 10
-722.0
 20
21.9
 30
0.0
 11
-743.0
 21
21.9
 31
0.0
  0
LINE
  5
FA0
330
1A
100
AcDbEntity
  8
GUIDE
100
AcDbLine
 10
-722.0
 20
-4.42
 30
0.0
 11
-743.0
 21
-4.42
 31
0.0
  0
LINE
  5
FA1
330
1A
100
AcDbEntity
  8
GUIDE
100
AcDbLine
 10
-722.0
 20
3.1
 30
0.0
 11
-743.0
 21
3.1
 31
0.0
  0
LINE
  5
FA2
330
1A
100
AcDbEntity
  8
GUIDE
100
AcDbLine
 10
-729.5
 20
18.14
 30
0.0
 11
-735.5
 21
18.14
 31
0.0
  0
LINE
  5
FA3
330
1A
100
AcDbEntity
  8
GUIDE
100
AcDbLine
 10
-735.5
 20
44.5
 30
0.0
 11
-735.5
 21
29.42
 31
0.0
  0
LINE
  5
FA4
330
1A
100
AcDbEntity
  8
GUIDE
100
AcDbLine
 10
-729.5
 20
44.5
 30
0.0
 11
-729.5
 21
29.42
 31
0.0
  0
LINE
  5
FA5
330
1A
100
AcDbEntity
  8
GUIDE
100
AcDbLine
 10
-1719.0
 20
52.1
 30
0.0
 11
374.0
 21
52.1
 31
0.0
  0
LINE
  5
FA6
330
1A
100
AcDbEntity
  8
GUIDE
100
AcDbLine
 10
-1719.0
 20
-15.6
 30
0.0
 11
374.0
 21
-15.6
 31
0.0
  0
LINE
  5
FA7
330
1A
100
AcDbEntity
  8
GUIDE
100
AcDbLine
 10
390.981537
 20
44.5
 30
0.0
 11
390.981537
 21
-8.140000000000001
 31
0.0
  0
LINE
  5
FA8
330
1A
100
AcDbEntity
  8
GUIDE
100
AcDbLine
 10
400.981537
 20
54.5
 30
0.0
 11
400.981537
 21
47.5
 31
0.0
  0
LINE
  5
FA9
330
1A
100
AcDbEntity
  8
GUIDE
100
AcDbLine
 10
417.481537
 20
54.5
 30
0.0
 11
400.981537
 21
54.5
 31
0.0
  0
LINE
  5
FAA
330
1A
100
AcDbEntity
  8
GUIDE
100
AcDbLine
 10
417.481537
 20
-18.14
 30
0.0
 11
400.981537
 21
-18.14
 31
0.0
  0
LINE
  5
FAB
330
1A
100
AcDbEntity
  8
GUIDE
100
AcDbLine
 10
421.481537
 20
44.5
 30
0.0
 11
396.981537
 21
44.5
 31
0.0
  0
LINE
  5
FAC
330
1A
100
AcDbEntity
  8
GUIDE
100
AcDbLine
 10
421.481537
 20
-8.140000000000001
 30
0.0
 11
396.981537
 21
-8.140000000000001
 31
0.0
  0
LINE
  5
FAD
330
1A
100
AcDbEntity
  8
GUIDE
100
AcDbLine
 10
421.481537
 20
52.1
 30
0.0
 11
421.481537
 21
44.5
 31
0.0
  0
LINE
  5
FAE
330
1A
100
AcDbEntity
  8
GUIDE
100
AcDbLine
 10
421.481537
 20
-8.140000000000001
 30
0.0
 11
421.481537
 21
-15.74
 31
0.0
  0
LINE
  5
FAF
330
1A
100
AcDbEntity
  8
GUIDE
100
AcDbLine
 10
411.981537
 20
47.5
 30
0.0
 11
393.981537
 21
47.5
 31
0.0
  0
LINE
  5
FB0
330
1A
100
AcDbEntity
  8
GUIDE
100
AcDbLine
 10
393.981537
 20
41.5
 30
0.0
 11
393.981537
 21
-5.14
 31
0.0
  0
LINE
  5
FB1
330
1A
100
AcDbEntity
  8
GUIDE
100
AcDbLine
 10
411.981537
 20
-11.14
 30
0.0
 11
393.981537
 21
-11.14
 31
0.0
  0
LINE
  5
FB2
330
1A
100
AcDbEntity
  8
GUIDE
100
AcDbLine
 10
411.981537
 20
47.5
 30
0.0
 11
411.981537
 21
44.5
 31
0.0
  0
LINE
  5
FB3
330
1A
100
AcDbEntity
  8
GUIDE
100
AcDbLine
 10
411.981537
 20
-8.140000000000001
 30
0.0
 11
411.981537
 21
-11.14
 31
0.0
  0
LINE
  5
FB4
330
1A
100
AcDbEntity
  8
GUIDE
100
AcDbLine
 10
400.981537
 20
-11.14
 30
0.0
 11
400.981537
 21
-18.14
 31
0.0
  0
LINE
  5
FB5
330
1A
100
AcDbEntity
  8
GUIDE
100
AcDbLine
 10
425.481537
 20
29.42
 30
0.0
 11
425.481537
 21
21.9
 31
0.0
  0
LINE
  5
FB6
330
1A
100
AcDbEntity
  8
GUIDE
100
AcDbLine
 10
404.481537
 20
-4.42
 30
0.0
 11
404.481537
 21
3.1
 31
0.0
  0
LINE
  5
FB7
330
1A
100
AcDbEntity
  8
GUIDE
100
AcDbLine
 10
404.481537
 20
21.9
 30
0.0
 11
404.481537
 21
29.42
 31
0.0
  0
LINE
  5
FB8
330
1A
100
AcDbEntity
  8
GUIDE
100
AcDbLine
 10
417.981537
 20
40.74
 30
0.0
 11
417.981537
 21
44.5
 31
0.0
  0
LINE
  5
FB9
330
1A
100
AcDbEntity
  8
GUIDE
100
AcDbLine
 10
411.981537
 20
40.74
 30
0.0
 11
411.981537
 21
44.5
 31
0.0
  0
LINE
  5
FBA
330
1A
100
AcDbEntity
  8
GUIDE
100
AcDbLine
 10
411.981537
 20
14.42
 30
0.0
 11
411.981537
 21
33.22
 31
0.0
  0
LINE
  5
FBB
330
1A
100
AcDbEntity
  8
GUIDE
100
AcDbLine
 10
417.981537
 20
14.42
 30
0.0
 11
417.981537
 21
33.22
 31
0.0
  0
LINE
  5
FBC
330
1A
100
AcDbEntity
  8
GUIDE
100
AcDbLine
 10
417.981537
 20
-8.140000000000001
 30
0.0
 11
417.981537
 21
6.9
 31
0.0
  0
LINE
  5
FBD
330
1A
100
AcDbEntity
  8
GUIDE
100
AcDbLine
 10
411.981537
 20
-8.140000000000001
 30
0.0
 11
411.981537
 21
6.9
 31
0.0
  0
LINE
  5
FBE
330
1A
100
AcDbEntity
  8
GUIDE
100
AcDbLine
 10
425.481537
 20
14.42
 30
0.0
 11
425.481537
 21
6.9
 31
0.0
  0
LINE
  5
FBF
330
1A
100
AcDbEntity
  8
GUIDE
100
AcDbLine
 10
404.481537
 20
14.42
 30
0.0
 11
404.481537
 21
6.9
 31
0.0
  0
LINE
  5
FC0
330
1A
100
AcDbEntity
  8
GUIDE
100
AcDbLine
 10
425.481537
 20
14.42
 30
0.0
 11
404.481537
 21
14.42
 31
0.0
  0
LINE
  5
FC1
330
1A
100
AcDbEntity
  8
GUIDE
100
AcDbLine
 10
425.481537
 20
6.9
 30
0.0
 11
404.481537
 21
6.9
 31
0.0
  0
LINE
  5
FC2
330
1A
100
AcDbEntity
  8
GUIDE
100
AcDbLine
 10
417.981537
 20
18.18
 30
0.0
 11
411.981537
 21
18.18
 31
0.0
  0
LINE
  5
FC3
330
1A
100
AcDbEntity
  8
GUIDE
100
AcDbLine
 10
425.481537
 20
33.22
 30
0.0
 11
404.481537
 21
33.22
 31
0.0
  0
LINE
  5
FC4
330
1A
100
AcDbEntity
  8
GUIDE
100
AcDbLine
 10
425.481537
 20
40.74
 30
0.0
 11
404.481537
 21
40.74
 31
0.0
  0
LINE
  5
FC5
330
1A
100
AcDbEntity
  8
GUIDE
100
AcDbLine
 10
404.481537
 20
40.74
 30
0.0
 11
404.481537
 21
33.22
 31
0.0
  0
LINE
  5
FC6
330
1A
100
AcDbEntity
  8
GUIDE
100
AcDbLine
 10
425.481537
 20
40.74
 30
0.0
 11
425.481537
 21
33.22
 31
0.0
  0
LINE
  5
FC7
330
1A
100
AcDbEntity
  8
GUIDE
100
AcDbLine
 10
404.481537
 20
21.9
 30
0.0
 11
411.981537
 21
21.9
 31
0.0
  0
LINE
  5
FC8
330
1A
100
AcDbEntity
  8
GUIDE
100
AcDbLine
 10
404.481537
 20
29.42
 30
0.0
 11
411.981537
 21
29.42
 31
0.0
  0
LINE
  5
FC9
330
1A
100
AcDbEntity
  8
GUIDE
100
AcDbLine
 10
404.481537
 20
3.1
 30
0.0
 11
411.981537
 21
3.1
 31
0.0
  0
LINE
  5
FCA
330
1A
100
AcDbEntity
  8
GUIDE
100
AcDbLine
 10
404.481537
 20
-4.42
 30
0.0
 11
411.981537
 21
-4.42
 31
0.0
  0
LINE
  5
FCB
330
1A
100
AcDbEntity
  8
GUIDE
100
AcDbLine
 10
425.481537
 20
3.1
 30
0.0
 11
425.481537
 21
-4.42
 31
0.0
  0
LINE
  5
FCC
330
1A
100
AcDbEntity
  8
GUIDE
100
AcDbLine
 10
417.981537
 20
29.42
 30
0.0
 11
425.481537
 21
29.42
 31
0.0
  0
LINE
  5
FCD
330
1A
100
AcDbEntity
  8
GUIDE
100
AcDbLine
 10
417.981537
 20
21.9
 30
0.0
 11
425.481537
 21
21.9
 31
0.0
  0
LINE
  5
FCE
330
1A
100
AcDbEntity
  8
GUIDE
100
AcDbLine
 10
417.981537
 20
3.1
 30
0.0
 11
425.481537
 21
3.1
 31
0.0
  0
LINE
  5
FCF
330
1A
100
AcDbEntity
  8
GUIDE
100
AcDbLine
 10
417.981537
 20
-4.42
 30
0.0
 11
425.481537
 21
-4.42
 31
0.0
  0
LINE
  5
FD0
330
1A
100
AcDbEntity
  8
GUIDE
100
AcDbLine
 10
390.981537
 20
-8.140000000000001
 30
0.0
 11
393.981537
 21
-11.14
 31
0.0
  0
LINE
  5
FD1
330
1A
100
AcDbEntity
  8
GUIDE
100
AcDbLine
 10
396.981537
 20
-8.140000000000001
 30
0.0
 11
393.981537
 21
-5.14
 31
0.0
  0
LINE
  5
FD2
330
1A
100
AcDbEntity
  8
GUIDE
100
AcDbLine
 10
393.981537
 20
41.5
 30
0.0
 11
396.981537
 21
44.5
 31
0.0
  0
LINE
  5
FD3
330
1A
100
AcDbEntity
  8
GUIDE
100
AcDbLine
 10
390.981537
 20
44.5
 30
0.0
 11
393.981537
 21
47.5
 31
0.0
  0
POLYLINE
  5
FD4
330
1A
100
AcDbEntity
  8
GUIDE
100
AcDb2dPolyline
 66
     1
 10
0.0
 20
0.0
 30
0.0
  0
VERTEX
  5
1023
330
FD4
100
AcDbEntity
  8
GUIDE
100
AcDbVertex
100
AcDb2dVertex
 10
417.481537
 20
-18.14
 30
0.0
  0
VERTEX
  5
1024
330
FD4
100
AcDbEntity
  8
GUIDE
100
AcDbVertex
100
AcDb2dVertex
 10
417.481537
 20
-15.74
 30
0.0
  0
VERTEX
  5
1025
330
FD4
100
AcDbEntity
  8
GUIDE
100
AcDbVertex
100
AcDb2dVertex
 10
421.481537
 20
-15.74
 30
0.0
  0
SEQEND
  5
1022
330
FD4
100
AcDbEntity
  8
GUIDE
  0
POLYLINE
  5
FD9
330
1A
100
AcDbEntity
  8
GUIDE
100
AcDb2dPolyline
 66
     1
 10
0.0
 20
0.0
 30
0.0
  0
VERTEX
  5
1027
330
FD9
100
AcDbEntity
  8
GUIDE
100
AcDbVertex
100
AcDb2dVertex
 10
417.481537
 20
52.1
 30
0.0
  0
VERTEX
  5
1028
330
FD9
100
AcDbEntity
  8
GUIDE
100
AcDbVertex
100
AcDb2dVertex
 10
417.481537
 20
54.5
 30
0.0
  0
SEQEND
  5
1026
330
FD9
100
AcDbEntity
  8
GUIDE
  0
POLYLINE
  5
FDD
330
1A
100
AcDbEntity
  8
GUIDE
100
AcDb2dPolyline
 66
     1
 10
0.0
 20
0.0
 30
0.0
  0
VERTEX
  5
102A
330
FDD
100
AcDbEntity
  8
GUIDE
100
AcDbVertex
100
AcDb2dVertex
 10
421.481537
 20
52.1
 30
0.0
  0
VERTEX
  5
102B
330
FDD
100
AcDbEntity
  8
GUIDE
100
AcDbVertex
100
AcDb2dVertex
 10
417.481537
 20
52.1
 30
0.0
  0
SEQEND
  5
1029
330
FDD
100
AcDbEntity
  8
GUIDE
  0
ENDSEC
  0
SECTION
  2
OBJECTS
  0
DICTIONARY
  5
C
330
0
100
AcDbDictionary
  3
ACAD_GROUP
350
D
  3
ACAD_LAYOUT
350
FE2
  3
ACAD_MLINESTYLE
350
E
1001
ACAD
1000
TREAT_AS_HARD
1070
     0
  0
DICTIONARY
  5
102C
330
FE1
100
AcDbDictionary
  3
ACAD_XREC_ROUNDTRIP
360
102D
  0
DICTIONARY
  5
D
102
{ACAD_REACTORS
330
C
102
}
330
C
100
AcDbDictionary
1001
ACAD
1000
TREAT_AS_HARD
1070
     0
  0
DICTIONARY
  5
FE2
102
{ACAD_REACTORS
330
C
102
}
330
C
100
AcDbDictionary
1001
ACAD
1000
TREAT_AS_HARD
1070
     0
  0
DICTIONARY
  5
E
102
{ACAD_REACTORS
330
C
102
}
330
C
100
AcDbDictionary
  3
STANDARD
350
13
1001
ACAD
1000
TREAT_AS_HARD
1070
     0
  0
XRECORD
  5
102D
102
{ACAD_REACTORS
330
102C
102
}
330
102C
100
AcDbXrecord
102
UCS
 74
     0
 71
     1
 10
0.0
 20
0.0
 30
0.0
 10
1.0
 20
0.0
 30
0.0
 10
0.0
 20
1.0
 30
0.0
146
0.0
 79
     0
102
VIEW
281
     0
  0
MLINESTYLE
  5
13
102
{ACAD_REACTORS
330
E
102
}
330
E
100
AcDbMlineStyle
  2
STANDARD
 70
     0
  3

 62
     0
 51
90.0
 52
90.0
 71
     2
 49
0.5
 62
   256
  6
BYLAYER
 49
-0.5
 62
   256
  6
BYLAYER
  0
ENDSEC
  0
EOF
