  0
SECTION
  2
HEADER
  9
$ACADVER
  1
AC1012
  9
$DWGCODEPAGE
  3
ansi_1252
  9
$INSBASE
 10
0.0
 20
0.0
 30
0.0
  9
$EXTMIN
 10
-679.0
 20
689.36
 30
0.0
  9
$EXTMAX
 10
476.776092
 20
846.5
 30
0.0
  9
$LIMMIN
 10
0.0
 20
0.0
  9
$LIMMAX
 10
12.0
 20
9.0
  9
$ORTHOMODE
 70
     1
  9
$REGENMODE
 70
     1
  9
$FILLMODE
 70
     1
  9
$QTEXTMODE
 70
     0
  9
$MIRRTEXT
 70
     1
  9
$DRAGMODE
 70
     2
  9
$LTSCALE
 40
1.0
  9
$OSMODE
 70
    37
  9
$ATTMODE
 70
     1
  9
$TEXTSIZE
 40
0.2
  9
$TRACEWID
 40
0.05
  9
$TEXTSTYLE
  7
STANDARD
  9
$CLAYER
  8
0
  9
$CELTYPE
  6
BYLAYER
  9
$CECOLOR
 62
   256
  9
$CELTSCALE
 40
1.0
  9
$DELOBJ
 70
     1
  9
$DISPSILH
 70
     0
  9
$DIMSCALE
 40
1.0
  9
$DIMASZ
 40
0.18
  9
$DIMEXO
 40
0.0625
  9
$DIMDLI
 40
0.38
  9
$DIMRND
 40
0.0
  9
$DIMDLE
 40
0.0
  9
$DIMEXE
 40
0.18
  9
$DIMTP
 40
0.0
  9
$DIMTM
 40
0.0
  9
$DIMTXT
 40
0.18
  9
$DIMCEN
 40
0.09
  9
$DIMTSZ
 40
0.0
  9
$DIMTOL
 70
     0
  9
$DIMLIM
 70
     0
  9
$DIMTIH
 70
     1
  9
$DIMTOH
 70
     1
  9
$DIMSE1
 70
     0
  9
$DIMSE2
 70
     0
  9
$DIMTAD
 70
     0
  9
$DIMZIN
 70
     0
  9
$DIMBLK
  1

  9
$DIMASO
 70
     1
  9
$DIMSHO
 70
     1
  9
$DIMPOST
  1

  9
$DIMAPOST
  1

  9
$DIMALT
 70
     0
  9
$DIMALTD
 70
     2
  9
$DIMALTF
 40
25.4
  9
$DIMLFAC
 40
1.0
  9
$DIMTOFL
 70
     0
  9
$DIMTVP
 40
0.0
  9
$DIMTIX
 70
     0
  9
$DIMSOXD
 70
     0
  9
$DIMSAH
 70
     0
  9
$DIMBLK1
  1

  9
$DIMBLK2
  1

  9
$DIMSTYLE
  2
STANDARD
  9
$DIMCLRD
 70
     0
  9
$DIMCLRE
 70
     0
  9
$DIMCLRT
 70
     0
  9
$DIMTFAC
 40
1.0
  9
$DIMGAP
 40
0.09
  9
$DIMJUST
 70
     0
  9
$DIMSD1
 70
     0
  9
$DIMSD2
 70
     0
  9
$DIMTOLJ
 70
     1
  9
$DIMTZIN
 70
     0
  9
$DIMALTZ
 70
     0
  9
$DIMALTTZ
 70
     0
  9
$DIMFIT
 70
     3
  9
$DIMUPT
 70
     0
  9
$DIMUNIT
 70
     2
  9
$DIMDEC
 70
     4
  9
$DIMTDEC
 70
     4
  9
$DIMALTU
 70
     2
  9
$DIMALTTD
 70
     2
  9
$DIMTXSTY
  7
STANDARD
  9
$DIMAUNIT
 70
     0
  9
$LUNITS
 70
     2
  9
$LUPREC
 70
     4
  9
$SKETCHINC
 40
0.1
  9
$FILLETRAD
 40
0.0
  9
$AUNITS
 70
     0
  9
$AUPREC
 70
     0
  9
$MENU
  1
acad
  9
$ELEVATION
 40
0.0
  9
$PELEVATION
 40
0.0
  9
$THICKNESS
 40
0.0
  9
$LIMCHECK
 70
     0
  9
$CHAMFERA
 40
0.0
  9
$CHAMFERB
 40
0.0
  9
$CHAMFERC
 40
0.0
  9
$CHAMFERD
 40
0.0
  9
$SKPOLY
 70
     0
  9
$TDCREATE
 40
2447893.083333334
  9
$TDUPDATE
 40
2447893.083333334
  9
$TDINDWG
 40
0.0048428241
  9
$TDUSRTIMER
 40
0.0048428241
  9
$USRTIMER
 70
     1
  9
$ANGBASE
 50
0.0
  9
$ANGDIR
 70
     0
  9
$PDMODE
 70
     0
  9
$PDSIZE
 40
0.0
  9
$PLINEWID
 40
0.0
  9
$COORDS
 70
     1
  9
$SPLFRAME
 70
     0
  9
$SPLINETYPE
 70
     6
  9
$SPLINESEGS
 70
     8
  9
$ATTDIA
 70
     0
  9
$ATTREQ
 70
     1
  9
$HANDLING
 70
     1
  9
$HANDSEED
  5
8AC
  9
$SURFTAB1
 70
     6
  9
$SURFTAB2
 70
     6
  9
$SURFTYPE
 70
     6
  9
$SURFU
 70
     6
  9
$SURFV
 70
     6
  9
$UCSNAME
  2

  9
$UCSORG
 10
0.0
 20
0.0
 30
0.0
  9
$UCSXDIR
 10
1.0
 20
0.0
 30
0.0
  9
$UCSYDIR
 10
0.0
 20
1.0
 30
0.0
  9
$PUCSNAME
  2

  9
$PUCSORG
 10
0.0
 20
0.0
 30
0.0
  9
$PUCSXDIR
 10
1.0
 20
0.0
 30
0.0
  9
$PUCSYDIR
 10
0.0
 20
1.0
 30
0.0
  9
$USERI1
 70
     0
  9
$USERI2
 70
     0
  9
$USERI3
 70
     0
  9
$USERI4
 70
     0
  9
$USERI5
 70
     0
  9
$USERR1
 40
0.0
  9
$USERR2
 40
0.0
  9
$USERR3
 40
0.0
  9
$USERR4
 40
0.0
  9
$USERR5
 40
0.0
  9
$WORLDVIEW
 70
     1
  9
$SHADEDGE
 70
     3
  9
$SHADEDIF
 70
    70
  9
$TILEMODE
 70
     1
  9
$MAXACTVP
 70
    16
  9
$PINSBASE
 10
0.0
 20
0.0
 30
0.0
  9
$PLIMCHECK
 70
     0
  9
$PEXTMIN
 10
1.000000000000000E+20
 20
1.000000000000000E+20
 30
1.000000000000000E+20
  9
$PEXTMAX
 10
-1.000000000000000E+20
 20
-1.000000000000000E+20
 30
-1.000000000000000E+20
  9
$PLIMMIN
 10
0.0
 20
0.0
  9
$PLIMMAX
 10
12.0
 20
9.0
  9
$UNITMODE
 70
     0
  9
$VISRETAIN
 70
     0
  9
$PLINEGEN
 70
     0
  9
$PSLTSCALE
 70
     1
  9
$TREEDEPTH
 70
  3020
  9
$PICKSTYLE
 70
     1
  9
$CMLSTYLE
  2
STANDARD
  9
$CMLJUST
 70
     0
  9
$CMLSCALE
 40
1.0
  9
$SAVEIMAGES
 70
     1
  0
ENDSEC
  0
SECTION
  2
CLASSES
  0
CLASS
  1
XRECORD
  2
AcDbXrecord
  3
AutoCAD 2000
 90
    32768
280
     0
281
     0
  0
CLASS
  1
LWPOLYLINE
  2
AcDbPolyline
  3
AutoCAD 2000
 90
    32768
280
     0
281
     1
  0
CLASS
  1
HATCH
  2
AcDbHatch
  3
AutoCAD 2000
 90
    32768
280
     0
281
     1
  0
CLASS
  1
ACDBPLACEHOLDER
  2
AcDbPlaceHolder
  3
ObjectDBX Classes
 90
        0
280
     0
281
     0
  0
CLASS
  1
LAYOUT
  2
AcDbLayout
  3
ObjectDBX Classes
 90
        0
280
     0
281
     0
  0
ENDSEC
  0
SECTION
  2
TABLES
  0
TABLE
  2
VPORT
  5
8
330
0
100
AcDbSymbolTable
 70
     1
  0
VPORT
  5
85F
102
{ACAD_XDICTIONARY
360
8AA
102
}
330
8
100
AcDbSymbolTableRecord
100
AcDbViewportTableRecord
  2
*ACTIVE
 70
     0
 10
0.0
 20
0.0
 11
1.0
 21
1.0
 12
131.67372
 22
423.25
 13
0.0
 23
0.0
 14
1.0
 24
1.0
 15
0.0
 25
0.0
 16
0.0
 26
0.0
 36
1.0
 17
0.0
 27
0.0
 37
0.0
 40
846.5
 41
1.915354
 42
50.0
 43
0.0
 44
0.0
 50
0.0
 51
0.0
 71
     0
 72
   100
 73
     1
 74
     1
 75
     0
 76
     0
 77
     0
 78
     0
  0
ENDTAB
  0
TABLE
  2
LTYPE
  5
5
330
0
100
AcDbSymbolTable
 70
     1
  0
LTYPE
  5
14
330
5
100
AcDbSymbolTableRecord
100
AcDbLinetypeTableRecord
  2
BYBLOCK
 70
     0
  3

 72
    65
 73
     0
 40
0.0
  0
LTYPE
  5
15
330
5
100
AcDbSymbolTableRecord
100
AcDbLinetypeTableRecord
  2
BYLAYER
 70
     0
  3

 72
    65
 73
     0
 40
0.0
  0
LTYPE
  5
16
330
5
100
AcDbSymbolTableRecord
100
AcDbLinetypeTableRecord
  2
CONTINUOUS
 70
     0
  3
Solid line
 72
    65
 73
     0
 40
0.0
  0
ENDTAB
  0
TABLE
  2
LAYER
  5
2
330
0
100
AcDbSymbolTable
 70
     2
  0
LAYER
  5
F
330
2
100
AcDbSymbolTableRecord
100
AcDbLayerTableRecord
  2
0
 70
     0
 62
     7
  6
CONTINUOUS
  0
LAYER
  5
28
330
2
100
AcDbSymbolTableRecord
100
AcDbLayerTableRecord
  2
GUIDE
 70
     0
 62
     7
  6
CONTINUOUS
  0
ENDTAB
  0
TABLE
  2
STYLE
  5
3
330
0
100
AcDbSymbolTable
 70
     1
  0
STYLE
  5
10
330
3
100
AcDbSymbolTableRecord
100
AcDbTextStyleTableRecord
  2
STANDARD
 70
     0
 40
0.0
 41
1.0
 50
0.0
 71
     0
 42
0.2
  3
txt
  4

  0
ENDTAB
  0
TABLE
  2
VIEW
  5
6
330
0
100
AcDbSymbolTable
 70
     0
  0
ENDTAB
  0
TABLE
  2
UCS
  5
7
330
0
100
AcDbSymbolTable
 70
     0
  0
ENDTAB
  0
TABLE
  2
APPID
  5
9
330
0
100
AcDbSymbolTable
 70
     1
  0
APPID
  5
11
330
9
100
AcDbSymbolTableRecord
100
AcDbRegAppTableRecord
  2
ACAD
 70
     0
  0
ENDTAB
  0
TABLE
  2
DIMSTYLE
  5
A
330
0
100
AcDbSymbolTable
 70
     1
  0
DIMSTYLE
105
1D
330
A
100
AcDbSymbolTableRecord
100
AcDbDimStyleTableRecord
  2
STANDARD
 70
     0
  3

  4

  5

  6

  7

 40
1.0
 41
0.18
 42
0.0625
 43
0.38
 44
0.18
 45
0.0
 46
0.0
 47
0.0
 48
0.0
140
0.18
141
0.09
142
0.0
143
25.4
144
1.0
145
0.0
146
1.0
147
0.09
 71
     0
 72
     0
 73
     1
 74
     1
 75
     0
 76
     0
 77
     0
 78
     0
170
     0
171
     2
172
     0
173
     0
174
     0
175
     0
176
     0
177
     0
178
     0
270
     2
271
     4
272
     4
273
     2
274
     2
340
10
275
     0
280
     0
281
     0
282
     0
283
     1
284
     0
285
     0
286
     0
287
     3
288
     0
  0
ENDTAB
  0
TABLE
  2
BLOCK_RECORD
  5
1
330
0
100
AcDbSymbolTable
 70
     0
  0
BLOCK_RECORD
  5
1A
330
1
100
AcDbSymbolTableRecord
100
AcDbBlockTableRecord
  2
*MODEL_SPACE
  0
BLOCK_RECORD
  5
17
330
1
100
AcDbSymbolTableRecord
100
AcDbBlockTableRecord
  2
*PAPER_SPACE
  0
ENDTAB
  0
ENDSEC
  0
SECTION
  2
BLOCKS
  0
BLOCK
  5
1B
330
1A
100
AcDbEntity
  8
0
100
AcDbBlockBegin
  2
*MODEL_SPACE
 70
     0
 71
     0
 10
0.0
 20
0.0
 30
0.0
  3
*MODEL_SPACE
  1

  0
ENDBLK
  5
1C
330
1A
100
AcDbEntity
  8
0
100
AcDbBlockEnd
  0
BLOCK
  5
18
330
17
100
AcDbEntity
 67
     1
  8
0
100
AcDbBlockBegin
  2
*PAPER_SPACE
 70
     0
 71
     0
 10
0.0
 20
0.0
 30
0.0
  3
*PAPER_SPACE
  1

  0
ENDBLK
  5
19
330
17
100
AcDbEntity
 67
     1
  8
0
100
AcDbBlockEnd
  0
ENDSEC
  0
SECTION
  2
ENTITIES
  0
POLYLINE
  5
44D
330
1A
100
AcDbEntity
  8
GUIDE
100
AcDb2dPolyline
 66
     1
 10
0.0
 20
0.0
 30
0.0
  0
VERTEX
  5
89B
330
44D
100
AcDbEntity
  8
GUIDE
100
AcDbVertex
100
AcDb2dVertex
 10
374.0
 20
832.798438
 30
0.0
 42
0.156174
  0
VERTEX
  5
89C
330
44D
100
AcDbEntity
  8
GUIDE
100
AcDbVertex
100
AcDb2dVertex
 10
374.0
 20
839.201562
 30
0.0
 42
0.485071
  0
SEQEND
  5
89A
330
44D
100
AcDbEntity
  8
GUIDE
  0
POLYLINE
  5
451
330
1A
100
AcDbEntity
  8
GUIDE
100
AcDb2dPolyline
 66
     1
 10
0.0
 20
0.0
 30
0.0
  0
VERTEX
  5
89E
330
451
100
AcDbEntity
  8
GUIDE
100
AcDbVertex
100
AcDb2dVertex
 10
372.246211
 20
842.5
 30
0.0
 42
0.485071
  0
VERTEX
  5
89F
330
451
100
AcDbEntity
  8
GUIDE
100
AcDbVertex
100
AcDb2dVertex
 10
355.753789
 20
842.5
 30
0.0
 42
2.061553
  0
SEQEND
  5
89D
330
451
100
AcDbEntity
  8
GUIDE
  0
LINE
  5
455
330
1A
100
AcDbEntity
  8
GUIDE
100
AcDbLine
 10
374.0
 20
842.5
 30
0.0
 11
374.0
 21
812.0
 31
0.0
  0
ARC
  5
456
330
1A
100
AcDbEntity
  8
GUIDE
100
AcDbCircle
 10
329.0
 20
836.0
 30
0.0
 40
10.5
100
AcDbArc
 50
38.24662
 51
141.75338
  0
ARC
  5
457
330
1A
100
AcDbEntity
  8
GUIDE
100
AcDbCircle
 10
346.5
 20
836.0
 30
0.0
 40
10.5
100
AcDbArc
 50
38.24662
 51
141.75338
  0
ARC
  5
458
330
1A
100
AcDbEntity
  8
GUIDE
100
AcDbCircle
 10
294.0
 20
836.0
 30
0.0
 40
10.5
100
AcDbArc
 50
38.24662
 51
141.75338
  0
ARC
  5
459
330
1A
100
AcDbEntity
  8
GUIDE
100
AcDbCircle
 10
311.5
 20
836.0
 30
0.0
 40
10.5
100
AcDbArc
 50
38.24662
 51
141.75338
  0
ARC
  5
45A
330
1A
100
AcDbEntity
  8
GUIDE
100
AcDbCircle
 10
259.0
 20
836.0
 30
0.0
 40
10.5
100
AcDbArc
 50
38.24662
 51
141.75338
  0
ARC
  5
45B
330
1A
100
AcDbEntity
  8
GUIDE
100
AcDbCircle
 10
276.5
 20
836.0
 30
0.0
 40
10.5
100
AcDbArc
 50
38.24662
 51
141.75338
  0
ARC
  5
45C
330
1A
100
AcDbEntity
  8
GUIDE
100
AcDbCircle
 10
224.0
 20
836.0
 30
0.0
 40
10.5
100
AcDbArc
 50
38.24662
 51
141.75338
  0
ARC
  5
45D
330
1A
100
AcDbEntity
  8
GUIDE
100
AcDbCircle
 10
241.5
 20
836.0
 30
0.0
 40
10.5
100
AcDbArc
 50
38.24662
 51
141.75338
  0
ARC
  5
45E
330
1A
100
AcDbEntity
  8
GUIDE
100
AcDbCircle
 10
189.0
 20
836.0
 30
0.0
 40
10.5
100
AcDbArc
 50
38.24662
 51
141.75338
  0
ARC
  5
45F
330
1A
100
AcDbEntity
  8
GUIDE
100
AcDbCircle
 10
206.5
 20
836.0
 30
0.0
 40
10.5
100
AcDbArc
 50
38.24662
 51
141.75338
  0
ARC
  5
460
330
1A
100
AcDbEntity
  8
GUIDE
100
AcDbCircle
 10
154.0
 20
836.0
 30
0.0
 40
10.5
100
AcDbArc
 50
38.24662
 51
141.75338
  0
ARC
  5
461
330
1A
100
AcDbEntity
  8
GUIDE
100
AcDbCircle
 10
171.5
 20
836.0
 30
0.0
 40
10.5
100
AcDbArc
 50
38.24662
 51
141.75338
  0
ARC
  5
462
330
1A
100
AcDbEntity
  8
GUIDE
100
AcDbCircle
 10
119.0
 20
836.0
 30
0.0
 40
10.5
100
AcDbArc
 50
38.24662
 51
141.75338
  0
ARC
  5
463
330
1A
100
AcDbEntity
  8
GUIDE
100
AcDbCircle
 10
136.5
 20
836.0
 30
0.0
 40
10.5
100
AcDbArc
 50
38.24662
 51
141.75338
  0
ARC
  5
464
330
1A
100
AcDbEntity
  8
GUIDE
100
AcDbCircle
 10
84.0
 20
836.0
 30
0.0
 40
10.5
100
AcDbArc
 50
38.24662
 51
141.75338
  0
ARC
  5
465
330
1A
100
AcDbEntity
  8
GUIDE
100
AcDbCircle
 10
101.5
 20
836.0
 30
0.0
 40
10.5
100
AcDbArc
 50
38.24662
 51
141.75338
  0
ARC
  5
466
330
1A
100
AcDbEntity
  8
GUIDE
100
AcDbCircle
 10
49.0
 20
836.0
 30
0.0
 40
10.5
100
AcDbArc
 50
38.24662
 51
141.75338
  0
ARC
  5
467
330
1A
100
AcDbEntity
  8
GUIDE
100
AcDbCircle
 10
66.5
 20
836.0
 30
0.0
 40
10.5
100
AcDbArc
 50
38.24662
 51
141.75338
  0
ARC
  5
468
330
1A
100
AcDbEntity
  8
GUIDE
100
AcDbCircle
 10
14.0
 20
836.0
 30
0.0
 40
10.5
100
AcDbArc
 50
38.24662
 51
141.75338
  0
ARC
  5
469
330
1A
100
AcDbEntity
  8
GUIDE
100
AcDbCircle
 10
31.5
 20
836.0
 30
0.0
 40
10.5
100
AcDbArc
 50
38.24662
 51
141.75338
  0
ARC
  5
46A
330
1A
100
AcDbEntity
  8
GUIDE
100
AcDbCircle
 10
-21.0
 20
836.0
 30
0.0
 40
10.5
100
AcDbArc
 50
38.24662
 51
141.75338
  0
ARC
  5
46B
330
1A
100
AcDbEntity
  8
GUIDE
100
AcDbCircle
 10
-3.5
 20
836.0
 30
0.0
 40
10.5
100
AcDbArc
 50
38.24662
 51
141.75338
  0
ARC
  5
46C
330
1A
100
AcDbEntity
  8
GUIDE
100
AcDbCircle
 10
-56.0
 20
836.0
 30
0.0
 40
10.5
100
AcDbArc
 50
38.24662
 51
141.75338
  0
ARC
  5
46D
330
1A
100
AcDbEntity
  8
GUIDE
100
AcDbCircle
 10
-38.5
 20
836.0
 30
0.0
 40
10.5
100
AcDbArc
 50
38.24662
 51
141.75338
  0
ARC
  5
46E
330
1A
100
AcDbEntity
  8
GUIDE
100
AcDbCircle
 10
-91.0
 20
836.0
 30
0.0
 40
10.5
100
AcDbArc
 50
38.24662
 51
141.75338
  0
ARC
  5
46F
330
1A
100
AcDbEntity
  8
GUIDE
100
AcDbCircle
 10
-73.5
 20
836.0
 30
0.0
 40
10.5
100
AcDbArc
 50
38.24662
 51
141.75338
  0
ARC
  5
470
330
1A
100
AcDbEntity
  8
GUIDE
100
AcDbCircle
 10
-126.0
 20
836.0
 30
0.0
 40
10.5
100
AcDbArc
 50
38.24662
 51
141.75338
  0
ARC
  5
471
330
1A
100
AcDbEntity
  8
GUIDE
100
AcDbCircle
 10
-108.5
 20
836.0
 30
0.0
 40
10.5
100
AcDbArc
 50
38.24662
 51
141.75338
  0
ARC
  5
472
330
1A
100
AcDbEntity
  8
GUIDE
100
AcDbCircle
 10
-161.0
 20
836.0
 30
0.0
 40
10.5
100
AcDbArc
 50
38.24662
 51
141.75338
  0
ARC
  5
473
330
1A
100
AcDbEntity
  8
GUIDE
100
AcDbCircle
 10
-143.5
 20
836.0
 30
0.0
 40
10.5
100
AcDbArc
 50
38.24662
 51
141.75338
  0
ARC
  5
474
330
1A
100
AcDbEntity
  8
GUIDE
100
AcDbCircle
 10
-196.0
 20
836.0
 30
0.0
 40
10.5
100
AcDbArc
 50
38.24662
 51
141.75338
  0
ARC
  5
475
330
1A
100
AcDbEntity
  8
GUIDE
100
AcDbCircle
 10
-178.5
 20
836.0
 30
0.0
 40
10.5
100
AcDbArc
 50
38.24662
 51
141.75338
  0
ARC
  5
476
330
1A
100
AcDbEntity
  8
GUIDE
100
AcDbCircle
 10
-231.0
 20
836.0
 30
0.0
 40
10.5
100
AcDbArc
 50
38.24662
 51
141.75338
  0
ARC
  5
477
330
1A
100
AcDbEntity
  8
GUIDE
100
AcDbCircle
 10
-213.5
 20
836.0
 30
0.0
 40
10.5
100
AcDbArc
 50
38.24662
 51
141.75338
  0
ARC
  5
478
330
1A
100
AcDbEntity
  8
GUIDE
100
AcDbCircle
 10
-266.0
 20
836.0
 30
0.0
 40
10.5
100
AcDbArc
 50
38.24662
 51
141.75338
  0
ARC
  5
479
330
1A
100
AcDbEntity
  8
GUIDE
100
AcDbCircle
 10
-248.5
 20
836.0
 30
0.0
 40
10.5
100
AcDbArc
 50
38.24662
 51
141.75338
  0
ARC
  5
47A
330
1A
100
AcDbEntity
  8
GUIDE
100
AcDbCircle
 10
-301.0
 20
836.0
 30
0.0
 40
10.5
100
AcDbArc
 50
38.24662
 51
141.75338
  0
ARC
  5
47B
330
1A
100
AcDbEntity
  8
GUIDE
100
AcDbCircle
 10
-283.5
 20
836.0
 30
0.0
 40
10.5
100
AcDbArc
 50
38.24662
 51
141.75338
  0
ARC
  5
47C
330
1A
100
AcDbEntity
  8
GUIDE
100
AcDbCircle
 10
-336.0
 20
836.0
 30
0.0
 40
10.5
100
AcDbArc
 50
38.24662
 51
141.75338
  0
ARC
  5
47D
330
1A
100
AcDbEntity
  8
GUIDE
100
AcDbCircle
 10
-318.5
 20
836.0
 30
0.0
 40
10.5
100
AcDbArc
 50
38.24662
 51
141.75338
  0
ARC
  5
47E
330
1A
100
AcDbEntity
  8
GUIDE
100
AcDbCircle
 10
-371.0
 20
836.0
 30
0.0
 40
10.5
100
AcDbArc
 50
38.24662
 51
141.75338
  0
ARC
  5
47F
330
1A
100
AcDbEntity
  8
GUIDE
100
AcDbCircle
 10
-353.5
 20
836.0
 30
0.0
 40
10.5
100
AcDbArc
 50
38.24662
 51
141.75338
  0
ARC
  5
480
330
1A
100
AcDbEntity
  8
GUIDE
100
AcDbCircle
 10
-406.0
 20
836.0
 30
0.0
 40
10.5
100
AcDbArc
 50
38.24662
 51
141.75338
  0
ARC
  5
481
330
1A
100
AcDbEntity
  8
GUIDE
100
AcDbCircle
 10
-388.5
 20
836.0
 30
0.0
 40
10.5
100
AcDbArc
 50
38.24662
 51
141.75338
  0
ARC
  5
482
330
1A
100
AcDbEntity
  8
GUIDE
100
AcDbCircle
 10
-441.0
 20
836.0
 30
0.0
 40
10.5
100
AcDbArc
 50
38.24662
 51
141.75338
  0
ARC
  5
483
330
1A
100
AcDbEntity
  8
GUIDE
100
AcDbCircle
 10
-423.5
 20
836.0
 30
0.0
 40
10.5
100
AcDbArc
 50
38.24662
 51
141.75338
  0
ARC
  5
484
330
1A
100
AcDbEntity
  8
GUIDE
100
AcDbCircle
 10
-476.0
 20
836.0
 30
0.0
 40
10.5
100
AcDbArc
 50
38.24662
 51
141.75338
  0
ARC
  5
485
330
1A
100
AcDbEntity
  8
GUIDE
100
AcDbCircle
 10
-458.5
 20
836.0
 30
0.0
 40
10.5
100
AcDbArc
 50
38.24662
 51
141.75338
  0
ARC
  5
486
330
1A
100
AcDbEntity
  8
GUIDE
100
AcDbCircle
 10
-511.0
 20
836.0
 30
0.0
 40
10.5
100
AcDbArc
 50
38.24662
 51
141.75338
  0
ARC
  5
487
330
1A
100
AcDbEntity
  8
GUIDE
100
AcDbCircle
 10
-493.5
 20
836.0
 30
0.0
 40
10.5
100
AcDbArc
 50
38.24662
 51
141.75338
  0
ARC
  5
488
330
1A
100
AcDbEntity
  8
GUIDE
100
AcDbCircle
 10
-546.0
 20
836.0
 30
0.0
 40
10.5
100
AcDbArc
 50
38.24662
 51
141.75338
  0
ARC
  5
489
330
1A
100
AcDbEntity
  8
GUIDE
100
AcDbCircle
 10
-528.5
 20
836.0
 30
0.0
 40
10.5
100
AcDbArc
 50
38.24662
 51
141.75338
  0
ARC
  5
48A
330
1A
100
AcDbEntity
  8
GUIDE
100
AcDbCircle
 10
-581.0
 20
836.0
 30
0.0
 40
10.5
100
AcDbArc
 50
38.24662
 51
141.75338
  0
ARC
  5
48B
330
1A
100
AcDbEntity
  8
GUIDE
100
AcDbCircle
 10
-563.5
 20
836.0
 30
0.0
 40
10.5
100
AcDbArc
 50
38.24662
 51
141.75338
  0
ARC
  5
48C
330
1A
100
AcDbEntity
  8
GUIDE
100
AcDbCircle
 10
-616.0
 20
836.0
 30
0.0
 40
10.5
100
AcDbArc
 50
38.24662
 51
141.75338
  0
ARC
  5
48D
330
1A
100
AcDbEntity
  8
GUIDE
100
AcDbCircle
 10
-598.5
 20
836.0
 30
0.0
 40
10.5
100
AcDbArc
 50
38.24662
 51
141.75338
  0
LINE
  5
48E
330
1A
100
AcDbEntity
  8
GUIDE
100
AcDbLine
 10
-675.0
 20
812.0
 30
0.0
 11
374.0
 21
812.0
 31
0.0
  0
LINE
  5
48F
330
1A
100
AcDbEntity
  8
GUIDE
100
AcDbLine
 10
-675.0
 20
822.0
 30
0.0
 11
374.0
 21
822.0
 31
0.0
  0
LINE
  5
490
330
1A
100
AcDbEntity
  8
GUIDE
100
AcDbLine
 10
-675.0
 20
842.5
 30
0.0
 11
374.0
 21
842.5
 31
0.0
  0
ARC
  5
491
330
1A
100
AcDbEntity
  8
GUIDE
100
AcDbCircle
 10
-633.5
 20
836.0
 30
0.0
 40
10.5
100
AcDbArc
 50
38.24662
 51
141.75338
  0
ARC
  5
492
330
1A
100
AcDbEntity
  8
GUIDE
100
AcDbCircle
 10
-651.0
 20
836.0
 30
0.0
 40
10.5
100
AcDbArc
 50
38.24662
 51
141.75338
  0
ARC
  5
493
330
1A
100
AcDbEntity
  8
GUIDE
100
AcDbCircle
 10
-668.5
 20
836.0
 30
0.0
 40
10.5
100
AcDbArc
 50
38.24662
 51
231.75338
  0
LINE
  5
494
330
1A
100
AcDbEntity
  8
GUIDE
100
AcDbLine
 10
-675.0
 20
812.0
 30
0.0
 11
-675.0
 21
842.5
 31
0.0
  0
LINE
  5
495
330
1A
100
AcDbEntity
  8
GUIDE
100
AcDbLine
 10
374.0
 20
721.92
 30
0.0
 11
374.0
 21
740.72
 31
0.0
  0
LINE
  5
496
330
1A
100
AcDbEntity
  8
GUIDE
100
AcDbLine
 10
374.0
 20
689.5
 30
0.0
 11
374.0
 21
714.4
 31
0.0
  0
LINE
  5
497
330
1A
100
AcDbEntity
  8
GUIDE
100
AcDbLine
 10
-675.0
 20
689.5
 30
0.0
 11
374.0
 21
689.5
 31
0.0
  0
LINE
  5
498
330
1A
100
AcDbEntity
  8
GUIDE
100
AcDbLine
 10
-675.0
 20
703.08
 30
0.0
 11
-675.0
 21
689.5
 31
0.0
  0
LINE
  5
499
330
1A
100
AcDbEntity
  8
GUIDE
100
AcDbLine
 10
-675.0
 20
699.5
 30
0.0
 11
374.0
 21
699.5
 31
0.0
  0
LINE
  5
49A
330
1A
100
AcDbEntity
  8
GUIDE
100
AcDbLine
 10
-675.0
 20
762.0
 30
0.0
 11
-675.0
 21
736.92
 31
0.0
  0
LINE
  5
49B
330
1A
100
AcDbEntity
  8
GUIDE
100
AcDbLine
 10
374.0
 20
762.0
 30
0.0
 11
374.0
 21
748.24
 31
0.0
  0
LINE
  5
49C
330
1A
100
AcDbEntity
  8
GUIDE
100
AcDbLine
 10
-675.0
 20
762.0
 30
0.0
 11
374.0
 21
762.0
 31
0.0
  0
LINE
  5
49D
330
1A
100
AcDbEntity
  8
GUIDE
100
AcDbLine
 10
-665.5
 20
752.0
 30
0.0
 11
-665.5
 21
736.92
 31
0.0
  0
LINE
  5
49E
330
1A
100
AcDbEntity
  8
GUIDE
100
AcDbLine
 10
-671.5
 20
752.0
 30
0.0
 11
-671.5
 21
736.92
 31
0.0
  0
LINE
  5
49F
330
1A
100
AcDbEntity
  8
GUIDE
100
AcDbLine
 10
-675.0
 20
752.0
 30
0.0
 11
374.0
 21
752.0
 31
0.0
  0
LINE
  5
4A0
330
1A
100
AcDbEntity
  8
GUIDE
100
AcDbLine
 10
-665.5
 20
725.64
 30
0.0
 11
-671.5
 21
725.64
 31
0.0
  0
LINE
  5
4A1
330
1A
100
AcDbEntity
  8
GUIDE
100
AcDbLine
 10
-658.0
 20
710.6
 30
0.0
 11
-679.0
 21
710.6
 31
0.0
  0
LINE
  5
4A2
330
1A
100
AcDbEntity
  8
GUIDE
100
AcDbLine
 10
-658.0
 20
703.08
 30
0.0
 11
-679.0
 21
703.08
 31
0.0
  0
LINE
  5
4A3
330
1A
100
AcDbEntity
  8
GUIDE
100
AcDbLine
 10
-658.0
 20
729.4
 30
0.0
 11
-679.0
 21
729.4
 31
0.0
  0
LINE
  5
4A4
330
1A
100
AcDbEntity
  8
GUIDE
100
AcDbLine
 10
-658.0
 20
736.92
 30
0.0
 11
-679.0
 21
736.92
 31
0.0
  0
LINE
  5
4A5
330
1A
100
AcDbEntity
  8
GUIDE
100
AcDbLine
 10
-679.0
 20
729.4
 30
0.0
 11
-679.0
 21
736.92
 31
0.0
  0
LINE
  5
4A6
330
1A
100
AcDbEntity
  8
GUIDE
100
AcDbLine
 10
-679.0
 20
703.08
 30
0.0
 11
-679.0
 21
710.6
 31
0.0
  0
LINE
  5
4A7
330
1A
100
AcDbEntity
  8
GUIDE
100
AcDbLine
 10
-658.0
 20
703.08
 30
0.0
 11
-658.0
 21
710.6
 31
0.0
  0
LINE
  5
4A8
330
1A
100
AcDbEntity
  8
GUIDE
100
AcDbLine
 10
-658.0
 20
729.4
 30
0.0
 11
-658.0
 21
736.92
 31
0.0
  0
LINE
  5
4A9
330
1A
100
AcDbEntity
  8
GUIDE
100
AcDbLine
 10
-671.5
 20
729.4
 30
0.0
 11
-671.5
 21
710.6
 31
0.0
  0
LINE
  5
4AA
330
1A
100
AcDbEntity
  8
GUIDE
100
AcDbLine
 10
-665.5
 20
729.4
 30
0.0
 11
-665.5
 21
710.6
 31
0.0
  0
LINE
  5
4AB
330
1A
100
AcDbEntity
  8
GUIDE
100
AcDbLine
 10
-665.5
 20
703.08
 30
0.0
 11
-665.5
 21
699.5
 31
0.0
  0
LINE
  5
4AC
330
1A
100
AcDbEntity
  8
GUIDE
100
AcDbLine
 10
-671.5
 20
703.08
 30
0.0
 11
-671.5
 21
699.5
 31
0.0
  0
LINE
  5
4AD
330
1A
100
AcDbEntity
  8
GUIDE
100
AcDbLine
 10
-675.0
 20
729.4
 30
0.0
 11
-675.0
 21
710.6
 31
0.0
  0
LINE
  5
4AE
330
1A
100
AcDbEntity
  8
GUIDE
100
AcDbLine
 10
-648.0
 20
748.24
 30
0.0
 11
-648.0
 21
752.0
 31
0.0
  0
LINE
  5
4AF
330
1A
100
AcDbEntity
  8
GUIDE
100
AcDbLine
 10
-654.0
 20
748.24
 30
0.0
 11
-654.0
 21
752.0
 31
0.0
  0
LINE
  5
4B0
330
1A
100
AcDbEntity
  8
GUIDE
100
AcDbLine
 10
-654.0
 20
721.92
 30
0.0
 11
-654.0
 21
740.72
 31
0.0
  0
LINE
  5
4B1
330
1A
100
AcDbEntity
  8
GUIDE
100
AcDbLine
 10
-648.0
 20
721.92
 30
0.0
 11
-648.0
 21
740.72
 31
0.0
  0
LINE
  5
4B2
330
1A
100
AcDbEntity
  8
GUIDE
100
AcDbLine
 10
-648.0
 20
699.5
 30
0.0
 11
-648.0
 21
714.4
 31
0.0
  0
LINE
  5
4B3
330
1A
100
AcDbEntity
  8
GUIDE
100
AcDbLine
 10
-654.0
 20
699.5
 30
0.0
 11
-654.0
 21
714.4
 31
0.0
  0
LINE
  5
4B4
330
1A
100
AcDbEntity
  8
GUIDE
100
AcDbLine
 10
-640.5
 20
721.92
 30
0.0
 11
-640.5
 21
714.4
 31
0.0
  0
LINE
  5
4B5
330
1A
100
AcDbEntity
  8
GUIDE
100
AcDbLine
 10
-661.5
 20
721.92
 30
0.0
 11
-661.5
 21
714.4
 31
0.0
  0
LINE
  5
4B6
330
1A
100
AcDbEntity
  8
GUIDE
100
AcDbLine
 10
-640.5
 20
721.92
 30
0.0
 11
-661.5
 21
721.92
 31
0.0
  0
LINE
  5
4B7
330
1A
100
AcDbEntity
  8
GUIDE
100
AcDbLine
 10
-640.5
 20
714.4
 30
0.0
 11
-661.5
 21
714.4
 31
0.0
  0
LINE
  5
4B8
330
1A
100
AcDbEntity
  8
GUIDE
100
AcDbLine
 10
-648.0
 20
725.68
 30
0.0
 11
-654.0
 21
725.68
 31
0.0
  0
LINE
  5
4B9
330
1A
100
AcDbEntity
  8
GUIDE
100
AcDbLine
 10
-640.5
 20
740.72
 30
0.0
 11
-661.5
 21
740.72
 31
0.0
  0
LINE
  5
4BA
330
1A
100
AcDbEntity
  8
GUIDE
100
AcDbLine
 10
-640.5
 20
748.24
 30
0.0
 11
-661.5
 21
748.24
 31
0.0
  0
LINE
  5
4BB
330
1A
100
AcDbEntity
  8
GUIDE
100
AcDbLine
 10
-661.5
 20
748.24
 30
0.0
 11
-661.5
 21
740.72
 31
0.0
  0
LINE
  5
4BC
330
1A
100
AcDbEntity
  8
GUIDE
100
AcDbLine
 10
-640.5
 20
748.24
 30
0.0
 11
-640.5
 21
740.72
 31
0.0
  0
LINE
  5
4BD
330
1A
100
AcDbEntity
  8
GUIDE
100
AcDbLine
 10
-605.5
 20
748.24
 30
0.0
 11
-605.5
 21
740.72
 31
0.0
  0
LINE
  5
4BE
330
1A
100
AcDbEntity
  8
GUIDE
100
AcDbLine
 10
-626.5
 20
748.24
 30
0.0
 11
-626.5
 21
740.72
 31
0.0
  0
LINE
  5
4BF
330
1A
100
AcDbEntity
  8
GUIDE
100
AcDbLine
 10
-605.5
 20
748.24
 30
0.0
 11
-626.5
 21
748.24
 31
0.0
  0
LINE
  5
4C0
330
1A
100
AcDbEntity
  8
GUIDE
100
AcDbLine
 10
-605.5
 20
740.72
 30
0.0
 11
-626.5
 21
740.72
 31
0.0
  0
LINE
  5
4C1
330
1A
100
AcDbEntity
  8
GUIDE
100
AcDbLine
 10
-613.0
 20
725.68
 30
0.0
 11
-619.0
 21
725.68
 31
0.0
  0
LINE
  5
4C2
330
1A
100
AcDbEntity
  8
GUIDE
100
AcDbLine
 10
-605.5
 20
714.4
 30
0.0
 11
-626.5
 21
714.4
 31
0.0
  0
LINE
  5
4C3
330
1A
100
AcDbEntity
  8
GUIDE
100
AcDbLine
 10
-605.5
 20
721.92
 30
0.0
 11
-626.5
 21
721.92
 31
0.0
  0
LINE
  5
4C4
330
1A
100
AcDbEntity
  8
GUIDE
100
AcDbLine
 10
-626.5
 20
721.92
 30
0.0
 11
-626.5
 21
714.4
 31
0.0
  0
LINE
  5
4C5
330
1A
100
AcDbEntity
  8
GUIDE
100
AcDbLine
 10
-605.5
 20
721.92
 30
0.0
 11
-605.5
 21
714.4
 31
0.0
  0
LINE
  5
4C6
330
1A
100
AcDbEntity
  8
GUIDE
100
AcDbLine
 10
-619.0
 20
699.5
 30
0.0
 11
-619.0
 21
714.4
 31
0.0
  0
LINE
  5
4C7
330
1A
100
AcDbEntity
  8
GUIDE
100
AcDbLine
 10
-613.0
 20
699.5
 30
0.0
 11
-613.0
 21
714.4
 31
0.0
  0
LINE
  5
4C8
330
1A
100
AcDbEntity
  8
GUIDE
100
AcDbLine
 10
-613.0
 20
721.92
 30
0.0
 11
-613.0
 21
740.72
 31
0.0
  0
LINE
  5
4C9
330
1A
100
AcDbEntity
  8
GUIDE
100
AcDbLine
 10
-619.0
 20
721.92
 30
0.0
 11
-619.0
 21
740.72
 31
0.0
  0
LINE
  5
4CA
330
1A
100
AcDbEntity
  8
GUIDE
100
AcDbLine
 10
-619.0
 20
748.24
 30
0.0
 11
-619.0
 21
752.0
 31
0.0
  0
LINE
  5
4CB
330
1A
100
AcDbEntity
  8
GUIDE
100
AcDbLine
 10
-613.0
 20
748.24
 30
0.0
 11
-613.0
 21
752.0
 31
0.0
  0
LINE
  5
4CC
330
1A
100
AcDbEntity
  8
GUIDE
100
AcDbLine
 10
-636.5
 20
703.08
 30
0.0
 11
-636.5
 21
699.5
 31
0.0
  0
LINE
  5
4CD
330
1A
100
AcDbEntity
  8
GUIDE
100
AcDbLine
 10
-630.5
 20
703.08
 30
0.0
 11
-630.5
 21
699.5
 31
0.0
  0
LINE
  5
4CE
330
1A
100
AcDbEntity
  8
GUIDE
100
AcDbLine
 10
-630.5
 20
729.4
 30
0.0
 11
-630.5
 21
710.6
 31
0.0
  0
LINE
  5
4CF
330
1A
100
AcDbEntity
  8
GUIDE
100
AcDbLine
 10
-636.5
 20
729.4
 30
0.0
 11
-636.5
 21
710.6
 31
0.0
  0
LINE
  5
4D0
330
1A
100
AcDbEntity
  8
GUIDE
100
AcDbLine
 10
-623.0
 20
729.4
 30
0.0
 11
-623.0
 21
736.92
 31
0.0
  0
LINE
  5
4D1
330
1A
100
AcDbEntity
  8
GUIDE
100
AcDbLine
 10
-623.0
 20
703.08
 30
0.0
 11
-623.0
 21
710.6
 31
0.0
  0
LINE
  5
4D2
330
1A
100
AcDbEntity
  8
GUIDE
100
AcDbLine
 10
-644.0
 20
703.08
 30
0.0
 11
-644.0
 21
710.6
 31
0.0
  0
LINE
  5
4D3
330
1A
100
AcDbEntity
  8
GUIDE
100
AcDbLine
 10
-644.0
 20
729.4
 30
0.0
 11
-644.0
 21
736.92
 31
0.0
  0
LINE
  5
4D4
330
1A
100
AcDbEntity
  8
GUIDE
100
AcDbLine
 10
-623.0
 20
736.92
 30
0.0
 11
-644.0
 21
736.92
 31
0.0
  0
LINE
  5
4D5
330
1A
100
AcDbEntity
  8
GUIDE
100
AcDbLine
 10
-623.0
 20
729.4
 30
0.0
 11
-644.0
 21
729.4
 31
0.0
  0
LINE
  5
4D6
330
1A
100
AcDbEntity
  8
GUIDE
100
AcDbLine
 10
-623.0
 20
703.08
 30
0.0
 11
-644.0
 21
703.08
 31
0.0
  0
LINE
  5
4D7
330
1A
100
AcDbEntity
  8
GUIDE
100
AcDbLine
 10
-623.0
 20
710.6
 30
0.0
 11
-644.0
 21
710.6
 31
0.0
  0
LINE
  5
4D8
330
1A
100
AcDbEntity
  8
GUIDE
100
AcDbLine
 10
-630.5
 20
725.64
 30
0.0
 11
-636.5
 21
725.64
 31
0.0
  0
LINE
  5
4D9
330
1A
100
AcDbEntity
  8
GUIDE
100
AcDbLine
 10
-636.5
 20
752.0
 30
0.0
 11
-636.5
 21
736.92
 31
0.0
  0
LINE
  5
4DA
330
1A
100
AcDbEntity
  8
GUIDE
100
AcDbLine
 10
-630.5
 20
752.0
 30
0.0
 11
-630.5
 21
736.92
 31
0.0
  0
LINE
  5
4DB
330
1A
100
AcDbEntity
  8
GUIDE
100
AcDbLine
 10
-570.5
 20
748.24
 30
0.0
 11
-570.5
 21
740.72
 31
0.0
  0
LINE
  5
4DC
330
1A
100
AcDbEntity
  8
GUIDE
100
AcDbLine
 10
-591.5
 20
748.24
 30
0.0
 11
-591.5
 21
740.72
 31
0.0
  0
LINE
  5
4DD
330
1A
100
AcDbEntity
  8
GUIDE
100
AcDbLine
 10
-570.5
 20
748.24
 30
0.0
 11
-591.5
 21
748.24
 31
0.0
  0
LINE
  5
4DE
330
1A
100
AcDbEntity
  8
GUIDE
100
AcDbLine
 10
-570.5
 20
740.72
 30
0.0
 11
-591.5
 21
740.72
 31
0.0
  0
LINE
  5
4DF
330
1A
100
AcDbEntity
  8
GUIDE
100
AcDbLine
 10
-578.0
 20
725.68
 30
0.0
 11
-584.0
 21
725.68
 31
0.0
  0
LINE
  5
4E0
330
1A
100
AcDbEntity
  8
GUIDE
100
AcDbLine
 10
-570.5
 20
714.4
 30
0.0
 11
-591.5
 21
714.4
 31
0.0
  0
LINE
  5
4E1
330
1A
100
AcDbEntity
  8
GUIDE
100
AcDbLine
 10
-570.5
 20
721.92
 30
0.0
 11
-591.5
 21
721.92
 31
0.0
  0
LINE
  5
4E2
330
1A
100
AcDbEntity
  8
GUIDE
100
AcDbLine
 10
-591.5
 20
721.92
 30
0.0
 11
-591.5
 21
714.4
 31
0.0
  0
LINE
  5
4E3
330
1A
100
AcDbEntity
  8
GUIDE
100
AcDbLine
 10
-570.5
 20
721.92
 30
0.0
 11
-570.5
 21
714.4
 31
0.0
  0
LINE
  5
4E4
330
1A
100
AcDbEntity
  8
GUIDE
100
AcDbLine
 10
-584.0
 20
699.5
 30
0.0
 11
-584.0
 21
714.4
 31
0.0
  0
LINE
  5
4E5
330
1A
100
AcDbEntity
  8
GUIDE
100
AcDbLine
 10
-578.0
 20
699.5
 30
0.0
 11
-578.0
 21
714.4
 31
0.0
  0
LINE
  5
4E6
330
1A
100
AcDbEntity
  8
GUIDE
100
AcDbLine
 10
-578.0
 20
721.92
 30
0.0
 11
-578.0
 21
740.72
 31
0.0
  0
LINE
  5
4E7
330
1A
100
AcDbEntity
  8
GUIDE
100
AcDbLine
 10
-584.0
 20
721.92
 30
0.0
 11
-584.0
 21
740.72
 31
0.0
  0
LINE
  5
4E8
330
1A
100
AcDbEntity
  8
GUIDE
100
AcDbLine
 10
-584.0
 20
748.24
 30
0.0
 11
-584.0
 21
752.0
 31
0.0
  0
LINE
  5
4E9
330
1A
100
AcDbEntity
  8
GUIDE
100
AcDbLine
 10
-578.0
 20
748.24
 30
0.0
 11
-578.0
 21
752.0
 31
0.0
  0
LINE
  5
4EA
330
1A
100
AcDbEntity
  8
GUIDE
100
AcDbLine
 10
-601.5
 20
703.08
 30
0.0
 11
-601.5
 21
699.5
 31
0.0
  0
LINE
  5
4EB
330
1A
100
AcDbEntity
  8
GUIDE
100
AcDbLine
 10
-595.5
 20
703.08
 30
0.0
 11
-595.5
 21
699.5
 31
0.0
  0
LINE
  5
4EC
330
1A
100
AcDbEntity
  8
GUIDE
100
AcDbLine
 10
-595.5
 20
729.4
 30
0.0
 11
-595.5
 21
710.6
 31
0.0
  0
LINE
  5
4ED
330
1A
100
AcDbEntity
  8
GUIDE
100
AcDbLine
 10
-601.5
 20
729.4
 30
0.0
 11
-601.5
 21
710.6
 31
0.0
  0
LINE
  5
4EE
330
1A
100
AcDbEntity
  8
GUIDE
100
AcDbLine
 10
-588.0
 20
729.4
 30
0.0
 11
-588.0
 21
736.92
 31
0.0
  0
LINE
  5
4EF
330
1A
100
AcDbEntity
  8
GUIDE
100
AcDbLine
 10
-588.0
 20
703.08
 30
0.0
 11
-588.0
 21
710.6
 31
0.0
  0
LINE
  5
4F0
330
1A
100
AcDbEntity
  8
GUIDE
100
AcDbLine
 10
-609.0
 20
703.08
 30
0.0
 11
-609.0
 21
710.6
 31
0.0
  0
LINE
  5
4F1
330
1A
100
AcDbEntity
  8
GUIDE
100
AcDbLine
 10
-609.0
 20
729.4
 30
0.0
 11
-609.0
 21
736.92
 31
0.0
  0
LINE
  5
4F2
330
1A
100
AcDbEntity
  8
GUIDE
100
AcDbLine
 10
-588.0
 20
736.92
 30
0.0
 11
-609.0
 21
736.92
 31
0.0
  0
LINE
  5
4F3
330
1A
100
AcDbEntity
  8
GUIDE
100
AcDbLine
 10
-588.0
 20
729.4
 30
0.0
 11
-609.0
 21
729.4
 31
0.0
  0
LINE
  5
4F4
330
1A
100
AcDbEntity
  8
GUIDE
100
AcDbLine
 10
-588.0
 20
703.08
 30
0.0
 11
-609.0
 21
703.08
 31
0.0
  0
LINE
  5
4F5
330
1A
100
AcDbEntity
  8
GUIDE
100
AcDbLine
 10
-588.0
 20
710.6
 30
0.0
 11
-609.0
 21
710.6
 31
0.0
  0
LINE
  5
4F6
330
1A
100
AcDbEntity
  8
GUIDE
100
AcDbLine
 10
-595.5
 20
725.64
 30
0.0
 11
-601.5
 21
725.64
 31
0.0
  0
LINE
  5
4F7
330
1A
100
AcDbEntity
  8
GUIDE
100
AcDbLine
 10
-601.5
 20
752.0
 30
0.0
 11
-601.5
 21
736.92
 31
0.0
  0
LINE
  5
4F8
330
1A
100
AcDbEntity
  8
GUIDE
100
AcDbLine
 10
-595.5
 20
752.0
 30
0.0
 11
-595.5
 21
736.92
 31
0.0
  0
LINE
  5
4F9
330
1A
100
AcDbEntity
  8
GUIDE
100
AcDbLine
 10
-535.5
 20
748.24
 30
0.0
 11
-535.5
 21
740.72
 31
0.0
  0
LINE
  5
4FA
330
1A
100
AcDbEntity
  8
GUIDE
100
AcDbLine
 10
-556.5
 20
748.24
 30
0.0
 11
-556.5
 21
740.72
 31
0.0
  0
LINE
  5
4FB
330
1A
100
AcDbEntity
  8
GUIDE
100
AcDbLine
 10
-535.5
 20
748.24
 30
0.0
 11
-556.5
 21
748.24
 31
0.0
  0
LINE
  5
4FC
330
1A
100
AcDbEntity
  8
GUIDE
100
AcDbLine
 10
-535.5
 20
740.72
 30
0.0
 11
-556.5
 21
740.72
 31
0.0
  0
LINE
  5
4FD
330
1A
100
AcDbEntity
  8
GUIDE
100
AcDbLine
 10
-543.0
 20
725.68
 30
0.0
 11
-549.0
 21
725.68
 31
0.0
  0
LINE
  5
4FE
330
1A
100
AcDbEntity
  8
GUIDE
100
AcDbLine
 10
-535.5
 20
714.4
 30
0.0
 11
-556.5
 21
714.4
 31
0.0
  0
LINE
  5
4FF
330
1A
100
AcDbEntity
  8
GUIDE
100
AcDbLine
 10
-535.5
 20
721.92
 30
0.0
 11
-556.5
 21
721.92
 31
0.0
  0
LINE
  5
500
330
1A
100
AcDbEntity
  8
GUIDE
100
AcDbLine
 10
-556.5
 20
721.92
 30
0.0
 11
-556.5
 21
714.4
 31
0.0
  0
LINE
  5
501
330
1A
100
AcDbEntity
  8
GUIDE
100
AcDbLine
 10
-535.5
 20
721.92
 30
0.0
 11
-535.5
 21
714.4
 31
0.0
  0
LINE
  5
502
330
1A
100
AcDbEntity
  8
GUIDE
100
AcDbLine
 10
-549.0
 20
699.5
 30
0.0
 11
-549.0
 21
714.4
 31
0.0
  0
LINE
  5
503
330
1A
100
AcDbEntity
  8
GUIDE
100
AcDbLine
 10
-543.0
 20
699.5
 30
0.0
 11
-543.0
 21
714.4
 31
0.0
  0
LINE
  5
504
330
1A
100
AcDbEntity
  8
GUIDE
100
AcDbLine
 10
-543.0
 20
721.92
 30
0.0
 11
-543.0
 21
740.72
 31
0.0
  0
LINE
  5
505
330
1A
100
AcDbEntity
  8
GUIDE
100
AcDbLine
 10
-549.0
 20
721.92
 30
0.0
 11
-549.0
 21
740.72
 31
0.0
  0
LINE
  5
506
330
1A
100
AcDbEntity
  8
GUIDE
100
AcDbLine
 10
-549.0
 20
748.24
 30
0.0
 11
-549.0
 21
752.0
 31
0.0
  0
LINE
  5
507
330
1A
100
AcDbEntity
  8
GUIDE
100
AcDbLine
 10
-543.0
 20
748.24
 30
0.0
 11
-543.0
 21
752.0
 31
0.0
  0
LINE
  5
508
330
1A
100
AcDbEntity
  8
GUIDE
100
AcDbLine
 10
-566.5
 20
703.08
 30
0.0
 11
-566.5
 21
699.5
 31
0.0
  0
LINE
  5
509
330
1A
100
AcDbEntity
  8
GUIDE
100
AcDbLine
 10
-560.5
 20
703.08
 30
0.0
 11
-560.5
 21
699.5
 31
0.0
  0
LINE
  5
50A
330
1A
100
AcDbEntity
  8
GUIDE
100
AcDbLine
 10
-560.5
 20
729.4
 30
0.0
 11
-560.5
 21
710.6
 31
0.0
  0
LINE
  5
50B
330
1A
100
AcDbEntity
  8
GUIDE
100
AcDbLine
 10
-566.5
 20
729.4
 30
0.0
 11
-566.5
 21
710.6
 31
0.0
  0
LINE
  5
50C
330
1A
100
AcDbEntity
  8
GUIDE
100
AcDbLine
 10
-553.0
 20
729.4
 30
0.0
 11
-553.0
 21
736.92
 31
0.0
  0
LINE
  5
50D
330
1A
100
AcDbEntity
  8
GUIDE
100
AcDbLine
 10
-553.0
 20
703.08
 30
0.0
 11
-553.0
 21
710.6
 31
0.0
  0
LINE
  5
50E
330
1A
100
AcDbEntity
  8
GUIDE
100
AcDbLine
 10
-574.0
 20
703.08
 30
0.0
 11
-574.0
 21
710.6
 31
0.0
  0
LINE
  5
50F
330
1A
100
AcDbEntity
  8
GUIDE
100
AcDbLine
 10
-574.0
 20
729.4
 30
0.0
 11
-574.0
 21
736.92
 31
0.0
  0
LINE
  5
510
330
1A
100
AcDbEntity
  8
GUIDE
100
AcDbLine
 10
-553.0
 20
736.92
 30
0.0
 11
-574.0
 21
736.92
 31
0.0
  0
LINE
  5
511
330
1A
100
AcDbEntity
  8
GUIDE
100
AcDbLine
 10
-553.0
 20
729.4
 30
0.0
 11
-574.0
 21
729.4
 31
0.0
  0
LINE
  5
512
330
1A
100
AcDbEntity
  8
GUIDE
100
AcDbLine
 10
-553.0
 20
703.08
 30
0.0
 11
-574.0
 21
703.08
 31
0.0
  0
LINE
  5
513
330
1A
100
AcDbEntity
  8
GUIDE
100
AcDbLine
 10
-553.0
 20
710.6
 30
0.0
 11
-574.0
 21
710.6
 31
0.0
  0
LINE
  5
514
330
1A
100
AcDbEntity
  8
GUIDE
100
AcDbLine
 10
-560.5
 20
725.64
 30
0.0
 11
-566.5
 21
725.64
 31
0.0
  0
LINE
  5
515
330
1A
100
AcDbEntity
  8
GUIDE
100
AcDbLine
 10
-566.5
 20
752.0
 30
0.0
 11
-566.5
 21
736.92
 31
0.0
  0
LINE
  5
516
330
1A
100
AcDbEntity
  8
GUIDE
100
AcDbLine
 10
-560.5
 20
752.0
 30
0.0
 11
-560.5
 21
736.92
 31
0.0
  0
LINE
  5
517
330
1A
100
AcDbEntity
  8
GUIDE
100
AcDbLine
 10
-500.5
 20
748.24
 30
0.0
 11
-500.5
 21
740.72
 31
0.0
  0
LINE
  5
518
330
1A
100
AcDbEntity
  8
GUIDE
100
AcDbLine
 10
-521.5
 20
748.24
 30
0.0
 11
-521.5
 21
740.72
 31
0.0
  0
LINE
  5
519
330
1A
100
AcDbEntity
  8
GUIDE
100
AcDbLine
 10
-500.5
 20
748.24
 30
0.0
 11
-521.5
 21
748.24
 31
0.0
  0
LINE
  5
51A
330
1A
100
AcDbEntity
  8
GUIDE
100
AcDbLine
 10
-500.5
 20
740.72
 30
0.0
 11
-521.5
 21
740.72
 31
0.0
  0
LINE
  5
51B
330
1A
100
AcDbEntity
  8
GUIDE
100
AcDbLine
 10
-508.0
 20
725.68
 30
0.0
 11
-514.0
 21
725.68
 31
0.0
  0
LINE
  5
51C
330
1A
100
AcDbEntity
  8
GUIDE
100
AcDbLine
 10
-500.5
 20
714.4
 30
0.0
 11
-521.5
 21
714.4
 31
0.0
  0
LINE
  5
51D
330
1A
100
AcDbEntity
  8
GUIDE
100
AcDbLine
 10
-500.5
 20
721.92
 30
0.0
 11
-521.5
 21
721.92
 31
0.0
  0
LINE
  5
51E
330
1A
100
AcDbEntity
  8
GUIDE
100
AcDbLine
 10
-521.5
 20
721.92
 30
0.0
 11
-521.5
 21
714.4
 31
0.0
  0
LINE
  5
51F
330
1A
100
AcDbEntity
  8
GUIDE
100
AcDbLine
 10
-500.5
 20
721.92
 30
0.0
 11
-500.5
 21
714.4
 31
0.0
  0
LINE
  5
520
330
1A
100
AcDbEntity
  8
GUIDE
100
AcDbLine
 10
-514.0
 20
699.5
 30
0.0
 11
-514.0
 21
714.4
 31
0.0
  0
LINE
  5
521
330
1A
100
AcDbEntity
  8
GUIDE
100
AcDbLine
 10
-508.0
 20
699.5
 30
0.0
 11
-508.0
 21
714.4
 31
0.0
  0
LINE
  5
522
330
1A
100
AcDbEntity
  8
GUIDE
100
AcDbLine
 10
-508.0
 20
721.92
 30
0.0
 11
-508.0
 21
740.72
 31
0.0
  0
LINE
  5
523
330
1A
100
AcDbEntity
  8
GUIDE
100
AcDbLine
 10
-514.0
 20
721.92
 30
0.0
 11
-514.0
 21
740.72
 31
0.0
  0
LINE
  5
524
330
1A
100
AcDbEntity
  8
GUIDE
100
AcDbLine
 10
-514.0
 20
748.24
 30
0.0
 11
-514.0
 21
752.0
 31
0.0
  0
LINE
  5
525
330
1A
100
AcDbEntity
  8
GUIDE
100
AcDbLine
 10
-508.0
 20
748.24
 30
0.0
 11
-508.0
 21
752.0
 31
0.0
  0
LINE
  5
526
330
1A
100
AcDbEntity
  8
GUIDE
100
AcDbLine
 10
-531.5
 20
703.08
 30
0.0
 11
-531.5
 21
699.5
 31
0.0
  0
LINE
  5
527
330
1A
100
AcDbEntity
  8
GUIDE
100
AcDbLine
 10
-525.5
 20
703.08
 30
0.0
 11
-525.5
 21
699.5
 31
0.0
  0
LINE
  5
528
330
1A
100
AcDbEntity
  8
GUIDE
100
AcDbLine
 10
-525.5
 20
729.4
 30
0.0
 11
-525.5
 21
710.6
 31
0.0
  0
LINE
  5
529
330
1A
100
AcDbEntity
  8
GUIDE
100
AcDbLine
 10
-531.5
 20
729.4
 30
0.0
 11
-531.5
 21
710.6
 31
0.0
  0
LINE
  5
52A
330
1A
100
AcDbEntity
  8
GUIDE
100
AcDbLine
 10
-518.0
 20
729.4
 30
0.0
 11
-518.0
 21
736.92
 31
0.0
  0
LINE
  5
52B
330
1A
100
AcDbEntity
  8
GUIDE
100
AcDbLine
 10
-518.0
 20
703.08
 30
0.0
 11
-518.0
 21
710.6
 31
0.0
  0
LINE
  5
52C
330
1A
100
AcDbEntity
  8
GUIDE
100
AcDbLine
 10
-539.0
 20
703.08
 30
0.0
 11
-539.0
 21
710.6
 31
0.0
  0
LINE
  5
52D
330
1A
100
AcDbEntity
  8
GUIDE
100
AcDbLine
 10
-539.0
 20
729.4
 30
0.0
 11
-539.0
 21
736.92
 31
0.0
  0
LINE
  5
52E
330
1A
100
AcDbEntity
  8
GUIDE
100
AcDbLine
 10
-518.0
 20
736.92
 30
0.0
 11
-539.0
 21
736.92
 31
0.0
  0
LINE
  5
52F
330
1A
100
AcDbEntity
  8
GUIDE
100
AcDbLine
 10
-518.0
 20
729.4
 30
0.0
 11
-539.0
 21
729.4
 31
0.0
  0
LINE
  5
530
330
1A
100
AcDbEntity
  8
GUIDE
100
AcDbLine
 10
-518.0
 20
703.08
 30
0.0
 11
-539.0
 21
703.08
 31
0.0
  0
LINE
  5
531
330
1A
100
AcDbEntity
  8
GUIDE
100
AcDbLine
 10
-518.0
 20
710.6
 30
0.0
 11
-539.0
 21
710.6
 31
0.0
  0
LINE
  5
532
330
1A
100
AcDbEntity
  8
GUIDE
100
AcDbLine
 10
-525.5
 20
725.64
 30
0.0
 11
-531.5
 21
725.64
 31
0.0
  0
LINE
  5
533
330
1A
100
AcDbEntity
  8
GUIDE
100
AcDbLine
 10
-531.5
 20
752.0
 30
0.0
 11
-531.5
 21
736.92
 31
0.0
  0
LINE
  5
534
330
1A
100
AcDbEntity
  8
GUIDE
100
AcDbLine
 10
-525.5
 20
752.0
 30
0.0
 11
-525.5
 21
736.92
 31
0.0
  0
LINE
  5
535
330
1A
100
AcDbEntity
  8
GUIDE
100
AcDbLine
 10
-465.5
 20
748.24
 30
0.0
 11
-465.5
 21
740.72
 31
0.0
  0
LINE
  5
536
330
1A
100
AcDbEntity
  8
GUIDE
100
AcDbLine
 10
-486.5
 20
748.24
 30
0.0
 11
-486.5
 21
740.72
 31
0.0
  0
LINE
  5
537
330
1A
100
AcDbEntity
  8
GUIDE
100
AcDbLine
 10
-465.5
 20
748.24
 30
0.0
 11
-486.5
 21
748.24
 31
0.0
  0
LINE
  5
538
330
1A
100
AcDbEntity
  8
GUIDE
100
AcDbLine
 10
-465.5
 20
740.72
 30
0.0
 11
-486.5
 21
740.72
 31
0.0
  0
LINE
  5
539
330
1A
100
AcDbEntity
  8
GUIDE
100
AcDbLine
 10
-473.0
 20
725.68
 30
0.0
 11
-479.0
 21
725.68
 31
0.0
  0
LINE
  5
53A
330
1A
100
AcDbEntity
  8
GUIDE
100
AcDbLine
 10
-465.5
 20
714.4
 30
0.0
 11
-486.5
 21
714.4
 31
0.0
  0
LINE
  5
53B
330
1A
100
AcDbEntity
  8
GUIDE
100
AcDbLine
 10
-465.5
 20
721.92
 30
0.0
 11
-486.5
 21
721.92
 31
0.0
  0
LINE
  5
53C
330
1A
100
AcDbEntity
  8
GUIDE
100
AcDbLine
 10
-486.5
 20
721.92
 30
0.0
 11
-486.5
 21
714.4
 31
0.0
  0
LINE
  5
53D
330
1A
100
AcDbEntity
  8
GUIDE
100
AcDbLine
 10
-465.5
 20
721.92
 30
0.0
 11
-465.5
 21
714.4
 31
0.0
  0
LINE
  5
53E
330
1A
100
AcDbEntity
  8
GUIDE
100
AcDbLine
 10
-479.0
 20
699.5
 30
0.0
 11
-479.0
 21
714.4
 31
0.0
  0
LINE
  5
53F
330
1A
100
AcDbEntity
  8
GUIDE
100
AcDbLine
 10
-473.0
 20
699.5
 30
0.0
 11
-473.0
 21
714.4
 31
0.0
  0
LINE
  5
540
330
1A
100
AcDbEntity
  8
GUIDE
100
AcDbLine
 10
-473.0
 20
721.92
 30
0.0
 11
-473.0
 21
740.72
 31
0.0
  0
LINE
  5
541
330
1A
100
AcDbEntity
  8
GUIDE
100
AcDbLine
 10
-479.0
 20
721.92
 30
0.0
 11
-479.0
 21
740.72
 31
0.0
  0
LINE
  5
542
330
1A
100
AcDbEntity
  8
GUIDE
100
AcDbLine
 10
-479.0
 20
748.24
 30
0.0
 11
-479.0
 21
752.0
 31
0.0
  0
LINE
  5
543
330
1A
100
AcDbEntity
  8
GUIDE
100
AcDbLine
 10
-473.0
 20
748.24
 30
0.0
 11
-473.0
 21
752.0
 31
0.0
  0
LINE
  5
544
330
1A
100
AcDbEntity
  8
GUIDE
100
AcDbLine
 10
-496.5
 20
703.08
 30
0.0
 11
-496.5
 21
699.5
 31
0.0
  0
LINE
  5
545
330
1A
100
AcDbEntity
  8
GUIDE
100
AcDbLine
 10
-490.5
 20
703.08
 30
0.0
 11
-490.5
 21
699.5
 31
0.0
  0
LINE
  5
546
330
1A
100
AcDbEntity
  8
GUIDE
100
AcDbLine
 10
-490.5
 20
729.4
 30
0.0
 11
-490.5
 21
710.6
 31
0.0
  0
LINE
  5
547
330
1A
100
AcDbEntity
  8
GUIDE
100
AcDbLine
 10
-496.5
 20
729.4
 30
0.0
 11
-496.5
 21
710.6
 31
0.0
  0
LINE
  5
548
330
1A
100
AcDbEntity
  8
GUIDE
100
AcDbLine
 10
-483.0
 20
729.4
 30
0.0
 11
-483.0
 21
736.92
 31
0.0
  0
LINE
  5
549
330
1A
100
AcDbEntity
  8
GUIDE
100
AcDbLine
 10
-483.0
 20
703.08
 30
0.0
 11
-483.0
 21
710.6
 31
0.0
  0
LINE
  5
54A
330
1A
100
AcDbEntity
  8
GUIDE
100
AcDbLine
 10
-504.0
 20
703.08
 30
0.0
 11
-504.0
 21
710.6
 31
0.0
  0
LINE
  5
54B
330
1A
100
AcDbEntity
  8
GUIDE
100
AcDbLine
 10
-504.0
 20
729.4
 30
0.0
 11
-504.0
 21
736.92
 31
0.0
  0
LINE
  5
54C
330
1A
100
AcDbEntity
  8
GUIDE
100
AcDbLine
 10
-483.0
 20
736.92
 30
0.0
 11
-504.0
 21
736.92
 31
0.0
  0
LINE
  5
54D
330
1A
100
AcDbEntity
  8
GUIDE
100
AcDbLine
 10
-483.0
 20
729.4
 30
0.0
 11
-504.0
 21
729.4
 31
0.0
  0
LINE
  5
54E
330
1A
100
AcDbEntity
  8
GUIDE
100
AcDbLine
 10
-483.0
 20
703.08
 30
0.0
 11
-504.0
 21
703.08
 31
0.0
  0
LINE
  5
54F
330
1A
100
AcDbEntity
  8
GUIDE
100
AcDbLine
 10
-483.0
 20
710.6
 30
0.0
 11
-504.0
 21
710.6
 31
0.0
  0
LINE
  5
550
330
1A
100
AcDbEntity
  8
GUIDE
100
AcDbLine
 10
-490.5
 20
725.64
 30
0.0
 11
-496.5
 21
725.64
 31
0.0
  0
LINE
  5
551
330
1A
100
AcDbEntity
  8
GUIDE
100
AcDbLine
 10
-496.5
 20
752.0
 30
0.0
 11
-496.5
 21
736.92
 31
0.0
  0
LINE
  5
552
330
1A
100
AcDbEntity
  8
GUIDE
100
AcDbLine
 10
-490.5
 20
752.0
 30
0.0
 11
-490.5
 21
736.92
 31
0.0
  0
LINE
  5
553
330
1A
100
AcDbEntity
  8
GUIDE
100
AcDbLine
 10
-430.5
 20
748.24
 30
0.0
 11
-430.5
 21
740.72
 31
0.0
  0
LINE
  5
554
330
1A
100
AcDbEntity
  8
GUIDE
100
AcDbLine
 10
-451.5
 20
748.24
 30
0.0
 11
-451.5
 21
740.72
 31
0.0
  0
LINE
  5
555
330
1A
100
AcDbEntity
  8
GUIDE
100
AcDbLine
 10
-430.5
 20
748.24
 30
0.0
 11
-451.5
 21
748.24
 31
0.0
  0
LINE
  5
556
330
1A
100
AcDbEntity
  8
GUIDE
100
AcDbLine
 10
-430.5
 20
740.72
 30
0.0
 11
-451.5
 21
740.72
 31
0.0
  0
LINE
  5
557
330
1A
100
AcDbEntity
  8
GUIDE
100
AcDbLine
 10
-438.0
 20
725.68
 30
0.0
 11
-444.0
 21
725.68
 31
0.0
  0
LINE
  5
558
330
1A
100
AcDbEntity
  8
GUIDE
100
AcDbLine
 10
-430.5
 20
714.4
 30
0.0
 11
-451.5
 21
714.4
 31
0.0
  0
LINE
  5
559
330
1A
100
AcDbEntity
  8
GUIDE
100
AcDbLine
 10
-430.5
 20
721.92
 30
0.0
 11
-451.5
 21
721.92
 31
0.0
  0
LINE
  5
55A
330
1A
100
AcDbEntity
  8
GUIDE
100
AcDbLine
 10
-451.5
 20
721.92
 30
0.0
 11
-451.5
 21
714.4
 31
0.0
  0
LINE
  5
55B
330
1A
100
AcDbEntity
  8
GUIDE
100
AcDbLine
 10
-430.5
 20
721.92
 30
0.0
 11
-430.5
 21
714.4
 31
0.0
  0
LINE
  5
55C
330
1A
100
AcDbEntity
  8
GUIDE
100
AcDbLine
 10
-444.0
 20
699.5
 30
0.0
 11
-444.0
 21
714.4
 31
0.0
  0
LINE
  5
55D
330
1A
100
AcDbEntity
  8
GUIDE
100
AcDbLine
 10
-438.0
 20
699.5
 30
0.0
 11
-438.0
 21
714.4
 31
0.0
  0
LINE
  5
55E
330
1A
100
AcDbEntity
  8
GUIDE
100
AcDbLine
 10
-438.0
 20
721.92
 30
0.0
 11
-438.0
 21
740.72
 31
0.0
  0
LINE
  5
55F
330
1A
100
AcDbEntity
  8
GUIDE
100
AcDbLine
 10
-444.0
 20
721.92
 30
0.0
 11
-444.0
 21
740.72
 31
0.0
  0
LINE
  5
560
330
1A
100
AcDbEntity
  8
GUIDE
100
AcDbLine
 10
-444.0
 20
748.24
 30
0.0
 11
-444.0
 21
752.0
 31
0.0
  0
LINE
  5
561
330
1A
100
AcDbEntity
  8
GUIDE
100
AcDbLine
 10
-438.0
 20
748.24
 30
0.0
 11
-438.0
 21
752.0
 31
0.0
  0
LINE
  5
562
330
1A
100
AcDbEntity
  8
GUIDE
100
AcDbLine
 10
-461.5
 20
703.08
 30
0.0
 11
-461.5
 21
699.5
 31
0.0
  0
LINE
  5
563
330
1A
100
AcDbEntity
  8
GUIDE
100
AcDbLine
 10
-455.5
 20
703.08
 30
0.0
 11
-455.5
 21
699.5
 31
0.0
  0
LINE
  5
564
330
1A
100
AcDbEntity
  8
GUIDE
100
AcDbLine
 10
-455.5
 20
729.4
 30
0.0
 11
-455.5
 21
710.6
 31
0.0
  0
LINE
  5
565
330
1A
100
AcDbEntity
  8
GUIDE
100
AcDbLine
 10
-461.5
 20
729.4
 30
0.0
 11
-461.5
 21
710.6
 31
0.0
  0
LINE
  5
566
330
1A
100
AcDbEntity
  8
GUIDE
100
AcDbLine
 10
-448.0
 20
729.4
 30
0.0
 11
-448.0
 21
736.92
 31
0.0
  0
LINE
  5
567
330
1A
100
AcDbEntity
  8
GUIDE
100
AcDbLine
 10
-448.0
 20
703.08
 30
0.0
 11
-448.0
 21
710.6
 31
0.0
  0
LINE
  5
568
330
1A
100
AcDbEntity
  8
GUIDE
100
AcDbLine
 10
-469.0
 20
703.08
 30
0.0
 11
-469.0
 21
710.6
 31
0.0
  0
LINE
  5
569
330
1A
100
AcDbEntity
  8
GUIDE
100
AcDbLine
 10
-469.0
 20
729.4
 30
0.0
 11
-469.0
 21
736.92
 31
0.0
  0
LINE
  5
56A
330
1A
100
AcDbEntity
  8
GUIDE
100
AcDbLine
 10
-448.0
 20
736.92
 30
0.0
 11
-469.0
 21
736.92
 31
0.0
  0
LINE
  5
56B
330
1A
100
AcDbEntity
  8
GUIDE
100
AcDbLine
 10
-448.0
 20
729.4
 30
0.0
 11
-469.0
 21
729.4
 31
0.0
  0
LINE
  5
56C
330
1A
100
AcDbEntity
  8
GUIDE
100
AcDbLine
 10
-448.0
 20
703.08
 30
0.0
 11
-469.0
 21
703.08
 31
0.0
  0
LINE
  5
56D
330
1A
100
AcDbEntity
  8
GUIDE
100
AcDbLine
 10
-448.0
 20
710.6
 30
0.0
 11
-469.0
 21
710.6
 31
0.0
  0
LINE
  5
56E
330
1A
100
AcDbEntity
  8
GUIDE
100
AcDbLine
 10
-455.5
 20
725.64
 30
0.0
 11
-461.5
 21
725.64
 31
0.0
  0
LINE
  5
56F
330
1A
100
AcDbEntity
  8
GUIDE
100
AcDbLine
 10
-461.5
 20
752.0
 30
0.0
 11
-461.5
 21
736.92
 31
0.0
  0
LINE
  5
570
330
1A
100
AcDbEntity
  8
GUIDE
100
AcDbLine
 10
-455.5
 20
752.0
 30
0.0
 11
-455.5
 21
736.92
 31
0.0
  0
LINE
  5
571
330
1A
100
AcDbEntity
  8
GUIDE
100
AcDbLine
 10
-395.5
 20
748.24
 30
0.0
 11
-395.5
 21
740.72
 31
0.0
  0
LINE
  5
572
330
1A
100
AcDbEntity
  8
GUIDE
100
AcDbLine
 10
-416.5
 20
748.24
 30
0.0
 11
-416.5
 21
740.72
 31
0.0
  0
LINE
  5
573
330
1A
100
AcDbEntity
  8
GUIDE
100
AcDbLine
 10
-395.5
 20
748.24
 30
0.0
 11
-416.5
 21
748.24
 31
0.0
  0
LINE
  5
574
330
1A
100
AcDbEntity
  8
GUIDE
100
AcDbLine
 10
-395.5
 20
740.72
 30
0.0
 11
-416.5
 21
740.72
 31
0.0
  0
LINE
  5
575
330
1A
100
AcDbEntity
  8
GUIDE
100
AcDbLine
 10
-403.0
 20
725.68
 30
0.0
 11
-409.0
 21
725.68
 31
0.0
  0
LINE
  5
576
330
1A
100
AcDbEntity
  8
GUIDE
100
AcDbLine
 10
-395.5
 20
714.4
 30
0.0
 11
-416.5
 21
714.4
 31
0.0
  0
LINE
  5
577
330
1A
100
AcDbEntity
  8
GUIDE
100
AcDbLine
 10
-395.5
 20
721.92
 30
0.0
 11
-416.5
 21
721.92
 31
0.0
  0
LINE
  5
578
330
1A
100
AcDbEntity
  8
GUIDE
100
AcDbLine
 10
-416.5
 20
721.92
 30
0.0
 11
-416.5
 21
714.4
 31
0.0
  0
LINE
  5
579
330
1A
100
AcDbEntity
  8
GUIDE
100
AcDbLine
 10
-395.5
 20
721.92
 30
0.0
 11
-395.5
 21
714.4
 31
0.0
  0
LINE
  5
57A
330
1A
100
AcDbEntity
  8
GUIDE
100
AcDbLine
 10
-409.0
 20
699.5
 30
0.0
 11
-409.0
 21
714.4
 31
0.0
  0
LINE
  5
57B
330
1A
100
AcDbEntity
  8
GUIDE
100
AcDbLine
 10
-403.0
 20
699.5
 30
0.0
 11
-403.0
 21
714.4
 31
0.0
  0
LINE
  5
57C
330
1A
100
AcDbEntity
  8
GUIDE
100
AcDbLine
 10
-403.0
 20
721.92
 30
0.0
 11
-403.0
 21
740.72
 31
0.0
  0
LINE
  5
57D
330
1A
100
AcDbEntity
  8
GUIDE
100
AcDbLine
 10
-409.0
 20
721.92
 30
0.0
 11
-409.0
 21
740.72
 31
0.0
  0
LINE
  5
57E
330
1A
100
AcDbEntity
  8
GUIDE
100
AcDbLine
 10
-409.0
 20
748.24
 30
0.0
 11
-409.0
 21
752.0
 31
0.0
  0
LINE
  5
57F
330
1A
100
AcDbEntity
  8
GUIDE
100
AcDbLine
 10
-403.0
 20
748.24
 30
0.0
 11
-403.0
 21
752.0
 31
0.0
  0
LINE
  5
580
330
1A
100
AcDbEntity
  8
GUIDE
100
AcDbLine
 10
-426.5
 20
703.08
 30
0.0
 11
-426.5
 21
699.5
 31
0.0
  0
LINE
  5
581
330
1A
100
AcDbEntity
  8
GUIDE
100
AcDbLine
 10
-420.5
 20
703.08
 30
0.0
 11
-420.5
 21
699.5
 31
0.0
  0
LINE
  5
582
330
1A
100
AcDbEntity
  8
GUIDE
100
AcDbLine
 10
-420.5
 20
729.4
 30
0.0
 11
-420.5
 21
710.6
 31
0.0
  0
LINE
  5
583
330
1A
100
AcDbEntity
  8
GUIDE
100
AcDbLine
 10
-426.5
 20
729.4
 30
0.0
 11
-426.5
 21
710.6
 31
0.0
  0
LINE
  5
584
330
1A
100
AcDbEntity
  8
GUIDE
100
AcDbLine
 10
-413.0
 20
729.4
 30
0.0
 11
-413.0
 21
736.92
 31
0.0
  0
LINE
  5
585
330
1A
100
AcDbEntity
  8
GUIDE
100
AcDbLine
 10
-413.0
 20
703.08
 30
0.0
 11
-413.0
 21
710.6
 31
0.0
  0
LINE
  5
586
330
1A
100
AcDbEntity
  8
GUIDE
100
AcDbLine
 10
-434.0
 20
703.08
 30
0.0
 11
-434.0
 21
710.6
 31
0.0
  0
LINE
  5
587
330
1A
100
AcDbEntity
  8
GUIDE
100
AcDbLine
 10
-434.0
 20
729.4
 30
0.0
 11
-434.0
 21
736.92
 31
0.0
  0
LINE
  5
588
330
1A
100
AcDbEntity
  8
GUIDE
100
AcDbLine
 10
-413.0
 20
736.92
 30
0.0
 11
-434.0
 21
736.92
 31
0.0
  0
LINE
  5
589
330
1A
100
AcDbEntity
  8
GUIDE
100
AcDbLine
 10
-413.0
 20
729.4
 30
0.0
 11
-434.0
 21
729.4
 31
0.0
  0
LINE
  5
58A
330
1A
100
AcDbEntity
  8
GUIDE
100
AcDbLine
 10
-413.0
 20
703.08
 30
0.0
 11
-434.0
 21
703.08
 31
0.0
  0
LINE
  5
58B
330
1A
100
AcDbEntity
  8
GUIDE
100
AcDbLine
 10
-413.0
 20
710.6
 30
0.0
 11
-434.0
 21
710.6
 31
0.0
  0
LINE
  5
58C
330
1A
100
AcDbEntity
  8
GUIDE
100
AcDbLine
 10
-420.5
 20
725.64
 30
0.0
 11
-426.5
 21
725.64
 31
0.0
  0
LINE
  5
58D
330
1A
100
AcDbEntity
  8
GUIDE
100
AcDbLine
 10
-426.5
 20
752.0
 30
0.0
 11
-426.5
 21
736.92
 31
0.0
  0
LINE
  5
58E
330
1A
100
AcDbEntity
  8
GUIDE
100
AcDbLine
 10
-420.5
 20
752.0
 30
0.0
 11
-420.5
 21
736.92
 31
0.0
  0
LINE
  5
58F
330
1A
100
AcDbEntity
  8
GUIDE
100
AcDbLine
 10
-360.5
 20
748.24
 30
0.0
 11
-360.5
 21
740.72
 31
0.0
  0
LINE
  5
590
330
1A
100
AcDbEntity
  8
GUIDE
100
AcDbLine
 10
-381.5
 20
748.24
 30
0.0
 11
-381.5
 21
740.72
 31
0.0
  0
LINE
  5
591
330
1A
100
AcDbEntity
  8
GUIDE
100
AcDbLine
 10
-360.5
 20
748.24
 30
0.0
 11
-381.5
 21
748.24
 31
0.0
  0
LINE
  5
592
330
1A
100
AcDbEntity
  8
GUIDE
100
AcDbLine
 10
-360.5
 20
740.72
 30
0.0
 11
-381.5
 21
740.72
 31
0.0
  0
LINE
  5
593
330
1A
100
AcDbEntity
  8
GUIDE
100
AcDbLine
 10
-368.0
 20
725.68
 30
0.0
 11
-374.0
 21
725.68
 31
0.0
  0
LINE
  5
594
330
1A
100
AcDbEntity
  8
GUIDE
100
AcDbLine
 10
-360.5
 20
714.4
 30
0.0
 11
-381.5
 21
714.4
 31
0.0
  0
LINE
  5
595
330
1A
100
AcDbEntity
  8
GUIDE
100
AcDbLine
 10
-360.5
 20
721.92
 30
0.0
 11
-381.5
 21
721.92
 31
0.0
  0
LINE
  5
596
330
1A
100
AcDbEntity
  8
GUIDE
100
AcDbLine
 10
-381.5
 20
721.92
 30
0.0
 11
-381.5
 21
714.4
 31
0.0
  0
LINE
  5
597
330
1A
100
AcDbEntity
  8
GUIDE
100
AcDbLine
 10
-360.5
 20
721.92
 30
0.0
 11
-360.5
 21
714.4
 31
0.0
  0
LINE
  5
598
330
1A
100
AcDbEntity
  8
GUIDE
100
AcDbLine
 10
-374.0
 20
699.5
 30
0.0
 11
-374.0
 21
714.4
 31
0.0
  0
LINE
  5
599
330
1A
100
AcDbEntity
  8
GUIDE
100
AcDbLine
 10
-368.0
 20
699.5
 30
0.0
 11
-368.0
 21
714.4
 31
0.0
  0
LINE
  5
59A
330
1A
100
AcDbEntity
  8
GUIDE
100
AcDbLine
 10
-368.0
 20
721.92
 30
0.0
 11
-368.0
 21
740.72
 31
0.0
  0
LINE
  5
59B
330
1A
100
AcDbEntity
  8
GUIDE
100
AcDbLine
 10
-374.0
 20
721.92
 30
0.0
 11
-374.0
 21
740.72
 31
0.0
  0
LINE
  5
59C
330
1A
100
AcDbEntity
  8
GUIDE
100
AcDbLine
 10
-374.0
 20
748.24
 30
0.0
 11
-374.0
 21
752.0
 31
0.0
  0
LINE
  5
59D
330
1A
100
AcDbEntity
  8
GUIDE
100
AcDbLine
 10
-368.0
 20
748.24
 30
0.0
 11
-368.0
 21
752.0
 31
0.0
  0
LINE
  5
59E
330
1A
100
AcDbEntity
  8
GUIDE
100
AcDbLine
 10
-391.5
 20
703.08
 30
0.0
 11
-391.5
 21
699.5
 31
0.0
  0
LINE
  5
59F
330
1A
100
AcDbEntity
  8
GUIDE
100
AcDbLine
 10
-385.5
 20
703.08
 30
0.0
 11
-385.5
 21
699.5
 31
0.0
  0
LINE
  5
5A0
330
1A
100
AcDbEntity
  8
GUIDE
100
AcDbLine
 10
-385.5
 20
729.4
 30
0.0
 11
-385.5
 21
710.6
 31
0.0
  0
LINE
  5
5A1
330
1A
100
AcDbEntity
  8
GUIDE
100
AcDbLine
 10
-391.5
 20
729.4
 30
0.0
 11
-391.5
 21
710.6
 31
0.0
  0
LINE
  5
5A2
330
1A
100
AcDbEntity
  8
GUIDE
100
AcDbLine
 10
-378.0
 20
729.4
 30
0.0
 11
-378.0
 21
736.92
 31
0.0
  0
LINE
  5
5A3
330
1A
100
AcDbEntity
  8
GUIDE
100
AcDbLine
 10
-378.0
 20
703.08
 30
0.0
 11
-378.0
 21
710.6
 31
0.0
  0
LINE
  5
5A4
330
1A
100
AcDbEntity
  8
GUIDE
100
AcDbLine
 10
-399.0
 20
703.08
 30
0.0
 11
-399.0
 21
710.6
 31
0.0
  0
LINE
  5
5A5
330
1A
100
AcDbEntity
  8
GUIDE
100
AcDbLine
 10
-399.0
 20
729.4
 30
0.0
 11
-399.0
 21
736.92
 31
0.0
  0
LINE
  5
5A6
330
1A
100
AcDbEntity
  8
GUIDE
100
AcDbLine
 10
-378.0
 20
736.92
 30
0.0
 11
-399.0
 21
736.92
 31
0.0
  0
LINE
  5
5A7
330
1A
100
AcDbEntity
  8
GUIDE
100
AcDbLine
 10
-378.0
 20
729.4
 30
0.0
 11
-399.0
 21
729.4
 31
0.0
  0
LINE
  5
5A8
330
1A
100
AcDbEntity
  8
GUIDE
100
AcDbLine
 10
-378.0
 20
703.08
 30
0.0
 11
-399.0
 21
703.08
 31
0.0
  0
LINE
  5
5A9
330
1A
100
AcDbEntity
  8
GUIDE
100
AcDbLine
 10
-378.0
 20
710.6
 30
0.0
 11
-399.0
 21
710.6
 31
0.0
  0
LINE
  5
5AA
330
1A
100
AcDbEntity
  8
GUIDE
100
AcDbLine
 10
-385.5
 20
725.64
 30
0.0
 11
-391.5
 21
725.64
 31
0.0
  0
LINE
  5
5AB
330
1A
100
AcDbEntity
  8
GUIDE
100
AcDbLine
 10
-391.5
 20
752.0
 30
0.0
 11
-391.5
 21
736.92
 31
0.0
  0
LINE
  5
5AC
330
1A
100
AcDbEntity
  8
GUIDE
100
AcDbLine
 10
-385.5
 20
752.0
 30
0.0
 11
-385.5
 21
736.92
 31
0.0
  0
LINE
  5
5AD
330
1A
100
AcDbEntity
  8
GUIDE
100
AcDbLine
 10
-325.5
 20
748.24
 30
0.0
 11
-325.5
 21
740.72
 31
0.0
  0
LINE
  5
5AE
330
1A
100
AcDbEntity
  8
GUIDE
100
AcDbLine
 10
-346.5
 20
748.24
 30
0.0
 11
-346.5
 21
740.72
 31
0.0
  0
LINE
  5
5AF
330
1A
100
AcDbEntity
  8
GUIDE
100
AcDbLine
 10
-325.5
 20
748.24
 30
0.0
 11
-346.5
 21
748.24
 31
0.0
  0
LINE
  5
5B0
330
1A
100
AcDbEntity
  8
GUIDE
100
AcDbLine
 10
-325.5
 20
740.72
 30
0.0
 11
-346.5
 21
740.72
 31
0.0
  0
LINE
  5
5B1
330
1A
100
AcDbEntity
  8
GUIDE
100
AcDbLine
 10
-333.0
 20
725.68
 30
0.0
 11
-339.0
 21
725.68
 31
0.0
  0
LINE
  5
5B2
330
1A
100
AcDbEntity
  8
GUIDE
100
AcDbLine
 10
-325.5
 20
714.4
 30
0.0
 11
-346.5
 21
714.4
 31
0.0
  0
LINE
  5
5B3
330
1A
100
AcDbEntity
  8
GUIDE
100
AcDbLine
 10
-325.5
 20
721.92
 30
0.0
 11
-346.5
 21
721.92
 31
0.0
  0
LINE
  5
5B4
330
1A
100
AcDbEntity
  8
GUIDE
100
AcDbLine
 10
-346.5
 20
721.92
 30
0.0
 11
-346.5
 21
714.4
 31
0.0
  0
LINE
  5
5B5
330
1A
100
AcDbEntity
  8
GUIDE
100
AcDbLine
 10
-325.5
 20
721.92
 30
0.0
 11
-325.5
 21
714.4
 31
0.0
  0
LINE
  5
5B6
330
1A
100
AcDbEntity
  8
GUIDE
100
AcDbLine
 10
-339.0
 20
699.5
 30
0.0
 11
-339.0
 21
714.4
 31
0.0
  0
LINE
  5
5B7
330
1A
100
AcDbEntity
  8
GUIDE
100
AcDbLine
 10
-333.0
 20
699.5
 30
0.0
 11
-333.0
 21
714.4
 31
0.0
  0
LINE
  5
5B8
330
1A
100
AcDbEntity
  8
GUIDE
100
AcDbLine
 10
-333.0
 20
721.92
 30
0.0
 11
-333.0
 21
740.72
 31
0.0
  0
LINE
  5
5B9
330
1A
100
AcDbEntity
  8
GUIDE
100
AcDbLine
 10
-339.0
 20
721.92
 30
0.0
 11
-339.0
 21
740.72
 31
0.0
  0
LINE
  5
5BA
330
1A
100
AcDbEntity
  8
GUIDE
100
AcDbLine
 10
-339.0
 20
748.24
 30
0.0
 11
-339.0
 21
752.0
 31
0.0
  0
LINE
  5
5BB
330
1A
100
AcDbEntity
  8
GUIDE
100
AcDbLine
 10
-333.0
 20
748.24
 30
0.0
 11
-333.0
 21
752.0
 31
0.0
  0
LINE
  5
5BC
330
1A
100
AcDbEntity
  8
GUIDE
100
AcDbLine
 10
-356.5
 20
703.08
 30
0.0
 11
-356.5
 21
699.5
 31
0.0
  0
LINE
  5
5BD
330
1A
100
AcDbEntity
  8
GUIDE
100
AcDbLine
 10
-350.5
 20
703.08
 30
0.0
 11
-350.5
 21
699.5
 31
0.0
  0
LINE
  5
5BE
330
1A
100
AcDbEntity
  8
GUIDE
100
AcDbLine
 10
-350.5
 20
729.4
 30
0.0
 11
-350.5
 21
710.6
 31
0.0
  0
LINE
  5
5BF
330
1A
100
AcDbEntity
  8
GUIDE
100
AcDbLine
 10
-356.5
 20
729.4
 30
0.0
 11
-356.5
 21
710.6
 31
0.0
  0
LINE
  5
5C0
330
1A
100
AcDbEntity
  8
GUIDE
100
AcDbLine
 10
-343.0
 20
729.4
 30
0.0
 11
-343.0
 21
736.92
 31
0.0
  0
LINE
  5
5C1
330
1A
100
AcDbEntity
  8
GUIDE
100
AcDbLine
 10
-343.0
 20
703.08
 30
0.0
 11
-343.0
 21
710.6
 31
0.0
  0
LINE
  5
5C2
330
1A
100
AcDbEntity
  8
GUIDE
100
AcDbLine
 10
-364.0
 20
703.08
 30
0.0
 11
-364.0
 21
710.6
 31
0.0
  0
LINE
  5
5C3
330
1A
100
AcDbEntity
  8
GUIDE
100
AcDbLine
 10
-364.0
 20
729.4
 30
0.0
 11
-364.0
 21
736.92
 31
0.0
  0
LINE
  5
5C4
330
1A
100
AcDbEntity
  8
GUIDE
100
AcDbLine
 10
-343.0
 20
736.92
 30
0.0
 11
-364.0
 21
736.92
 31
0.0
  0
LINE
  5
5C5
330
1A
100
AcDbEntity
  8
GUIDE
100
AcDbLine
 10
-343.0
 20
729.4
 30
0.0
 11
-364.0
 21
729.4
 31
0.0
  0
LINE
  5
5C6
330
1A
100
AcDbEntity
  8
GUIDE
100
AcDbLine
 10
-343.0
 20
703.08
 30
0.0
 11
-364.0
 21
703.08
 31
0.0
  0
LINE
  5
5C7
330
1A
100
AcDbEntity
  8
GUIDE
100
AcDbLine
 10
-343.0
 20
710.6
 30
0.0
 11
-364.0
 21
710.6
 31
0.0
  0
LINE
  5
5C8
330
1A
100
AcDbEntity
  8
GUIDE
100
AcDbLine
 10
-350.5
 20
725.64
 30
0.0
 11
-356.5
 21
725.64
 31
0.0
  0
LINE
  5
5C9
330
1A
100
AcDbEntity
  8
GUIDE
100
AcDbLine
 10
-356.5
 20
752.0
 30
0.0
 11
-356.5
 21
736.92
 31
0.0
  0
LINE
  5
5CA
330
1A
100
AcDbEntity
  8
GUIDE
100
AcDbLine
 10
-350.5
 20
752.0
 30
0.0
 11
-350.5
 21
736.92
 31
0.0
  0
LINE
  5
5CB
330
1A
100
AcDbEntity
  8
GUIDE
100
AcDbLine
 10
-290.5
 20
748.24
 30
0.0
 11
-290.5
 21
740.72
 31
0.0
  0
LINE
  5
5CC
330
1A
100
AcDbEntity
  8
GUIDE
100
AcDbLine
 10
-311.5
 20
748.24
 30
0.0
 11
-311.5
 21
740.72
 31
0.0
  0
LINE
  5
5CD
330
1A
100
AcDbEntity
  8
GUIDE
100
AcDbLine
 10
-290.5
 20
748.24
 30
0.0
 11
-311.5
 21
748.24
 31
0.0
  0
LINE
  5
5CE
330
1A
100
AcDbEntity
  8
GUIDE
100
AcDbLine
 10
-290.5
 20
740.72
 30
0.0
 11
-311.5
 21
740.72
 31
0.0
  0
LINE
  5
5CF
330
1A
100
AcDbEntity
  8
GUIDE
100
AcDbLine
 10
-298.0
 20
725.68
 30
0.0
 11
-304.0
 21
725.68
 31
0.0
  0
LINE
  5
5D0
330
1A
100
AcDbEntity
  8
GUIDE
100
AcDbLine
 10
-290.5
 20
714.4
 30
0.0
 11
-311.5
 21
714.4
 31
0.0
  0
LINE
  5
5D1
330
1A
100
AcDbEntity
  8
GUIDE
100
AcDbLine
 10
-290.5
 20
721.92
 30
0.0
 11
-311.5
 21
721.92
 31
0.0
  0
LINE
  5
5D2
330
1A
100
AcDbEntity
  8
GUIDE
100
AcDbLine
 10
-311.5
 20
721.92
 30
0.0
 11
-311.5
 21
714.4
 31
0.0
  0
LINE
  5
5D3
330
1A
100
AcDbEntity
  8
GUIDE
100
AcDbLine
 10
-290.5
 20
721.92
 30
0.0
 11
-290.5
 21
714.4
 31
0.0
  0
LINE
  5
5D4
330
1A
100
AcDbEntity
  8
GUIDE
100
AcDbLine
 10
-304.0
 20
699.5
 30
0.0
 11
-304.0
 21
714.4
 31
0.0
  0
LINE
  5
5D5
330
1A
100
AcDbEntity
  8
GUIDE
100
AcDbLine
 10
-298.0
 20
699.5
 30
0.0
 11
-298.0
 21
714.4
 31
0.0
  0
LINE
  5
5D6
330
1A
100
AcDbEntity
  8
GUIDE
100
AcDbLine
 10
-298.0
 20
721.92
 30
0.0
 11
-298.0
 21
740.72
 31
0.0
  0
LINE
  5
5D7
330
1A
100
AcDbEntity
  8
GUIDE
100
AcDbLine
 10
-304.0
 20
721.92
 30
0.0
 11
-304.0
 21
740.72
 31
0.0
  0
LINE
  5
5D8
330
1A
100
AcDbEntity
  8
GUIDE
100
AcDbLine
 10
-304.0
 20
748.24
 30
0.0
 11
-304.0
 21
752.0
 31
0.0
  0
LINE
  5
5D9
330
1A
100
AcDbEntity
  8
GUIDE
100
AcDbLine
 10
-298.0
 20
748.24
 30
0.0
 11
-298.0
 21
752.0
 31
0.0
  0
LINE
  5
5DA
330
1A
100
AcDbEntity
  8
GUIDE
100
AcDbLine
 10
-321.5
 20
703.08
 30
0.0
 11
-321.5
 21
699.5
 31
0.0
  0
LINE
  5
5DB
330
1A
100
AcDbEntity
  8
GUIDE
100
AcDbLine
 10
-315.5
 20
703.08
 30
0.0
 11
-315.5
 21
699.5
 31
0.0
  0
LINE
  5
5DC
330
1A
100
AcDbEntity
  8
GUIDE
100
AcDbLine
 10
-315.5
 20
729.4
 30
0.0
 11
-315.5
 21
710.6
 31
0.0
  0
LINE
  5
5DD
330
1A
100
AcDbEntity
  8
GUIDE
100
AcDbLine
 10
-321.5
 20
729.4
 30
0.0
 11
-321.5
 21
710.6
 31
0.0
  0
LINE
  5
5DE
330
1A
100
AcDbEntity
  8
GUIDE
100
AcDbLine
 10
-308.0
 20
729.4
 30
0.0
 11
-308.0
 21
736.92
 31
0.0
  0
LINE
  5
5DF
330
1A
100
AcDbEntity
  8
GUIDE
100
AcDbLine
 10
-308.0
 20
703.08
 30
0.0
 11
-308.0
 21
710.6
 31
0.0
  0
LINE
  5
5E0
330
1A
100
AcDbEntity
  8
GUIDE
100
AcDbLine
 10
-329.0
 20
703.08
 30
0.0
 11
-329.0
 21
710.6
 31
0.0
  0
LINE
  5
5E1
330
1A
100
AcDbEntity
  8
GUIDE
100
AcDbLine
 10
-329.0
 20
729.4
 30
0.0
 11
-329.0
 21
736.92
 31
0.0
  0
LINE
  5
5E2
330
1A
100
AcDbEntity
  8
GUIDE
100
AcDbLine
 10
-308.0
 20
736.92
 30
0.0
 11
-329.0
 21
736.92
 31
0.0
  0
LINE
  5
5E3
330
1A
100
AcDbEntity
  8
GUIDE
100
AcDbLine
 10
-308.0
 20
729.4
 30
0.0
 11
-329.0
 21
729.4
 31
0.0
  0
LINE
  5
5E4
330
1A
100
AcDbEntity
  8
GUIDE
100
AcDbLine
 10
-308.0
 20
703.08
 30
0.0
 11
-329.0
 21
703.08
 31
0.0
  0
LINE
  5
5E5
330
1A
100
AcDbEntity
  8
GUIDE
100
AcDbLine
 10
-308.0
 20
710.6
 30
0.0
 11
-329.0
 21
710.6
 31
0.0
  0
LINE
  5
5E6
330
1A
100
AcDbEntity
  8
GUIDE
100
AcDbLine
 10
-315.5
 20
725.64
 30
0.0
 11
-321.5
 21
725.64
 31
0.0
  0
LINE
  5
5E7
330
1A
100
AcDbEntity
  8
GUIDE
100
AcDbLine
 10
-321.5
 20
752.0
 30
0.0
 11
-321.5
 21
736.92
 31
0.0
  0
LINE
  5
5E8
330
1A
100
AcDbEntity
  8
GUIDE
100
AcDbLine
 10
-315.5
 20
752.0
 30
0.0
 11
-315.5
 21
736.92
 31
0.0
  0
LINE
  5
5E9
330
1A
100
AcDbEntity
  8
GUIDE
100
AcDbLine
 10
-255.5
 20
748.24
 30
0.0
 11
-255.5
 21
740.72
 31
0.0
  0
LINE
  5
5EA
330
1A
100
AcDbEntity
  8
GUIDE
100
AcDbLine
 10
-276.5
 20
748.24
 30
0.0
 11
-276.5
 21
740.72
 31
0.0
  0
LINE
  5
5EB
330
1A
100
AcDbEntity
  8
GUIDE
100
AcDbLine
 10
-255.5
 20
748.24
 30
0.0
 11
-276.5
 21
748.24
 31
0.0
  0
LINE
  5
5EC
330
1A
100
AcDbEntity
  8
GUIDE
100
AcDbLine
 10
-255.5
 20
740.72
 30
0.0
 11
-276.5
 21
740.72
 31
0.0
  0
LINE
  5
5ED
330
1A
100
AcDbEntity
  8
GUIDE
100
AcDbLine
 10
-263.0
 20
725.68
 30
0.0
 11
-269.0
 21
725.68
 31
0.0
  0
LINE
  5
5EE
330
1A
100
AcDbEntity
  8
GUIDE
100
AcDbLine
 10
-255.5
 20
714.4
 30
0.0
 11
-276.5
 21
714.4
 31
0.0
  0
LINE
  5
5EF
330
1A
100
AcDbEntity
  8
GUIDE
100
AcDbLine
 10
-255.5
 20
721.92
 30
0.0
 11
-276.5
 21
721.92
 31
0.0
  0
LINE
  5
5F0
330
1A
100
AcDbEntity
  8
GUIDE
100
AcDbLine
 10
-276.5
 20
721.92
 30
0.0
 11
-276.5
 21
714.4
 31
0.0
  0
LINE
  5
5F1
330
1A
100
AcDbEntity
  8
GUIDE
100
AcDbLine
 10
-255.5
 20
721.92
 30
0.0
 11
-255.5
 21
714.4
 31
0.0
  0
LINE
  5
5F2
330
1A
100
AcDbEntity
  8
GUIDE
100
AcDbLine
 10
-269.0
 20
699.5
 30
0.0
 11
-269.0
 21
714.4
 31
0.0
  0
LINE
  5
5F3
330
1A
100
AcDbEntity
  8
GUIDE
100
AcDbLine
 10
-263.0
 20
699.5
 30
0.0
 11
-263.0
 21
714.4
 31
0.0
  0
LINE
  5
5F4
330
1A
100
AcDbEntity
  8
GUIDE
100
AcDbLine
 10
-263.0
 20
721.92
 30
0.0
 11
-263.0
 21
740.72
 31
0.0
  0
LINE
  5
5F5
330
1A
100
AcDbEntity
  8
GUIDE
100
AcDbLine
 10
-269.0
 20
721.92
 30
0.0
 11
-269.0
 21
740.72
 31
0.0
  0
LINE
  5
5F6
330
1A
100
AcDbEntity
  8
GUIDE
100
AcDbLine
 10
-269.0
 20
748.24
 30
0.0
 11
-269.0
 21
752.0
 31
0.0
  0
LINE
  5
5F7
330
1A
100
AcDbEntity
  8
GUIDE
100
AcDbLine
 10
-263.0
 20
748.24
 30
0.0
 11
-263.0
 21
752.0
 31
0.0
  0
LINE
  5
5F8
330
1A
100
AcDbEntity
  8
GUIDE
100
AcDbLine
 10
-286.5
 20
703.08
 30
0.0
 11
-286.5
 21
699.5
 31
0.0
  0
LINE
  5
5F9
330
1A
100
AcDbEntity
  8
GUIDE
100
AcDbLine
 10
-280.5
 20
703.08
 30
0.0
 11
-280.5
 21
699.5
 31
0.0
  0
LINE
  5
5FA
330
1A
100
AcDbEntity
  8
GUIDE
100
AcDbLine
 10
-280.5
 20
729.4
 30
0.0
 11
-280.5
 21
710.6
 31
0.0
  0
LINE
  5
5FB
330
1A
100
AcDbEntity
  8
GUIDE
100
AcDbLine
 10
-286.5
 20
729.4
 30
0.0
 11
-286.5
 21
710.6
 31
0.0
  0
LINE
  5
5FC
330
1A
100
AcDbEntity
  8
GUIDE
100
AcDbLine
 10
-273.0
 20
729.4
 30
0.0
 11
-273.0
 21
736.92
 31
0.0
  0
LINE
  5
5FD
330
1A
100
AcDbEntity
  8
GUIDE
100
AcDbLine
 10
-273.0
 20
703.08
 30
0.0
 11
-273.0
 21
710.6
 31
0.0
  0
LINE
  5
5FE
330
1A
100
AcDbEntity
  8
GUIDE
100
AcDbLine
 10
-294.0
 20
703.08
 30
0.0
 11
-294.0
 21
710.6
 31
0.0
  0
LINE
  5
5FF
330
1A
100
AcDbEntity
  8
GUIDE
100
AcDbLine
 10
-294.0
 20
729.4
 30
0.0
 11
-294.0
 21
736.92
 31
0.0
  0
LINE
  5
600
330
1A
100
AcDbEntity
  8
GUIDE
100
AcDbLine
 10
-273.0
 20
736.92
 30
0.0
 11
-294.0
 21
736.92
 31
0.0
  0
LINE
  5
601
330
1A
100
AcDbEntity
  8
GUIDE
100
AcDbLine
 10
-273.0
 20
729.4
 30
0.0
 11
-294.0
 21
729.4
 31
0.0
  0
LINE
  5
602
330
1A
100
AcDbEntity
  8
GUIDE
100
AcDbLine
 10
-273.0
 20
703.08
 30
0.0
 11
-294.0
 21
703.08
 31
0.0
  0
LINE
  5
603
330
1A
100
AcDbEntity
  8
GUIDE
100
AcDbLine
 10
-273.0
 20
710.6
 30
0.0
 11
-294.0
 21
710.6
 31
0.0
  0
LINE
  5
604
330
1A
100
AcDbEntity
  8
GUIDE
100
AcDbLine
 10
-280.5
 20
725.64
 30
0.0
 11
-286.5
 21
725.64
 31
0.0
  0
LINE
  5
605
330
1A
100
AcDbEntity
  8
GUIDE
100
AcDbLine
 10
-286.5
 20
752.0
 30
0.0
 11
-286.5
 21
736.92
 31
0.0
  0
LINE
  5
606
330
1A
100
AcDbEntity
  8
GUIDE
100
AcDbLine
 10
-280.5
 20
752.0
 30
0.0
 11
-280.5
 21
736.92
 31
0.0
  0
LINE
  5
607
330
1A
100
AcDbEntity
  8
GUIDE
100
AcDbLine
 10
-220.5
 20
748.24
 30
0.0
 11
-220.5
 21
740.72
 31
0.0
  0
LINE
  5
608
330
1A
100
AcDbEntity
  8
GUIDE
100
AcDbLine
 10
-241.5
 20
748.24
 30
0.0
 11
-241.5
 21
740.72
 31
0.0
  0
LINE
  5
609
330
1A
100
AcDbEntity
  8
GUIDE
100
AcDbLine
 10
-220.5
 20
748.24
 30
0.0
 11
-241.5
 21
748.24
 31
0.0
  0
LINE
  5
60A
330
1A
100
AcDbEntity
  8
GUIDE
100
AcDbLine
 10
-220.5
 20
740.72
 30
0.0
 11
-241.5
 21
740.72
 31
0.0
  0
LINE
  5
60B
330
1A
100
AcDbEntity
  8
GUIDE
100
AcDbLine
 10
-228.0
 20
725.68
 30
0.0
 11
-234.0
 21
725.68
 31
0.0
  0
LINE
  5
60C
330
1A
100
AcDbEntity
  8
GUIDE
100
AcDbLine
 10
-220.5
 20
714.4
 30
0.0
 11
-241.5
 21
714.4
 31
0.0
  0
LINE
  5
60D
330
1A
100
AcDbEntity
  8
GUIDE
100
AcDbLine
 10
-220.5
 20
721.92
 30
0.0
 11
-241.5
 21
721.92
 31
0.0
  0
LINE
  5
60E
330
1A
100
AcDbEntity
  8
GUIDE
100
AcDbLine
 10
-241.5
 20
721.92
 30
0.0
 11
-241.5
 21
714.4
 31
0.0
  0
LINE
  5
60F
330
1A
100
AcDbEntity
  8
GUIDE
100
AcDbLine
 10
-220.5
 20
721.92
 30
0.0
 11
-220.5
 21
714.4
 31
0.0
  0
LINE
  5
610
330
1A
100
AcDbEntity
  8
GUIDE
100
AcDbLine
 10
-234.0
 20
699.5
 30
0.0
 11
-234.0
 21
714.4
 31
0.0
  0
LINE
  5
611
330
1A
100
AcDbEntity
  8
GUIDE
100
AcDbLine
 10
-228.0
 20
699.5
 30
0.0
 11
-228.0
 21
714.4
 31
0.0
  0
LINE
  5
612
330
1A
100
AcDbEntity
  8
GUIDE
100
AcDbLine
 10
-228.0
 20
721.92
 30
0.0
 11
-228.0
 21
740.72
 31
0.0
  0
LINE
  5
613
330
1A
100
AcDbEntity
  8
GUIDE
100
AcDbLine
 10
-234.0
 20
721.92
 30
0.0
 11
-234.0
 21
740.72
 31
0.0
  0
LINE
  5
614
330
1A
100
AcDbEntity
  8
GUIDE
100
AcDbLine
 10
-234.0
 20
748.24
 30
0.0
 11
-234.0
 21
752.0
 31
0.0
  0
LINE
  5
615
330
1A
100
AcDbEntity
  8
GUIDE
100
AcDbLine
 10
-228.0
 20
748.24
 30
0.0
 11
-228.0
 21
752.0
 31
0.0
  0
LINE
  5
616
330
1A
100
AcDbEntity
  8
GUIDE
100
AcDbLine
 10
-251.5
 20
703.08
 30
0.0
 11
-251.5
 21
699.5
 31
0.0
  0
LINE
  5
617
330
1A
100
AcDbEntity
  8
GUIDE
100
AcDbLine
 10
-245.5
 20
703.08
 30
0.0
 11
-245.5
 21
699.5
 31
0.0
  0
LINE
  5
618
330
1A
100
AcDbEntity
  8
GUIDE
100
AcDbLine
 10
-245.5
 20
729.4
 30
0.0
 11
-245.5
 21
710.6
 31
0.0
  0
LINE
  5
619
330
1A
100
AcDbEntity
  8
GUIDE
100
AcDbLine
 10
-251.5
 20
729.4
 30
0.0
 11
-251.5
 21
710.6
 31
0.0
  0
LINE
  5
61A
330
1A
100
AcDbEntity
  8
GUIDE
100
AcDbLine
 10
-238.0
 20
729.4
 30
0.0
 11
-238.0
 21
736.92
 31
0.0
  0
LINE
  5
61B
330
1A
100
AcDbEntity
  8
GUIDE
100
AcDbLine
 10
-238.0
 20
703.08
 30
0.0
 11
-238.0
 21
710.6
 31
0.0
  0
LINE
  5
61C
330
1A
100
AcDbEntity
  8
GUIDE
100
AcDbLine
 10
-259.0
 20
703.08
 30
0.0
 11
-259.0
 21
710.6
 31
0.0
  0
LINE
  5
61D
330
1A
100
AcDbEntity
  8
GUIDE
100
AcDbLine
 10
-259.0
 20
729.4
 30
0.0
 11
-259.0
 21
736.92
 31
0.0
  0
LINE
  5
61E
330
1A
100
AcDbEntity
  8
GUIDE
100
AcDbLine
 10
-238.0
 20
736.92
 30
0.0
 11
-259.0
 21
736.92
 31
0.0
  0
LINE
  5
61F
330
1A
100
AcDbEntity
  8
GUIDE
100
AcDbLine
 10
-238.0
 20
729.4
 30
0.0
 11
-259.0
 21
729.4
 31
0.0
  0
LINE
  5
620
330
1A
100
AcDbEntity
  8
GUIDE
100
AcDbLine
 10
-238.0
 20
703.08
 30
0.0
 11
-259.0
 21
703.08
 31
0.0
  0
LINE
  5
621
330
1A
100
AcDbEntity
  8
GUIDE
100
AcDbLine
 10
-238.0
 20
710.6
 30
0.0
 11
-259.0
 21
710.6
 31
0.0
  0
LINE
  5
622
330
1A
100
AcDbEntity
  8
GUIDE
100
AcDbLine
 10
-245.5
 20
725.64
 30
0.0
 11
-251.5
 21
725.64
 31
0.0
  0
LINE
  5
623
330
1A
100
AcDbEntity
  8
GUIDE
100
AcDbLine
 10
-251.5
 20
752.0
 30
0.0
 11
-251.5
 21
736.92
 31
0.0
  0
LINE
  5
624
330
1A
100
AcDbEntity
  8
GUIDE
100
AcDbLine
 10
-245.5
 20
752.0
 30
0.0
 11
-245.5
 21
736.92
 31
0.0
  0
LINE
  5
625
330
1A
100
AcDbEntity
  8
GUIDE
100
AcDbLine
 10
-185.5
 20
748.24
 30
0.0
 11
-185.5
 21
740.72
 31
0.0
  0
LINE
  5
626
330
1A
100
AcDbEntity
  8
GUIDE
100
AcDbLine
 10
-206.5
 20
748.24
 30
0.0
 11
-206.5
 21
740.72
 31
0.0
  0
LINE
  5
627
330
1A
100
AcDbEntity
  8
GUIDE
100
AcDbLine
 10
-185.5
 20
748.24
 30
0.0
 11
-206.5
 21
748.24
 31
0.0
  0
LINE
  5
628
330
1A
100
AcDbEntity
  8
GUIDE
100
AcDbLine
 10
-185.5
 20
740.72
 30
0.0
 11
-206.5
 21
740.72
 31
0.0
  0
LINE
  5
629
330
1A
100
AcDbEntity
  8
GUIDE
100
AcDbLine
 10
-193.0
 20
725.68
 30
0.0
 11
-199.0
 21
725.68
 31
0.0
  0
LINE
  5
62A
330
1A
100
AcDbEntity
  8
GUIDE
100
AcDbLine
 10
-185.5
 20
714.4
 30
0.0
 11
-206.5
 21
714.4
 31
0.0
  0
LINE
  5
62B
330
1A
100
AcDbEntity
  8
GUIDE
100
AcDbLine
 10
-185.5
 20
721.92
 30
0.0
 11
-206.5
 21
721.92
 31
0.0
  0
LINE
  5
62C
330
1A
100
AcDbEntity
  8
GUIDE
100
AcDbLine
 10
-206.5
 20
721.92
 30
0.0
 11
-206.5
 21
714.4
 31
0.0
  0
LINE
  5
62D
330
1A
100
AcDbEntity
  8
GUIDE
100
AcDbLine
 10
-185.5
 20
721.92
 30
0.0
 11
-185.5
 21
714.4
 31
0.0
  0
LINE
  5
62E
330
1A
100
AcDbEntity
  8
GUIDE
100
AcDbLine
 10
-199.0
 20
699.5
 30
0.0
 11
-199.0
 21
714.4
 31
0.0
  0
LINE
  5
62F
330
1A
100
AcDbEntity
  8
GUIDE
100
AcDbLine
 10
-193.0
 20
699.5
 30
0.0
 11
-193.0
 21
714.4
 31
0.0
  0
LINE
  5
630
330
1A
100
AcDbEntity
  8
GUIDE
100
AcDbLine
 10
-193.0
 20
721.92
 30
0.0
 11
-193.0
 21
740.72
 31
0.0
  0
LINE
  5
631
330
1A
100
AcDbEntity
  8
GUIDE
100
AcDbLine
 10
-199.0
 20
721.92
 30
0.0
 11
-199.0
 21
740.72
 31
0.0
  0
LINE
  5
632
330
1A
100
AcDbEntity
  8
GUIDE
100
AcDbLine
 10
-199.0
 20
748.24
 30
0.0
 11
-199.0
 21
752.0
 31
0.0
  0
LINE
  5
633
330
1A
100
AcDbEntity
  8
GUIDE
100
AcDbLine
 10
-193.0
 20
748.24
 30
0.0
 11
-193.0
 21
752.0
 31
0.0
  0
LINE
  5
634
330
1A
100
AcDbEntity
  8
GUIDE
100
AcDbLine
 10
-216.5
 20
703.08
 30
0.0
 11
-216.5
 21
699.5
 31
0.0
  0
LINE
  5
635
330
1A
100
AcDbEntity
  8
GUIDE
100
AcDbLine
 10
-210.5
 20
703.08
 30
0.0
 11
-210.5
 21
699.5
 31
0.0
  0
LINE
  5
636
330
1A
100
AcDbEntity
  8
GUIDE
100
AcDbLine
 10
-210.5
 20
729.4
 30
0.0
 11
-210.5
 21
710.6
 31
0.0
  0
LINE
  5
637
330
1A
100
AcDbEntity
  8
GUIDE
100
AcDbLine
 10
-216.5
 20
729.4
 30
0.0
 11
-216.5
 21
710.6
 31
0.0
  0
LINE
  5
638
330
1A
100
AcDbEntity
  8
GUIDE
100
AcDbLine
 10
-203.0
 20
729.4
 30
0.0
 11
-203.0
 21
736.92
 31
0.0
  0
LINE
  5
639
330
1A
100
AcDbEntity
  8
GUIDE
100
AcDbLine
 10
-203.0
 20
703.08
 30
0.0
 11
-203.0
 21
710.6
 31
0.0
  0
LINE
  5
63A
330
1A
100
AcDbEntity
  8
GUIDE
100
AcDbLine
 10
-224.0
 20
703.08
 30
0.0
 11
-224.0
 21
710.6
 31
0.0
  0
LINE
  5
63B
330
1A
100
AcDbEntity
  8
GUIDE
100
AcDbLine
 10
-224.0
 20
729.4
 30
0.0
 11
-224.0
 21
736.92
 31
0.0
  0
LINE
  5
63C
330
1A
100
AcDbEntity
  8
GUIDE
100
AcDbLine
 10
-203.0
 20
736.92
 30
0.0
 11
-224.0
 21
736.92
 31
0.0
  0
LINE
  5
63D
330
1A
100
AcDbEntity
  8
GUIDE
100
AcDbLine
 10
-203.0
 20
729.4
 30
0.0
 11
-224.0
 21
729.4
 31
0.0
  0
LINE
  5
63E
330
1A
100
AcDbEntity
  8
GUIDE
100
AcDbLine
 10
-203.0
 20
703.08
 30
0.0
 11
-224.0
 21
703.08
 31
0.0
  0
LINE
  5
63F
330
1A
100
AcDbEntity
  8
GUIDE
100
AcDbLine
 10
-203.0
 20
710.6
 30
0.0
 11
-224.0
 21
710.6
 31
0.0
  0
LINE
  5
640
330
1A
100
AcDbEntity
  8
GUIDE
100
AcDbLine
 10
-210.5
 20
725.64
 30
0.0
 11
-216.5
 21
725.64
 31
0.0
  0
LINE
  5
641
330
1A
100
AcDbEntity
  8
GUIDE
100
AcDbLine
 10
-216.5
 20
752.0
 30
0.0
 11
-216.5
 21
736.92
 31
0.0
  0
LINE
  5
642
330
1A
100
AcDbEntity
  8
GUIDE
100
AcDbLine
 10
-210.5
 20
752.0
 30
0.0
 11
-210.5
 21
736.92
 31
0.0
  0
LINE
  5
643
330
1A
100
AcDbEntity
  8
GUIDE
100
AcDbLine
 10
-150.5
 20
748.24
 30
0.0
 11
-150.5
 21
740.72
 31
0.0
  0
LINE
  5
644
330
1A
100
AcDbEntity
  8
GUIDE
100
AcDbLine
 10
-171.5
 20
748.24
 30
0.0
 11
-171.5
 21
740.72
 31
0.0
  0
LINE
  5
645
330
1A
100
AcDbEntity
  8
GUIDE
100
AcDbLine
 10
-150.5
 20
748.24
 30
0.0
 11
-171.5
 21
748.24
 31
0.0
  0
LINE
  5
646
330
1A
100
AcDbEntity
  8
GUIDE
100
AcDbLine
 10
-150.5
 20
740.72
 30
0.0
 11
-171.5
 21
740.72
 31
0.0
  0
LINE
  5
647
330
1A
100
AcDbEntity
  8
GUIDE
100
AcDbLine
 10
-158.0
 20
725.68
 30
0.0
 11
-164.0
 21
725.68
 31
0.0
  0
LINE
  5
648
330
1A
100
AcDbEntity
  8
GUIDE
100
AcDbLine
 10
-150.5
 20
714.4
 30
0.0
 11
-171.5
 21
714.4
 31
0.0
  0
LINE
  5
649
330
1A
100
AcDbEntity
  8
GUIDE
100
AcDbLine
 10
-150.5
 20
721.92
 30
0.0
 11
-171.5
 21
721.92
 31
0.0
  0
LINE
  5
64A
330
1A
100
AcDbEntity
  8
GUIDE
100
AcDbLine
 10
-171.5
 20
721.92
 30
0.0
 11
-171.5
 21
714.4
 31
0.0
  0
LINE
  5
64B
330
1A
100
AcDbEntity
  8
GUIDE
100
AcDbLine
 10
-150.5
 20
721.92
 30
0.0
 11
-150.5
 21
714.4
 31
0.0
  0
LINE
  5
64C
330
1A
100
AcDbEntity
  8
GUIDE
100
AcDbLine
 10
-164.0
 20
699.5
 30
0.0
 11
-164.0
 21
714.4
 31
0.0
  0
LINE
  5
64D
330
1A
100
AcDbEntity
  8
GUIDE
100
AcDbLine
 10
-158.0
 20
699.5
 30
0.0
 11
-158.0
 21
714.4
 31
0.0
  0
LINE
  5
64E
330
1A
100
AcDbEntity
  8
GUIDE
100
AcDbLine
 10
-158.0
 20
721.92
 30
0.0
 11
-158.0
 21
740.72
 31
0.0
  0
LINE
  5
64F
330
1A
100
AcDbEntity
  8
GUIDE
100
AcDbLine
 10
-164.0
 20
721.92
 30
0.0
 11
-164.0
 21
740.72
 31
0.0
  0
LINE
  5
650
330
1A
100
AcDbEntity
  8
GUIDE
100
AcDbLine
 10
-164.0
 20
748.24
 30
0.0
 11
-164.0
 21
752.0
 31
0.0
  0
LINE
  5
651
330
1A
100
AcDbEntity
  8
GUIDE
100
AcDbLine
 10
-158.0
 20
748.24
 30
0.0
 11
-158.0
 21
752.0
 31
0.0
  0
LINE
  5
652
330
1A
100
AcDbEntity
  8
GUIDE
100
AcDbLine
 10
-181.5
 20
703.08
 30
0.0
 11
-181.5
 21
699.5
 31
0.0
  0
LINE
  5
653
330
1A
100
AcDbEntity
  8
GUIDE
100
AcDbLine
 10
-175.5
 20
703.08
 30
0.0
 11
-175.5
 21
699.5
 31
0.0
  0
LINE
  5
654
330
1A
100
AcDbEntity
  8
GUIDE
100
AcDbLine
 10
-175.5
 20
729.4
 30
0.0
 11
-175.5
 21
710.6
 31
0.0
  0
LINE
  5
655
330
1A
100
AcDbEntity
  8
GUIDE
100
AcDbLine
 10
-181.5
 20
729.4
 30
0.0
 11
-181.5
 21
710.6
 31
0.0
  0
LINE
  5
656
330
1A
100
AcDbEntity
  8
GUIDE
100
AcDbLine
 10
-168.0
 20
729.4
 30
0.0
 11
-168.0
 21
736.92
 31
0.0
  0
LINE
  5
657
330
1A
100
AcDbEntity
  8
GUIDE
100
AcDbLine
 10
-168.0
 20
703.08
 30
0.0
 11
-168.0
 21
710.6
 31
0.0
  0
LINE
  5
658
330
1A
100
AcDbEntity
  8
GUIDE
100
AcDbLine
 10
-189.0
 20
703.08
 30
0.0
 11
-189.0
 21
710.6
 31
0.0
  0
LINE
  5
659
330
1A
100
AcDbEntity
  8
GUIDE
100
AcDbLine
 10
-189.0
 20
729.4
 30
0.0
 11
-189.0
 21
736.92
 31
0.0
  0
LINE
  5
65A
330
1A
100
AcDbEntity
  8
GUIDE
100
AcDbLine
 10
-168.0
 20
736.92
 30
0.0
 11
-189.0
 21
736.92
 31
0.0
  0
LINE
  5
65B
330
1A
100
AcDbEntity
  8
GUIDE
100
AcDbLine
 10
-168.0
 20
729.4
 30
0.0
 11
-189.0
 21
729.4
 31
0.0
  0
LINE
  5
65C
330
1A
100
AcDbEntity
  8
GUIDE
100
AcDbLine
 10
-168.0
 20
703.08
 30
0.0
 11
-189.0
 21
703.08
 31
0.0
  0
LINE
  5
65D
330
1A
100
AcDbEntity
  8
GUIDE
100
AcDbLine
 10
-168.0
 20
710.6
 30
0.0
 11
-189.0
 21
710.6
 31
0.0
  0
LINE
  5
65E
330
1A
100
AcDbEntity
  8
GUIDE
100
AcDbLine
 10
-175.5
 20
725.64
 30
0.0
 11
-181.5
 21
725.64
 31
0.0
  0
LINE
  5
65F
330
1A
100
AcDbEntity
  8
GUIDE
100
AcDbLine
 10
-181.5
 20
752.0
 30
0.0
 11
-181.5
 21
736.92
 31
0.0
  0
LINE
  5
660
330
1A
100
AcDbEntity
  8
GUIDE
100
AcDbLine
 10
-175.5
 20
752.0
 30
0.0
 11
-175.5
 21
736.92
 31
0.0
  0
LINE
  5
661
330
1A
100
AcDbEntity
  8
GUIDE
100
AcDbLine
 10
-115.5
 20
748.24
 30
0.0
 11
-115.5
 21
740.72
 31
0.0
  0
LINE
  5
662
330
1A
100
AcDbEntity
  8
GUIDE
100
AcDbLine
 10
-136.5
 20
748.24
 30
0.0
 11
-136.5
 21
740.72
 31
0.0
  0
LINE
  5
663
330
1A
100
AcDbEntity
  8
GUIDE
100
AcDbLine
 10
-115.5
 20
748.24
 30
0.0
 11
-136.5
 21
748.24
 31
0.0
  0
LINE
  5
664
330
1A
100
AcDbEntity
  8
GUIDE
100
AcDbLine
 10
-115.5
 20
740.72
 30
0.0
 11
-136.5
 21
740.72
 31
0.0
  0
LINE
  5
665
330
1A
100
AcDbEntity
  8
GUIDE
100
AcDbLine
 10
-123.0
 20
725.68
 30
0.0
 11
-129.0
 21
725.68
 31
0.0
  0
LINE
  5
666
330
1A
100
AcDbEntity
  8
GUIDE
100
AcDbLine
 10
-115.5
 20
714.4
 30
0.0
 11
-136.5
 21
714.4
 31
0.0
  0
LINE
  5
667
330
1A
100
AcDbEntity
  8
GUIDE
100
AcDbLine
 10
-115.5
 20
721.92
 30
0.0
 11
-136.5
 21
721.92
 31
0.0
  0
LINE
  5
668
330
1A
100
AcDbEntity
  8
GUIDE
100
AcDbLine
 10
-136.5
 20
721.92
 30
0.0
 11
-136.5
 21
714.4
 31
0.0
  0
LINE
  5
669
330
1A
100
AcDbEntity
  8
GUIDE
100
AcDbLine
 10
-115.5
 20
721.92
 30
0.0
 11
-115.5
 21
714.4
 31
0.0
  0
LINE
  5
66A
330
1A
100
AcDbEntity
  8
GUIDE
100
AcDbLine
 10
-129.0
 20
699.5
 30
0.0
 11
-129.0
 21
714.4
 31
0.0
  0
LINE
  5
66B
330
1A
100
AcDbEntity
  8
GUIDE
100
AcDbLine
 10
-123.0
 20
699.5
 30
0.0
 11
-123.0
 21
714.4
 31
0.0
  0
LINE
  5
66C
330
1A
100
AcDbEntity
  8
GUIDE
100
AcDbLine
 10
-123.0
 20
721.92
 30
0.0
 11
-123.0
 21
740.72
 31
0.0
  0
LINE
  5
66D
330
1A
100
AcDbEntity
  8
GUIDE
100
AcDbLine
 10
-129.0
 20
721.92
 30
0.0
 11
-129.0
 21
740.72
 31
0.0
  0
LINE
  5
66E
330
1A
100
AcDbEntity
  8
GUIDE
100
AcDbLine
 10
-129.0
 20
748.24
 30
0.0
 11
-129.0
 21
752.0
 31
0.0
  0
LINE
  5
66F
330
1A
100
AcDbEntity
  8
GUIDE
100
AcDbLine
 10
-123.0
 20
748.24
 30
0.0
 11
-123.0
 21
752.0
 31
0.0
  0
LINE
  5
670
330
1A
100
AcDbEntity
  8
GUIDE
100
AcDbLine
 10
-146.5
 20
703.08
 30
0.0
 11
-146.5
 21
699.5
 31
0.0
  0
LINE
  5
671
330
1A
100
AcDbEntity
  8
GUIDE
100
AcDbLine
 10
-140.5
 20
703.08
 30
0.0
 11
-140.5
 21
699.5
 31
0.0
  0
LINE
  5
672
330
1A
100
AcDbEntity
  8
GUIDE
100
AcDbLine
 10
-140.5
 20
729.4
 30
0.0
 11
-140.5
 21
710.6
 31
0.0
  0
LINE
  5
673
330
1A
100
AcDbEntity
  8
GUIDE
100
AcDbLine
 10
-146.5
 20
729.4
 30
0.0
 11
-146.5
 21
710.6
 31
0.0
  0
LINE
  5
674
330
1A
100
AcDbEntity
  8
GUIDE
100
AcDbLine
 10
-133.0
 20
729.4
 30
0.0
 11
-133.0
 21
736.92
 31
0.0
  0
LINE
  5
675
330
1A
100
AcDbEntity
  8
GUIDE
100
AcDbLine
 10
-133.0
 20
703.08
 30
0.0
 11
-133.0
 21
710.6
 31
0.0
  0
LINE
  5
676
330
1A
100
AcDbEntity
  8
GUIDE
100
AcDbLine
 10
-154.0
 20
703.08
 30
0.0
 11
-154.0
 21
710.6
 31
0.0
  0
LINE
  5
677
330
1A
100
AcDbEntity
  8
GUIDE
100
AcDbLine
 10
-154.0
 20
729.4
 30
0.0
 11
-154.0
 21
736.92
 31
0.0
  0
LINE
  5
678
330
1A
100
AcDbEntity
  8
GUIDE
100
AcDbLine
 10
-133.0
 20
736.92
 30
0.0
 11
-154.0
 21
736.92
 31
0.0
  0
LINE
  5
679
330
1A
100
AcDbEntity
  8
GUIDE
100
AcDbLine
 10
-133.0
 20
729.4
 30
0.0
 11
-154.0
 21
729.4
 31
0.0
  0
LINE
  5
67A
330
1A
100
AcDbEntity
  8
GUIDE
100
AcDbLine
 10
-133.0
 20
703.08
 30
0.0
 11
-154.0
 21
703.08
 31
0.0
  0
LINE
  5
67B
330
1A
100
AcDbEntity
  8
GUIDE
100
AcDbLine
 10
-133.0
 20
710.6
 30
0.0
 11
-154.0
 21
710.6
 31
0.0
  0
LINE
  5
67C
330
1A
100
AcDbEntity
  8
GUIDE
100
AcDbLine
 10
-140.5
 20
725.64
 30
0.0
 11
-146.5
 21
725.64
 31
0.0
  0
LINE
  5
67D
330
1A
100
AcDbEntity
  8
GUIDE
100
AcDbLine
 10
-146.5
 20
752.0
 30
0.0
 11
-146.5
 21
736.92
 31
0.0
  0
LINE
  5
67E
330
1A
100
AcDbEntity
  8
GUIDE
100
AcDbLine
 10
-140.5
 20
752.0
 30
0.0
 11
-140.5
 21
736.92
 31
0.0
  0
LINE
  5
67F
330
1A
100
AcDbEntity
  8
GUIDE
100
AcDbLine
 10
-80.5
 20
748.24
 30
0.0
 11
-80.5
 21
740.72
 31
0.0
  0
LINE
  5
680
330
1A
100
AcDbEntity
  8
GUIDE
100
AcDbLine
 10
-101.5
 20
748.24
 30
0.0
 11
-101.5
 21
740.72
 31
0.0
  0
LINE
  5
681
330
1A
100
AcDbEntity
  8
GUIDE
100
AcDbLine
 10
-80.5
 20
748.24
 30
0.0
 11
-101.5
 21
748.24
 31
0.0
  0
LINE
  5
682
330
1A
100
AcDbEntity
  8
GUIDE
100
AcDbLine
 10
-80.5
 20
740.72
 30
0.0
 11
-101.5
 21
740.72
 31
0.0
  0
LINE
  5
683
330
1A
100
AcDbEntity
  8
GUIDE
100
AcDbLine
 10
-88.0
 20
725.68
 30
0.0
 11
-94.0
 21
725.68
 31
0.0
  0
LINE
  5
684
330
1A
100
AcDbEntity
  8
GUIDE
100
AcDbLine
 10
-80.5
 20
714.4
 30
0.0
 11
-101.5
 21
714.4
 31
0.0
  0
LINE
  5
685
330
1A
100
AcDbEntity
  8
GUIDE
100
AcDbLine
 10
-80.5
 20
721.92
 30
0.0
 11
-101.5
 21
721.92
 31
0.0
  0
LINE
  5
686
330
1A
100
AcDbEntity
  8
GUIDE
100
AcDbLine
 10
-101.5
 20
721.92
 30
0.0
 11
-101.5
 21
714.4
 31
0.0
  0
LINE
  5
687
330
1A
100
AcDbEntity
  8
GUIDE
100
AcDbLine
 10
-80.5
 20
721.92
 30
0.0
 11
-80.5
 21
714.4
 31
0.0
  0
LINE
  5
688
330
1A
100
AcDbEntity
  8
GUIDE
100
AcDbLine
 10
-94.0
 20
699.5
 30
0.0
 11
-94.0
 21
714.4
 31
0.0
  0
LINE
  5
689
330
1A
100
AcDbEntity
  8
GUIDE
100
AcDbLine
 10
-88.0
 20
699.5
 30
0.0
 11
-88.0
 21
714.4
 31
0.0
  0
LINE
  5
68A
330
1A
100
AcDbEntity
  8
GUIDE
100
AcDbLine
 10
-88.0
 20
721.92
 30
0.0
 11
-88.0
 21
740.72
 31
0.0
  0
LINE
  5
68B
330
1A
100
AcDbEntity
  8
GUIDE
100
AcDbLine
 10
-94.0
 20
721.92
 30
0.0
 11
-94.0
 21
740.72
 31
0.0
  0
LINE
  5
68C
330
1A
100
AcDbEntity
  8
GUIDE
100
AcDbLine
 10
-94.0
 20
748.24
 30
0.0
 11
-94.0
 21
752.0
 31
0.0
  0
LINE
  5
68D
330
1A
100
AcDbEntity
  8
GUIDE
100
AcDbLine
 10
-88.0
 20
748.24
 30
0.0
 11
-88.0
 21
752.0
 31
0.0
  0
LINE
  5
68E
330
1A
100
AcDbEntity
  8
GUIDE
100
AcDbLine
 10
-111.5
 20
703.08
 30
0.0
 11
-111.5
 21
699.5
 31
0.0
  0
LINE
  5
68F
330
1A
100
AcDbEntity
  8
GUIDE
100
AcDbLine
 10
-105.5
 20
703.08
 30
0.0
 11
-105.5
 21
699.5
 31
0.0
  0
LINE
  5
690
330
1A
100
AcDbEntity
  8
GUIDE
100
AcDbLine
 10
-105.5
 20
729.4
 30
0.0
 11
-105.5
 21
710.6
 31
0.0
  0
LINE
  5
691
330
1A
100
AcDbEntity
  8
GUIDE
100
AcDbLine
 10
-111.5
 20
729.4
 30
0.0
 11
-111.5
 21
710.6
 31
0.0
  0
LINE
  5
692
330
1A
100
AcDbEntity
  8
GUIDE
100
AcDbLine
 10
-98.0
 20
729.4
 30
0.0
 11
-98.0
 21
736.92
 31
0.0
  0
LINE
  5
693
330
1A
100
AcDbEntity
  8
GUIDE
100
AcDbLine
 10
-98.0
 20
703.08
 30
0.0
 11
-98.0
 21
710.6
 31
0.0
  0
LINE
  5
694
330
1A
100
AcDbEntity
  8
GUIDE
100
AcDbLine
 10
-119.0
 20
703.08
 30
0.0
 11
-119.0
 21
710.6
 31
0.0
  0
LINE
  5
695
330
1A
100
AcDbEntity
  8
GUIDE
100
AcDbLine
 10
-119.0
 20
729.4
 30
0.0
 11
-119.0
 21
736.92
 31
0.0
  0
LINE
  5
696
330
1A
100
AcDbEntity
  8
GUIDE
100
AcDbLine
 10
-98.0
 20
736.92
 30
0.0
 11
-119.0
 21
736.92
 31
0.0
  0
LINE
  5
697
330
1A
100
AcDbEntity
  8
GUIDE
100
AcDbLine
 10
-98.0
 20
729.4
 30
0.0
 11
-119.0
 21
729.4
 31
0.0
  0
LINE
  5
698
330
1A
100
AcDbEntity
  8
GUIDE
100
AcDbLine
 10
-98.0
 20
703.08
 30
0.0
 11
-119.0
 21
703.08
 31
0.0
  0
LINE
  5
699
330
1A
100
AcDbEntity
  8
GUIDE
100
AcDbLine
 10
-98.0
 20
710.6
 30
0.0
 11
-119.0
 21
710.6
 31
0.0
  0
LINE
  5
69A
330
1A
100
AcDbEntity
  8
GUIDE
100
AcDbLine
 10
-105.5
 20
725.64
 30
0.0
 11
-111.5
 21
725.64
 31
0.0
  0
LINE
  5
69B
330
1A
100
AcDbEntity
  8
GUIDE
100
AcDbLine
 10
-111.5
 20
752.0
 30
0.0
 11
-111.5
 21
736.92
 31
0.0
  0
LINE
  5
69C
330
1A
100
AcDbEntity
  8
GUIDE
100
AcDbLine
 10
-105.5
 20
752.0
 30
0.0
 11
-105.5
 21
736.92
 31
0.0
  0
LINE
  5
69D
330
1A
100
AcDbEntity
  8
GUIDE
100
AcDbLine
 10
-45.5
 20
748.24
 30
0.0
 11
-45.5
 21
740.72
 31
0.0
  0
LINE
  5
69E
330
1A
100
AcDbEntity
  8
GUIDE
100
AcDbLine
 10
-66.5
 20
748.24
 30
0.0
 11
-66.5
 21
740.72
 31
0.0
  0
LINE
  5
69F
330
1A
100
AcDbEntity
  8
GUIDE
100
AcDbLine
 10
-45.5
 20
748.24
 30
0.0
 11
-66.5
 21
748.24
 31
0.0
  0
LINE
  5
6A0
330
1A
100
AcDbEntity
  8
GUIDE
100
AcDbLine
 10
-45.5
 20
740.72
 30
0.0
 11
-66.5
 21
740.72
 31
0.0
  0
LINE
  5
6A1
330
1A
100
AcDbEntity
  8
GUIDE
100
AcDbLine
 10
-53.0
 20
725.68
 30
0.0
 11
-59.0
 21
725.68
 31
0.0
  0
LINE
  5
6A2
330
1A
100
AcDbEntity
  8
GUIDE
100
AcDbLine
 10
-45.5
 20
714.4
 30
0.0
 11
-66.5
 21
714.4
 31
0.0
  0
LINE
  5
6A3
330
1A
100
AcDbEntity
  8
GUIDE
100
AcDbLine
 10
-45.5
 20
721.92
 30
0.0
 11
-66.5
 21
721.92
 31
0.0
  0
LINE
  5
6A4
330
1A
100
AcDbEntity
  8
GUIDE
100
AcDbLine
 10
-66.5
 20
721.92
 30
0.0
 11
-66.5
 21
714.4
 31
0.0
  0
LINE
  5
6A5
330
1A
100
AcDbEntity
  8
GUIDE
100
AcDbLine
 10
-45.5
 20
721.92
 30
0.0
 11
-45.5
 21
714.4
 31
0.0
  0
LINE
  5
6A6
330
1A
100
AcDbEntity
  8
GUIDE
100
AcDbLine
 10
-59.0
 20
699.5
 30
0.0
 11
-59.0
 21
714.4
 31
0.0
  0
LINE
  5
6A7
330
1A
100
AcDbEntity
  8
GUIDE
100
AcDbLine
 10
-53.0
 20
699.5
 30
0.0
 11
-53.0
 21
714.4
 31
0.0
  0
LINE
  5
6A8
330
1A
100
AcDbEntity
  8
GUIDE
100
AcDbLine
 10
-53.0
 20
721.92
 30
0.0
 11
-53.0
 21
740.72
 31
0.0
  0
LINE
  5
6A9
330
1A
100
AcDbEntity
  8
GUIDE
100
AcDbLine
 10
-59.0
 20
721.92
 30
0.0
 11
-59.0
 21
740.72
 31
0.0
  0
LINE
  5
6AA
330
1A
100
AcDbEntity
  8
GUIDE
100
AcDbLine
 10
-59.0
 20
748.24
 30
0.0
 11
-59.0
 21
752.0
 31
0.0
  0
LINE
  5
6AB
330
1A
100
AcDbEntity
  8
GUIDE
100
AcDbLine
 10
-53.0
 20
748.24
 30
0.0
 11
-53.0
 21
752.0
 31
0.0
  0
LINE
  5
6AC
330
1A
100
AcDbEntity
  8
GUIDE
100
AcDbLine
 10
-76.5
 20
703.08
 30
0.0
 11
-76.5
 21
699.5
 31
0.0
  0
LINE
  5
6AD
330
1A
100
AcDbEntity
  8
GUIDE
100
AcDbLine
 10
-70.5
 20
703.08
 30
0.0
 11
-70.5
 21
699.5
 31
0.0
  0
LINE
  5
6AE
330
1A
100
AcDbEntity
  8
GUIDE
100
AcDbLine
 10
-70.5
 20
729.4
 30
0.0
 11
-70.5
 21
710.6
 31
0.0
  0
LINE
  5
6AF
330
1A
100
AcDbEntity
  8
GUIDE
100
AcDbLine
 10
-76.5
 20
729.4
 30
0.0
 11
-76.5
 21
710.6
 31
0.0
  0
LINE
  5
6B0
330
1A
100
AcDbEntity
  8
GUIDE
100
AcDbLine
 10
-63.0
 20
729.4
 30
0.0
 11
-63.0
 21
736.92
 31
0.0
  0
LINE
  5
6B1
330
1A
100
AcDbEntity
  8
GUIDE
100
AcDbLine
 10
-63.0
 20
703.08
 30
0.0
 11
-63.0
 21
710.6
 31
0.0
  0
LINE
  5
6B2
330
1A
100
AcDbEntity
  8
GUIDE
100
AcDbLine
 10
-84.0
 20
703.08
 30
0.0
 11
-84.0
 21
710.6
 31
0.0
  0
LINE
  5
6B3
330
1A
100
AcDbEntity
  8
GUIDE
100
AcDbLine
 10
-84.0
 20
729.4
 30
0.0
 11
-84.0
 21
736.92
 31
0.0
  0
LINE
  5
6B4
330
1A
100
AcDbEntity
  8
GUIDE
100
AcDbLine
 10
-63.0
 20
736.92
 30
0.0
 11
-84.0
 21
736.92
 31
0.0
  0
LINE
  5
6B5
330
1A
100
AcDbEntity
  8
GUIDE
100
AcDbLine
 10
-63.0
 20
729.4
 30
0.0
 11
-84.0
 21
729.4
 31
0.0
  0
LINE
  5
6B6
330
1A
100
AcDbEntity
  8
GUIDE
100
AcDbLine
 10
-63.0
 20
703.08
 30
0.0
 11
-84.0
 21
703.08
 31
0.0
  0
LINE
  5
6B7
330
1A
100
AcDbEntity
  8
GUIDE
100
AcDbLine
 10
-63.0
 20
710.6
 30
0.0
 11
-84.0
 21
710.6
 31
0.0
  0
LINE
  5
6B8
330
1A
100
AcDbEntity
  8
GUIDE
100
AcDbLine
 10
-70.5
 20
725.64
 30
0.0
 11
-76.5
 21
725.64
 31
0.0
  0
LINE
  5
6B9
330
1A
100
AcDbEntity
  8
GUIDE
100
AcDbLine
 10
-76.5
 20
752.0
 30
0.0
 11
-76.5
 21
736.92
 31
0.0
  0
LINE
  5
6BA
330
1A
100
AcDbEntity
  8
GUIDE
100
AcDbLine
 10
-70.5
 20
752.0
 30
0.0
 11
-70.5
 21
736.92
 31
0.0
  0
LINE
  5
6BB
330
1A
100
AcDbEntity
  8
GUIDE
100
AcDbLine
 10
-10.5
 20
748.24
 30
0.0
 11
-10.5
 21
740.72
 31
0.0
  0
LINE
  5
6BC
330
1A
100
AcDbEntity
  8
GUIDE
100
AcDbLine
 10
-31.5
 20
748.24
 30
0.0
 11
-31.5
 21
740.72
 31
0.0
  0
LINE
  5
6BD
330
1A
100
AcDbEntity
  8
GUIDE
100
AcDbLine
 10
-10.5
 20
748.24
 30
0.0
 11
-31.5
 21
748.24
 31
0.0
  0
LINE
  5
6BE
330
1A
100
AcDbEntity
  8
GUIDE
100
AcDbLine
 10
-10.5
 20
740.72
 30
0.0
 11
-31.5
 21
740.72
 31
0.0
  0
LINE
  5
6BF
330
1A
100
AcDbEntity
  8
GUIDE
100
AcDbLine
 10
-18.0
 20
725.68
 30
0.0
 11
-24.0
 21
725.68
 31
0.0
  0
LINE
  5
6C0
330
1A
100
AcDbEntity
  8
GUIDE
100
AcDbLine
 10
-10.5
 20
714.4
 30
0.0
 11
-31.5
 21
714.4
 31
0.0
  0
LINE
  5
6C1
330
1A
100
AcDbEntity
  8
GUIDE
100
AcDbLine
 10
-10.5
 20
721.92
 30
0.0
 11
-31.5
 21
721.92
 31
0.0
  0
LINE
  5
6C2
330
1A
100
AcDbEntity
  8
GUIDE
100
AcDbLine
 10
-31.5
 20
721.92
 30
0.0
 11
-31.5
 21
714.4
 31
0.0
  0
LINE
  5
6C3
330
1A
100
AcDbEntity
  8
GUIDE
100
AcDbLine
 10
-10.5
 20
721.92
 30
0.0
 11
-10.5
 21
714.4
 31
0.0
  0
LINE
  5
6C4
330
1A
100
AcDbEntity
  8
GUIDE
100
AcDbLine
 10
-24.0
 20
699.5
 30
0.0
 11
-24.0
 21
714.4
 31
0.0
  0
LINE
  5
6C5
330
1A
100
AcDbEntity
  8
GUIDE
100
AcDbLine
 10
-18.0
 20
699.5
 30
0.0
 11
-18.0
 21
714.4
 31
0.0
  0
LINE
  5
6C6
330
1A
100
AcDbEntity
  8
GUIDE
100
AcDbLine
 10
-18.0
 20
721.92
 30
0.0
 11
-18.0
 21
740.72
 31
0.0
  0
LINE
  5
6C7
330
1A
100
AcDbEntity
  8
GUIDE
100
AcDbLine
 10
-24.0
 20
721.92
 30
0.0
 11
-24.0
 21
740.72
 31
0.0
  0
LINE
  5
6C8
330
1A
100
AcDbEntity
  8
GUIDE
100
AcDbLine
 10
-24.0
 20
748.24
 30
0.0
 11
-24.0
 21
752.0
 31
0.0
  0
LINE
  5
6C9
330
1A
100
AcDbEntity
  8
GUIDE
100
AcDbLine
 10
-18.0
 20
748.24
 30
0.0
 11
-18.0
 21
752.0
 31
0.0
  0
LINE
  5
6CA
330
1A
100
AcDbEntity
  8
GUIDE
100
AcDbLine
 10
-41.5
 20
703.08
 30
0.0
 11
-41.5
 21
699.5
 31
0.0
  0
LINE
  5
6CB
330
1A
100
AcDbEntity
  8
GUIDE
100
AcDbLine
 10
-35.5
 20
703.08
 30
0.0
 11
-35.5
 21
699.5
 31
0.0
  0
LINE
  5
6CC
330
1A
100
AcDbEntity
  8
GUIDE
100
AcDbLine
 10
-35.5
 20
729.4
 30
0.0
 11
-35.5
 21
710.6
 31
0.0
  0
LINE
  5
6CD
330
1A
100
AcDbEntity
  8
GUIDE
100
AcDbLine
 10
-41.5
 20
729.4
 30
0.0
 11
-41.5
 21
710.6
 31
0.0
  0
LINE
  5
6CE
330
1A
100
AcDbEntity
  8
GUIDE
100
AcDbLine
 10
-28.0
 20
729.4
 30
0.0
 11
-28.0
 21
736.92
 31
0.0
  0
LINE
  5
6CF
330
1A
100
AcDbEntity
  8
GUIDE
100
AcDbLine
 10
-28.0
 20
703.08
 30
0.0
 11
-28.0
 21
710.6
 31
0.0
  0
LINE
  5
6D0
330
1A
100
AcDbEntity
  8
GUIDE
100
AcDbLine
 10
-49.0
 20
703.08
 30
0.0
 11
-49.0
 21
710.6
 31
0.0
  0
LINE
  5
6D1
330
1A
100
AcDbEntity
  8
GUIDE
100
AcDbLine
 10
-49.0
 20
729.4
 30
0.0
 11
-49.0
 21
736.92
 31
0.0
  0
LINE
  5
6D2
330
1A
100
AcDbEntity
  8
GUIDE
100
AcDbLine
 10
-28.0
 20
736.92
 30
0.0
 11
-49.0
 21
736.92
 31
0.0
  0
LINE
  5
6D3
330
1A
100
AcDbEntity
  8
GUIDE
100
AcDbLine
 10
-28.0
 20
729.4
 30
0.0
 11
-49.0
 21
729.4
 31
0.0
  0
LINE
  5
6D4
330
1A
100
AcDbEntity
  8
GUIDE
100
AcDbLine
 10
-28.0
 20
703.08
 30
0.0
 11
-49.0
 21
703.08
 31
0.0
  0
LINE
  5
6D5
330
1A
100
AcDbEntity
  8
GUIDE
100
AcDbLine
 10
-28.0
 20
710.6
 30
0.0
 11
-49.0
 21
710.6
 31
0.0
  0
LINE
  5
6D6
330
1A
100
AcDbEntity
  8
GUIDE
100
AcDbLine
 10
-35.5
 20
725.64
 30
0.0
 11
-41.5
 21
725.64
 31
0.0
  0
LINE
  5
6D7
330
1A
100
AcDbEntity
  8
GUIDE
100
AcDbLine
 10
-41.5
 20
752.0
 30
0.0
 11
-41.5
 21
736.92
 31
0.0
  0
LINE
  5
6D8
330
1A
100
AcDbEntity
  8
GUIDE
100
AcDbLine
 10
-35.5
 20
752.0
 30
0.0
 11
-35.5
 21
736.92
 31
0.0
  0
LINE
  5
6D9
330
1A
100
AcDbEntity
  8
GUIDE
100
AcDbLine
 10
24.5
 20
748.24
 30
0.0
 11
24.5
 21
740.72
 31
0.0
  0
LINE
  5
6DA
330
1A
100
AcDbEntity
  8
GUIDE
100
AcDbLine
 10
3.5
 20
748.24
 30
0.0
 11
3.5
 21
740.72
 31
0.0
  0
LINE
  5
6DB
330
1A
100
AcDbEntity
  8
GUIDE
100
AcDbLine
 10
24.5
 20
748.24
 30
0.0
 11
3.5
 21
748.24
 31
0.0
  0
LINE
  5
6DC
330
1A
100
AcDbEntity
  8
GUIDE
100
AcDbLine
 10
24.5
 20
740.72
 30
0.0
 11
3.5
 21
740.72
 31
0.0
  0
LINE
  5
6DD
330
1A
100
AcDbEntity
  8
GUIDE
100
AcDbLine
 10
17.0
 20
725.68
 30
0.0
 11
11.0
 21
725.68
 31
0.0
  0
LINE
  5
6DE
330
1A
100
AcDbEntity
  8
GUIDE
100
AcDbLine
 10
24.5
 20
714.4
 30
0.0
 11
3.5
 21
714.4
 31
0.0
  0
LINE
  5
6DF
330
1A
100
AcDbEntity
  8
GUIDE
100
AcDbLine
 10
24.5
 20
721.92
 30
0.0
 11
3.5
 21
721.92
 31
0.0
  0
LINE
  5
6E0
330
1A
100
AcDbEntity
  8
GUIDE
100
AcDbLine
 10
3.5
 20
721.92
 30
0.0
 11
3.5
 21
714.4
 31
0.0
  0
LINE
  5
6E1
330
1A
100
AcDbEntity
  8
GUIDE
100
AcDbLine
 10
24.5
 20
721.92
 30
0.0
 11
24.5
 21
714.4
 31
0.0
  0
LINE
  5
6E2
330
1A
100
AcDbEntity
  8
GUIDE
100
AcDbLine
 10
11.0
 20
699.5
 30
0.0
 11
11.0
 21
714.4
 31
0.0
  0
LINE
  5
6E3
330
1A
100
AcDbEntity
  8
GUIDE
100
AcDbLine
 10
17.0
 20
699.5
 30
0.0
 11
17.0
 21
714.4
 31
0.0
  0
LINE
  5
6E4
330
1A
100
AcDbEntity
  8
GUIDE
100
AcDbLine
 10
17.0
 20
721.92
 30
0.0
 11
17.0
 21
740.72
 31
0.0
  0
LINE
  5
6E5
330
1A
100
AcDbEntity
  8
GUIDE
100
AcDbLine
 10
11.0
 20
721.92
 30
0.0
 11
11.0
 21
740.72
 31
0.0
  0
LINE
  5
6E6
330
1A
100
AcDbEntity
  8
GUIDE
100
AcDbLine
 10
11.0
 20
748.24
 30
0.0
 11
11.0
 21
752.0
 31
0.0
  0
LINE
  5
6E7
330
1A
100
AcDbEntity
  8
GUIDE
100
AcDbLine
 10
17.0
 20
748.24
 30
0.0
 11
17.0
 21
752.0
 31
0.0
  0
LINE
  5
6E8
330
1A
100
AcDbEntity
  8
GUIDE
100
AcDbLine
 10
-6.5
 20
703.08
 30
0.0
 11
-6.5
 21
699.5
 31
0.0
  0
LINE
  5
6E9
330
1A
100
AcDbEntity
  8
GUIDE
100
AcDbLine
 10
-0.5
 20
703.08
 30
0.0
 11
-0.5
 21
699.5
 31
0.0
  0
LINE
  5
6EA
330
1A
100
AcDbEntity
  8
GUIDE
100
AcDbLine
 10
-0.5
 20
729.4
 30
0.0
 11
-0.5
 21
710.6
 31
0.0
  0
LINE
  5
6EB
330
1A
100
AcDbEntity
  8
GUIDE
100
AcDbLine
 10
-6.5
 20
729.4
 30
0.0
 11
-6.5
 21
710.6
 31
0.0
  0
LINE
  5
6EC
330
1A
100
AcDbEntity
  8
GUIDE
100
AcDbLine
 10
7.0
 20
729.4
 30
0.0
 11
7.0
 21
736.92
 31
0.0
  0
LINE
  5
6ED
330
1A
100
AcDbEntity
  8
GUIDE
100
AcDbLine
 10
7.0
 20
703.08
 30
0.0
 11
7.0
 21
710.6
 31
0.0
  0
LINE
  5
6EE
330
1A
100
AcDbEntity
  8
GUIDE
100
AcDbLine
 10
-14.0
 20
703.08
 30
0.0
 11
-14.0
 21
710.6
 31
0.0
  0
LINE
  5
6EF
330
1A
100
AcDbEntity
  8
GUIDE
100
AcDbLine
 10
-14.0
 20
729.4
 30
0.0
 11
-14.0
 21
736.92
 31
0.0
  0
LINE
  5
6F0
330
1A
100
AcDbEntity
  8
GUIDE
100
AcDbLine
 10
7.0
 20
736.92
 30
0.0
 11
-14.0
 21
736.92
 31
0.0
  0
LINE
  5
6F1
330
1A
100
AcDbEntity
  8
GUIDE
100
AcDbLine
 10
7.0
 20
729.4
 30
0.0
 11
-14.0
 21
729.4
 31
0.0
  0
LINE
  5
6F2
330
1A
100
AcDbEntity
  8
GUIDE
100
AcDbLine
 10
7.0
 20
703.08
 30
0.0
 11
-14.0
 21
703.08
 31
0.0
  0
LINE
  5
6F3
330
1A
100
AcDbEntity
  8
GUIDE
100
AcDbLine
 10
7.0
 20
710.6
 30
0.0
 11
-14.0
 21
710.6
 31
0.0
  0
LINE
  5
6F4
330
1A
100
AcDbEntity
  8
GUIDE
100
AcDbLine
 10
-0.5
 20
725.64
 30
0.0
 11
-6.5
 21
725.64
 31
0.0
  0
LINE
  5
6F5
330
1A
100
AcDbEntity
  8
GUIDE
100
AcDbLine
 10
-6.5
 20
752.0
 30
0.0
 11
-6.5
 21
736.92
 31
0.0
  0
LINE
  5
6F6
330
1A
100
AcDbEntity
  8
GUIDE
100
AcDbLine
 10
-0.5
 20
752.0
 30
0.0
 11
-0.5
 21
736.92
 31
0.0
  0
LINE
  5
6F7
330
1A
100
AcDbEntity
  8
GUIDE
100
AcDbLine
 10
59.5
 20
748.24
 30
0.0
 11
59.5
 21
740.72
 31
0.0
  0
LINE
  5
6F8
330
1A
100
AcDbEntity
  8
GUIDE
100
AcDbLine
 10
38.5
 20
748.24
 30
0.0
 11
38.5
 21
740.72
 31
0.0
  0
LINE
  5
6F9
330
1A
100
AcDbEntity
  8
GUIDE
100
AcDbLine
 10
59.5
 20
748.24
 30
0.0
 11
38.5
 21
748.24
 31
0.0
  0
LINE
  5
6FA
330
1A
100
AcDbEntity
  8
GUIDE
100
AcDbLine
 10
59.5
 20
740.72
 30
0.0
 11
38.5
 21
740.72
 31
0.0
  0
LINE
  5
6FB
330
1A
100
AcDbEntity
  8
GUIDE
100
AcDbLine
 10
52.0
 20
725.68
 30
0.0
 11
46.0
 21
725.68
 31
0.0
  0
LINE
  5
6FC
330
1A
100
AcDbEntity
  8
GUIDE
100
AcDbLine
 10
59.5
 20
714.4
 30
0.0
 11
38.5
 21
714.4
 31
0.0
  0
LINE
  5
6FD
330
1A
100
AcDbEntity
  8
GUIDE
100
AcDbLine
 10
59.5
 20
721.92
 30
0.0
 11
38.5
 21
721.92
 31
0.0
  0
LINE
  5
6FE
330
1A
100
AcDbEntity
  8
GUIDE
100
AcDbLine
 10
38.5
 20
721.92
 30
0.0
 11
38.5
 21
714.4
 31
0.0
  0
LINE
  5
6FF
330
1A
100
AcDbEntity
  8
GUIDE
100
AcDbLine
 10
59.5
 20
721.92
 30
0.0
 11
59.5
 21
714.4
 31
0.0
  0
LINE
  5
700
330
1A
100
AcDbEntity
  8
GUIDE
100
AcDbLine
 10
46.0
 20
699.5
 30
0.0
 11
46.0
 21
714.4
 31
0.0
  0
LINE
  5
701
330
1A
100
AcDbEntity
  8
GUIDE
100
AcDbLine
 10
52.0
 20
699.5
 30
0.0
 11
52.0
 21
714.4
 31
0.0
  0
LINE
  5
702
330
1A
100
AcDbEntity
  8
GUIDE
100
AcDbLine
 10
52.0
 20
721.92
 30
0.0
 11
52.0
 21
740.72
 31
0.0
  0
LINE
  5
703
330
1A
100
AcDbEntity
  8
GUIDE
100
AcDbLine
 10
46.0
 20
721.92
 30
0.0
 11
46.0
 21
740.72
 31
0.0
  0
LINE
  5
704
330
1A
100
AcDbEntity
  8
GUIDE
100
AcDbLine
 10
46.0
 20
748.24
 30
0.0
 11
46.0
 21
752.0
 31
0.0
  0
LINE
  5
705
330
1A
100
AcDbEntity
  8
GUIDE
100
AcDbLine
 10
52.0
 20
748.24
 30
0.0
 11
52.0
 21
752.0
 31
0.0
  0
LINE
  5
706
330
1A
100
AcDbEntity
  8
GUIDE
100
AcDbLine
 10
28.5
 20
703.08
 30
0.0
 11
28.5
 21
699.5
 31
0.0
  0
LINE
  5
707
330
1A
100
AcDbEntity
  8
GUIDE
100
AcDbLine
 10
34.5
 20
703.08
 30
0.0
 11
34.5
 21
699.5
 31
0.0
  0
LINE
  5
708
330
1A
100
AcDbEntity
  8
GUIDE
100
AcDbLine
 10
34.5
 20
729.4
 30
0.0
 11
34.5
 21
710.6
 31
0.0
  0
LINE
  5
709
330
1A
100
AcDbEntity
  8
GUIDE
100
AcDbLine
 10
28.5
 20
729.4
 30
0.0
 11
28.5
 21
710.6
 31
0.0
  0
LINE
  5
70A
330
1A
100
AcDbEntity
  8
GUIDE
100
AcDbLine
 10
42.0
 20
729.4
 30
0.0
 11
42.0
 21
736.92
 31
0.0
  0
LINE
  5
70B
330
1A
100
AcDbEntity
  8
GUIDE
100
AcDbLine
 10
42.0
 20
703.08
 30
0.0
 11
42.0
 21
710.6
 31
0.0
  0
LINE
  5
70C
330
1A
100
AcDbEntity
  8
GUIDE
100
AcDbLine
 10
21.0
 20
703.08
 30
0.0
 11
21.0
 21
710.6
 31
0.0
  0
LINE
  5
70D
330
1A
100
AcDbEntity
  8
GUIDE
100
AcDbLine
 10
21.0
 20
729.4
 30
0.0
 11
21.0
 21
736.92
 31
0.0
  0
LINE
  5
70E
330
1A
100
AcDbEntity
  8
GUIDE
100
AcDbLine
 10
42.0
 20
736.92
 30
0.0
 11
21.0
 21
736.92
 31
0.0
  0
LINE
  5
70F
330
1A
100
AcDbEntity
  8
GUIDE
100
AcDbLine
 10
42.0
 20
729.4
 30
0.0
 11
21.0
 21
729.4
 31
0.0
  0
LINE
  5
710
330
1A
100
AcDbEntity
  8
GUIDE
100
AcDbLine
 10
42.0
 20
703.08
 30
0.0
 11
21.0
 21
703.08
 31
0.0
  0
LINE
  5
711
330
1A
100
AcDbEntity
  8
GUIDE
100
AcDbLine
 10
42.0
 20
710.6
 30
0.0
 11
21.0
 21
710.6
 31
0.0
  0
LINE
  5
712
330
1A
100
AcDbEntity
  8
GUIDE
100
AcDbLine
 10
34.5
 20
725.64
 30
0.0
 11
28.5
 21
725.64
 31
0.0
  0
LINE
  5
713
330
1A
100
AcDbEntity
  8
GUIDE
100
AcDbLine
 10
28.5
 20
752.0
 30
0.0
 11
28.5
 21
736.92
 31
0.0
  0
LINE
  5
714
330
1A
100
AcDbEntity
  8
GUIDE
100
AcDbLine
 10
34.5
 20
752.0
 30
0.0
 11
34.5
 21
736.92
 31
0.0
  0
LINE
  5
715
330
1A
100
AcDbEntity
  8
GUIDE
100
AcDbLine
 10
94.5
 20
748.24
 30
0.0
 11
94.5
 21
740.72
 31
0.0
  0
LINE
  5
716
330
1A
100
AcDbEntity
  8
GUIDE
100
AcDbLine
 10
73.5
 20
748.24
 30
0.0
 11
73.5
 21
740.72
 31
0.0
  0
LINE
  5
717
330
1A
100
AcDbEntity
  8
GUIDE
100
AcDbLine
 10
94.5
 20
748.24
 30
0.0
 11
73.5
 21
748.24
 31
0.0
  0
LINE
  5
718
330
1A
100
AcDbEntity
  8
GUIDE
100
AcDbLine
 10
94.5
 20
740.72
 30
0.0
 11
73.5
 21
740.72
 31
0.0
  0
LINE
  5
719
330
1A
100
AcDbEntity
  8
GUIDE
100
AcDbLine
 10
87.0
 20
725.68
 30
0.0
 11
81.0
 21
725.68
 31
0.0
  0
LINE
  5
71A
330
1A
100
AcDbEntity
  8
GUIDE
100
AcDbLine
 10
94.5
 20
714.4
 30
0.0
 11
73.5
 21
714.4
 31
0.0
  0
LINE
  5
71B
330
1A
100
AcDbEntity
  8
GUIDE
100
AcDbLine
 10
94.5
 20
721.92
 30
0.0
 11
73.5
 21
721.92
 31
0.0
  0
LINE
  5
71C
330
1A
100
AcDbEntity
  8
GUIDE
100
AcDbLine
 10
73.5
 20
721.92
 30
0.0
 11
73.5
 21
714.4
 31
0.0
  0
LINE
  5
71D
330
1A
100
AcDbEntity
  8
GUIDE
100
AcDbLine
 10
94.5
 20
721.92
 30
0.0
 11
94.5
 21
714.4
 31
0.0
  0
LINE
  5
71E
330
1A
100
AcDbEntity
  8
GUIDE
100
AcDbLine
 10
81.0
 20
699.5
 30
0.0
 11
81.0
 21
714.4
 31
0.0
  0
LINE
  5
71F
330
1A
100
AcDbEntity
  8
GUIDE
100
AcDbLine
 10
87.0
 20
699.5
 30
0.0
 11
87.0
 21
714.4
 31
0.0
  0
LINE
  5
720
330
1A
100
AcDbEntity
  8
GUIDE
100
AcDbLine
 10
87.0
 20
721.92
 30
0.0
 11
87.0
 21
740.72
 31
0.0
  0
LINE
  5
721
330
1A
100
AcDbEntity
  8
GUIDE
100
AcDbLine
 10
81.0
 20
721.92
 30
0.0
 11
81.0
 21
740.72
 31
0.0
  0
LINE
  5
722
330
1A
100
AcDbEntity
  8
GUIDE
100
AcDbLine
 10
81.0
 20
748.24
 30
0.0
 11
81.0
 21
752.0
 31
0.0
  0
LINE
  5
723
330
1A
100
AcDbEntity
  8
GUIDE
100
AcDbLine
 10
87.0
 20
748.24
 30
0.0
 11
87.0
 21
752.0
 31
0.0
  0
LINE
  5
724
330
1A
100
AcDbEntity
  8
GUIDE
100
AcDbLine
 10
63.5
 20
703.08
 30
0.0
 11
63.5
 21
699.5
 31
0.0
  0
LINE
  5
725
330
1A
100
AcDbEntity
  8
GUIDE
100
AcDbLine
 10
69.5
 20
703.08
 30
0.0
 11
69.5
 21
699.5
 31
0.0
  0
LINE
  5
726
330
1A
100
AcDbEntity
  8
GUIDE
100
AcDbLine
 10
69.5
 20
729.4
 30
0.0
 11
69.5
 21
710.6
 31
0.0
  0
LINE
  5
727
330
1A
100
AcDbEntity
  8
GUIDE
100
AcDbLine
 10
63.5
 20
729.4
 30
0.0
 11
63.5
 21
710.6
 31
0.0
  0
LINE
  5
728
330
1A
100
AcDbEntity
  8
GUIDE
100
AcDbLine
 10
77.0
 20
729.4
 30
0.0
 11
77.0
 21
736.92
 31
0.0
  0
LINE
  5
729
330
1A
100
AcDbEntity
  8
GUIDE
100
AcDbLine
 10
77.0
 20
703.08
 30
0.0
 11
77.0
 21
710.6
 31
0.0
  0
LINE
  5
72A
330
1A
100
AcDbEntity
  8
GUIDE
100
AcDbLine
 10
56.0
 20
703.08
 30
0.0
 11
56.0
 21
710.6
 31
0.0
  0
LINE
  5
72B
330
1A
100
AcDbEntity
  8
GUIDE
100
AcDbLine
 10
56.0
 20
729.4
 30
0.0
 11
56.0
 21
736.92
 31
0.0
  0
LINE
  5
72C
330
1A
100
AcDbEntity
  8
GUIDE
100
AcDbLine
 10
77.0
 20
736.92
 30
0.0
 11
56.0
 21
736.92
 31
0.0
  0
LINE
  5
72D
330
1A
100
AcDbEntity
  8
GUIDE
100
AcDbLine
 10
77.0
 20
729.4
 30
0.0
 11
56.0
 21
729.4
 31
0.0
  0
LINE
  5
72E
330
1A
100
AcDbEntity
  8
GUIDE
100
AcDbLine
 10
77.0
 20
703.08
 30
0.0
 11
56.0
 21
703.08
 31
0.0
  0
LINE
  5
72F
330
1A
100
AcDbEntity
  8
GUIDE
100
AcDbLine
 10
77.0
 20
710.6
 30
0.0
 11
56.0
 21
710.6
 31
0.0
  0
LINE
  5
730
330
1A
100
AcDbEntity
  8
GUIDE
100
AcDbLine
 10
69.5
 20
725.64
 30
0.0
 11
63.5
 21
725.64
 31
0.0
  0
LINE
  5
731
330
1A
100
AcDbEntity
  8
GUIDE
100
AcDbLine
 10
63.5
 20
752.0
 30
0.0
 11
63.5
 21
736.92
 31
0.0
  0
LINE
  5
732
330
1A
100
AcDbEntity
  8
GUIDE
100
AcDbLine
 10
69.5
 20
752.0
 30
0.0
 11
69.5
 21
736.92
 31
0.0
  0
LINE
  5
733
330
1A
100
AcDbEntity
  8
GUIDE
100
AcDbLine
 10
129.5
 20
748.24
 30
0.0
 11
129.5
 21
740.72
 31
0.0
  0
LINE
  5
734
330
1A
100
AcDbEntity
  8
GUIDE
100
AcDbLine
 10
108.5
 20
748.24
 30
0.0
 11
108.5
 21
740.72
 31
0.0
  0
LINE
  5
735
330
1A
100
AcDbEntity
  8
GUIDE
100
AcDbLine
 10
129.5
 20
748.24
 30
0.0
 11
108.5
 21
748.24
 31
0.0
  0
LINE
  5
736
330
1A
100
AcDbEntity
  8
GUIDE
100
AcDbLine
 10
129.5
 20
740.72
 30
0.0
 11
108.5
 21
740.72
 31
0.0
  0
LINE
  5
737
330
1A
100
AcDbEntity
  8
GUIDE
100
AcDbLine
 10
122.0
 20
725.68
 30
0.0
 11
116.0
 21
725.68
 31
0.0
  0
LINE
  5
738
330
1A
100
AcDbEntity
  8
GUIDE
100
AcDbLine
 10
129.5
 20
714.4
 30
0.0
 11
108.5
 21
714.4
 31
0.0
  0
LINE
  5
739
330
1A
100
AcDbEntity
  8
GUIDE
100
AcDbLine
 10
129.5
 20
721.92
 30
0.0
 11
108.5
 21
721.92
 31
0.0
  0
LINE
  5
73A
330
1A
100
AcDbEntity
  8
GUIDE
100
AcDbLine
 10
108.5
 20
721.92
 30
0.0
 11
108.5
 21
714.4
 31
0.0
  0
LINE
  5
73B
330
1A
100
AcDbEntity
  8
GUIDE
100
AcDbLine
 10
129.5
 20
721.92
 30
0.0
 11
129.5
 21
714.4
 31
0.0
  0
LINE
  5
73C
330
1A
100
AcDbEntity
  8
GUIDE
100
AcDbLine
 10
116.0
 20
699.5
 30
0.0
 11
116.0
 21
714.4
 31
0.0
  0
LINE
  5
73D
330
1A
100
AcDbEntity
  8
GUIDE
100
AcDbLine
 10
122.0
 20
699.5
 30
0.0
 11
122.0
 21
714.4
 31
0.0
  0
LINE
  5
73E
330
1A
100
AcDbEntity
  8
GUIDE
100
AcDbLine
 10
122.0
 20
721.92
 30
0.0
 11
122.0
 21
740.72
 31
0.0
  0
LINE
  5
73F
330
1A
100
AcDbEntity
  8
GUIDE
100
AcDbLine
 10
116.0
 20
721.92
 30
0.0
 11
116.0
 21
740.72
 31
0.0
  0
LINE
  5
740
330
1A
100
AcDbEntity
  8
GUIDE
100
AcDbLine
 10
116.0
 20
748.24
 30
0.0
 11
116.0
 21
752.0
 31
0.0
  0
LINE
  5
741
330
1A
100
AcDbEntity
  8
GUIDE
100
AcDbLine
 10
122.0
 20
748.24
 30
0.0
 11
122.0
 21
752.0
 31
0.0
  0
LINE
  5
742
330
1A
100
AcDbEntity
  8
GUIDE
100
AcDbLine
 10
98.5
 20
703.08
 30
0.0
 11
98.5
 21
699.5
 31
0.0
  0
LINE
  5
743
330
1A
100
AcDbEntity
  8
GUIDE
100
AcDbLine
 10
104.5
 20
703.08
 30
0.0
 11
104.5
 21
699.5
 31
0.0
  0
LINE
  5
744
330
1A
100
AcDbEntity
  8
GUIDE
100
AcDbLine
 10
104.5
 20
729.4
 30
0.0
 11
104.5
 21
710.6
 31
0.0
  0
LINE
  5
745
330
1A
100
AcDbEntity
  8
GUIDE
100
AcDbLine
 10
98.5
 20
729.4
 30
0.0
 11
98.5
 21
710.6
 31
0.0
  0
LINE
  5
746
330
1A
100
AcDbEntity
  8
GUIDE
100
AcDbLine
 10
112.0
 20
729.4
 30
0.0
 11
112.0
 21
736.92
 31
0.0
  0
LINE
  5
747
330
1A
100
AcDbEntity
  8
GUIDE
100
AcDbLine
 10
112.0
 20
703.08
 30
0.0
 11
112.0
 21
710.6
 31
0.0
  0
LINE
  5
748
330
1A
100
AcDbEntity
  8
GUIDE
100
AcDbLine
 10
91.0
 20
703.08
 30
0.0
 11
91.0
 21
710.6
 31
0.0
  0
LINE
  5
749
330
1A
100
AcDbEntity
  8
GUIDE
100
AcDbLine
 10
91.0
 20
729.4
 30
0.0
 11
91.0
 21
736.92
 31
0.0
  0
LINE
  5
74A
330
1A
100
AcDbEntity
  8
GUIDE
100
AcDbLine
 10
112.0
 20
736.92
 30
0.0
 11
91.0
 21
736.92
 31
0.0
  0
LINE
  5
74B
330
1A
100
AcDbEntity
  8
GUIDE
100
AcDbLine
 10
112.0
 20
729.4
 30
0.0
 11
91.0
 21
729.4
 31
0.0
  0
LINE
  5
74C
330
1A
100
AcDbEntity
  8
GUIDE
100
AcDbLine
 10
112.0
 20
703.08
 30
0.0
 11
91.0
 21
703.08
 31
0.0
  0
LINE
  5
74D
330
1A
100
AcDbEntity
  8
GUIDE
100
AcDbLine
 10
112.0
 20
710.6
 30
0.0
 11
91.0
 21
710.6
 31
0.0
  0
LINE
  5
74E
330
1A
100
AcDbEntity
  8
GUIDE
100
AcDbLine
 10
104.5
 20
725.64
 30
0.0
 11
98.5
 21
725.64
 31
0.0
  0
LINE
  5
74F
330
1A
100
AcDbEntity
  8
GUIDE
100
AcDbLine
 10
98.5
 20
752.0
 30
0.0
 11
98.5
 21
736.92
 31
0.0
  0
LINE
  5
750
330
1A
100
AcDbEntity
  8
GUIDE
100
AcDbLine
 10
104.5
 20
752.0
 30
0.0
 11
104.5
 21
736.92
 31
0.0
  0
LINE
  5
751
330
1A
100
AcDbEntity
  8
GUIDE
100
AcDbLine
 10
164.5
 20
748.24
 30
0.0
 11
164.5
 21
740.72
 31
0.0
  0
LINE
  5
752
330
1A
100
AcDbEntity
  8
GUIDE
100
AcDbLine
 10
143.5
 20
748.24
 30
0.0
 11
143.5
 21
740.72
 31
0.0
  0
LINE
  5
753
330
1A
100
AcDbEntity
  8
GUIDE
100
AcDbLine
 10
164.5
 20
748.24
 30
0.0
 11
143.5
 21
748.24
 31
0.0
  0
LINE
  5
754
330
1A
100
AcDbEntity
  8
GUIDE
100
AcDbLine
 10
164.5
 20
740.72
 30
0.0
 11
143.5
 21
740.72
 31
0.0
  0
LINE
  5
755
330
1A
100
AcDbEntity
  8
GUIDE
100
AcDbLine
 10
157.0
 20
725.68
 30
0.0
 11
151.0
 21
725.68
 31
0.0
  0
LINE
  5
756
330
1A
100
AcDbEntity
  8
GUIDE
100
AcDbLine
 10
164.5
 20
714.4
 30
0.0
 11
143.5
 21
714.4
 31
0.0
  0
LINE
  5
757
330
1A
100
AcDbEntity
  8
GUIDE
100
AcDbLine
 10
164.5
 20
721.92
 30
0.0
 11
143.5
 21
721.92
 31
0.0
  0
LINE
  5
758
330
1A
100
AcDbEntity
  8
GUIDE
100
AcDbLine
 10
143.5
 20
721.92
 30
0.0
 11
143.5
 21
714.4
 31
0.0
  0
LINE
  5
759
330
1A
100
AcDbEntity
  8
GUIDE
100
AcDbLine
 10
164.5
 20
721.92
 30
0.0
 11
164.5
 21
714.4
 31
0.0
  0
LINE
  5
75A
330
1A
100
AcDbEntity
  8
GUIDE
100
AcDbLine
 10
151.0
 20
699.5
 30
0.0
 11
151.0
 21
714.4
 31
0.0
  0
LINE
  5
75B
330
1A
100
AcDbEntity
  8
GUIDE
100
AcDbLine
 10
157.0
 20
699.5
 30
0.0
 11
157.0
 21
714.4
 31
0.0
  0
LINE
  5
75C
330
1A
100
AcDbEntity
  8
GUIDE
100
AcDbLine
 10
157.0
 20
721.92
 30
0.0
 11
157.0
 21
740.72
 31
0.0
  0
LINE
  5
75D
330
1A
100
AcDbEntity
  8
GUIDE
100
AcDbLine
 10
151.0
 20
721.92
 30
0.0
 11
151.0
 21
740.72
 31
0.0
  0
LINE
  5
75E
330
1A
100
AcDbEntity
  8
GUIDE
100
AcDbLine
 10
151.0
 20
748.24
 30
0.0
 11
151.0
 21
752.0
 31
0.0
  0
LINE
  5
75F
330
1A
100
AcDbEntity
  8
GUIDE
100
AcDbLine
 10
157.0
 20
748.24
 30
0.0
 11
157.0
 21
752.0
 31
0.0
  0
LINE
  5
760
330
1A
100
AcDbEntity
  8
GUIDE
100
AcDbLine
 10
133.5
 20
703.08
 30
0.0
 11
133.5
 21
699.5
 31
0.0
  0
LINE
  5
761
330
1A
100
AcDbEntity
  8
GUIDE
100
AcDbLine
 10
139.5
 20
703.08
 30
0.0
 11
139.5
 21
699.5
 31
0.0
  0
LINE
  5
762
330
1A
100
AcDbEntity
  8
GUIDE
100
AcDbLine
 10
139.5
 20
729.4
 30
0.0
 11
139.5
 21
710.6
 31
0.0
  0
LINE
  5
763
330
1A
100
AcDbEntity
  8
GUIDE
100
AcDbLine
 10
133.5
 20
729.4
 30
0.0
 11
133.5
 21
710.6
 31
0.0
  0
LINE
  5
764
330
1A
100
AcDbEntity
  8
GUIDE
100
AcDbLine
 10
147.0
 20
729.4
 30
0.0
 11
147.0
 21
736.92
 31
0.0
  0
LINE
  5
765
330
1A
100
AcDbEntity
  8
GUIDE
100
AcDbLine
 10
147.0
 20
703.08
 30
0.0
 11
147.0
 21
710.6
 31
0.0
  0
LINE
  5
766
330
1A
100
AcDbEntity
  8
GUIDE
100
AcDbLine
 10
126.0
 20
703.08
 30
0.0
 11
126.0
 21
710.6
 31
0.0
  0
LINE
  5
767
330
1A
100
AcDbEntity
  8
GUIDE
100
AcDbLine
 10
126.0
 20
729.4
 30
0.0
 11
126.0
 21
736.92
 31
0.0
  0
LINE
  5
768
330
1A
100
AcDbEntity
  8
GUIDE
100
AcDbLine
 10
147.0
 20
736.92
 30
0.0
 11
126.0
 21
736.92
 31
0.0
  0
LINE
  5
769
330
1A
100
AcDbEntity
  8
GUIDE
100
AcDbLine
 10
147.0
 20
729.4
 30
0.0
 11
126.0
 21
729.4
 31
0.0
  0
LINE
  5
76A
330
1A
100
AcDbEntity
  8
GUIDE
100
AcDbLine
 10
147.0
 20
703.08
 30
0.0
 11
126.0
 21
703.08
 31
0.0
  0
LINE
  5
76B
330
1A
100
AcDbEntity
  8
GUIDE
100
AcDbLine
 10
147.0
 20
710.6
 30
0.0
 11
126.0
 21
710.6
 31
0.0
  0
LINE
  5
76C
330
1A
100
AcDbEntity
  8
GUIDE
100
AcDbLine
 10
139.5
 20
725.64
 30
0.0
 11
133.5
 21
725.64
 31
0.0
  0
LINE
  5
76D
330
1A
100
AcDbEntity
  8
GUIDE
100
AcDbLine
 10
133.5
 20
752.0
 30
0.0
 11
133.5
 21
736.92
 31
0.0
  0
LINE
  5
76E
330
1A
100
AcDbEntity
  8
GUIDE
100
AcDbLine
 10
139.5
 20
752.0
 30
0.0
 11
139.5
 21
736.92
 31
0.0
  0
LINE
  5
76F
330
1A
100
AcDbEntity
  8
GUIDE
100
AcDbLine
 10
199.5
 20
748.24
 30
0.0
 11
199.5
 21
740.72
 31
0.0
  0
LINE
  5
770
330
1A
100
AcDbEntity
  8
GUIDE
100
AcDbLine
 10
178.5
 20
748.24
 30
0.0
 11
178.5
 21
740.72
 31
0.0
  0
LINE
  5
771
330
1A
100
AcDbEntity
  8
GUIDE
100
AcDbLine
 10
199.5
 20
748.24
 30
0.0
 11
178.5
 21
748.24
 31
0.0
  0
LINE
  5
772
330
1A
100
AcDbEntity
  8
GUIDE
100
AcDbLine
 10
199.5
 20
740.72
 30
0.0
 11
178.5
 21
740.72
 31
0.0
  0
LINE
  5
773
330
1A
100
AcDbEntity
  8
GUIDE
100
AcDbLine
 10
192.0
 20
725.68
 30
0.0
 11
186.0
 21
725.68
 31
0.0
  0
LINE
  5
774
330
1A
100
AcDbEntity
  8
GUIDE
100
AcDbLine
 10
199.5
 20
714.4
 30
0.0
 11
178.5
 21
714.4
 31
0.0
  0
LINE
  5
775
330
1A
100
AcDbEntity
  8
GUIDE
100
AcDbLine
 10
199.5
 20
721.92
 30
0.0
 11
178.5
 21
721.92
 31
0.0
  0
LINE
  5
776
330
1A
100
AcDbEntity
  8
GUIDE
100
AcDbLine
 10
178.5
 20
721.92
 30
0.0
 11
178.5
 21
714.4
 31
0.0
  0
LINE
  5
777
330
1A
100
AcDbEntity
  8
GUIDE
100
AcDbLine
 10
199.5
 20
721.92
 30
0.0
 11
199.5
 21
714.4
 31
0.0
  0
LINE
  5
778
330
1A
100
AcDbEntity
  8
GUIDE
100
AcDbLine
 10
186.0
 20
699.5
 30
0.0
 11
186.0
 21
714.4
 31
0.0
  0
LINE
  5
779
330
1A
100
AcDbEntity
  8
GUIDE
100
AcDbLine
 10
192.0
 20
699.5
 30
0.0
 11
192.0
 21
714.4
 31
0.0
  0
LINE
  5
77A
330
1A
100
AcDbEntity
  8
GUIDE
100
AcDbLine
 10
192.0
 20
721.92
 30
0.0
 11
192.0
 21
740.72
 31
0.0
  0
LINE
  5
77B
330
1A
100
AcDbEntity
  8
GUIDE
100
AcDbLine
 10
186.0
 20
721.92
 30
0.0
 11
186.0
 21
740.72
 31
0.0
  0
LINE
  5
77C
330
1A
100
AcDbEntity
  8
GUIDE
100
AcDbLine
 10
186.0
 20
748.24
 30
0.0
 11
186.0
 21
752.0
 31
0.0
  0
LINE
  5
77D
330
1A
100
AcDbEntity
  8
GUIDE
100
AcDbLine
 10
192.0
 20
748.24
 30
0.0
 11
192.0
 21
752.0
 31
0.0
  0
LINE
  5
77E
330
1A
100
AcDbEntity
  8
GUIDE
100
AcDbLine
 10
168.5
 20
703.08
 30
0.0
 11
168.5
 21
699.5
 31
0.0
  0
LINE
  5
77F
330
1A
100
AcDbEntity
  8
GUIDE
100
AcDbLine
 10
174.5
 20
703.08
 30
0.0
 11
174.5
 21
699.5
 31
0.0
  0
LINE
  5
780
330
1A
100
AcDbEntity
  8
GUIDE
100
AcDbLine
 10
174.5
 20
729.4
 30
0.0
 11
174.5
 21
710.6
 31
0.0
  0
LINE
  5
781
330
1A
100
AcDbEntity
  8
GUIDE
100
AcDbLine
 10
168.5
 20
729.4
 30
0.0
 11
168.5
 21
710.6
 31
0.0
  0
LINE
  5
782
330
1A
100
AcDbEntity
  8
GUIDE
100
AcDbLine
 10
182.0
 20
729.4
 30
0.0
 11
182.0
 21
736.92
 31
0.0
  0
LINE
  5
783
330
1A
100
AcDbEntity
  8
GUIDE
100
AcDbLine
 10
182.0
 20
703.08
 30
0.0
 11
182.0
 21
710.6
 31
0.0
  0
LINE
  5
784
330
1A
100
AcDbEntity
  8
GUIDE
100
AcDbLine
 10
161.0
 20
703.08
 30
0.0
 11
161.0
 21
710.6
 31
0.0
  0
LINE
  5
785
330
1A
100
AcDbEntity
  8
GUIDE
100
AcDbLine
 10
161.0
 20
729.4
 30
0.0
 11
161.0
 21
736.92
 31
0.0
  0
LINE
  5
786
330
1A
100
AcDbEntity
  8
GUIDE
100
AcDbLine
 10
182.0
 20
736.92
 30
0.0
 11
161.0
 21
736.92
 31
0.0
  0
LINE
  5
787
330
1A
100
AcDbEntity
  8
GUIDE
100
AcDbLine
 10
182.0
 20
729.4
 30
0.0
 11
161.0
 21
729.4
 31
0.0
  0
LINE
  5
788
330
1A
100
AcDbEntity
  8
GUIDE
100
AcDbLine
 10
182.0
 20
703.08
 30
0.0
 11
161.0
 21
703.08
 31
0.0
  0
LINE
  5
789
330
1A
100
AcDbEntity
  8
GUIDE
100
AcDbLine
 10
182.0
 20
710.6
 30
0.0
 11
161.0
 21
710.6
 31
0.0
  0
LINE
  5
78A
330
1A
100
AcDbEntity
  8
GUIDE
100
AcDbLine
 10
174.5
 20
725.64
 30
0.0
 11
168.5
 21
725.64
 31
0.0
  0
LINE
  5
78B
330
1A
100
AcDbEntity
  8
GUIDE
100
AcDbLine
 10
168.5
 20
752.0
 30
0.0
 11
168.5
 21
736.92
 31
0.0
  0
LINE
  5
78C
330
1A
100
AcDbEntity
  8
GUIDE
100
AcDbLine
 10
174.5
 20
752.0
 30
0.0
 11
174.5
 21
736.92
 31
0.0
  0
LINE
  5
78D
330
1A
100
AcDbEntity
  8
GUIDE
100
AcDbLine
 10
234.5
 20
748.24
 30
0.0
 11
234.5
 21
740.72
 31
0.0
  0
LINE
  5
78E
330
1A
100
AcDbEntity
  8
GUIDE
100
AcDbLine
 10
213.5
 20
748.24
 30
0.0
 11
213.5
 21
740.72
 31
0.0
  0
LINE
  5
78F
330
1A
100
AcDbEntity
  8
GUIDE
100
AcDbLine
 10
234.5
 20
748.24
 30
0.0
 11
213.5
 21
748.24
 31
0.0
  0
LINE
  5
790
330
1A
100
AcDbEntity
  8
GUIDE
100
AcDbLine
 10
234.5
 20
740.72
 30
0.0
 11
213.5
 21
740.72
 31
0.0
  0
LINE
  5
791
330
1A
100
AcDbEntity
  8
GUIDE
100
AcDbLine
 10
227.0
 20
725.68
 30
0.0
 11
221.0
 21
725.68
 31
0.0
  0
LINE
  5
792
330
1A
100
AcDbEntity
  8
GUIDE
100
AcDbLine
 10
234.5
 20
714.4
 30
0.0
 11
213.5
 21
714.4
 31
0.0
  0
LINE
  5
793
330
1A
100
AcDbEntity
  8
GUIDE
100
AcDbLine
 10
234.5
 20
721.92
 30
0.0
 11
213.5
 21
721.92
 31
0.0
  0
LINE
  5
794
330
1A
100
AcDbEntity
  8
GUIDE
100
AcDbLine
 10
213.5
 20
721.92
 30
0.0
 11
213.5
 21
714.4
 31
0.0
  0
LINE
  5
795
330
1A
100
AcDbEntity
  8
GUIDE
100
AcDbLine
 10
234.5
 20
721.92
 30
0.0
 11
234.5
 21
714.4
 31
0.0
  0
LINE
  5
796
330
1A
100
AcDbEntity
  8
GUIDE
100
AcDbLine
 10
221.0
 20
699.5
 30
0.0
 11
221.0
 21
714.4
 31
0.0
  0
LINE
  5
797
330
1A
100
AcDbEntity
  8
GUIDE
100
AcDbLine
 10
227.0
 20
699.5
 30
0.0
 11
227.0
 21
714.4
 31
0.0
  0
LINE
  5
798
330
1A
100
AcDbEntity
  8
GUIDE
100
AcDbLine
 10
227.0
 20
721.92
 30
0.0
 11
227.0
 21
740.72
 31
0.0
  0
LINE
  5
799
330
1A
100
AcDbEntity
  8
GUIDE
100
AcDbLine
 10
221.0
 20
721.92
 30
0.0
 11
221.0
 21
740.72
 31
0.0
  0
LINE
  5
79A
330
1A
100
AcDbEntity
  8
GUIDE
100
AcDbLine
 10
221.0
 20
748.24
 30
0.0
 11
221.0
 21
752.0
 31
0.0
  0
LINE
  5
79B
330
1A
100
AcDbEntity
  8
GUIDE
100
AcDbLine
 10
227.0
 20
748.24
 30
0.0
 11
227.0
 21
752.0
 31
0.0
  0
LINE
  5
79C
330
1A
100
AcDbEntity
  8
GUIDE
100
AcDbLine
 10
203.5
 20
703.08
 30
0.0
 11
203.5
 21
699.5
 31
0.0
  0
LINE
  5
79D
330
1A
100
AcDbEntity
  8
GUIDE
100
AcDbLine
 10
209.5
 20
703.08
 30
0.0
 11
209.5
 21
699.5
 31
0.0
  0
LINE
  5
79E
330
1A
100
AcDbEntity
  8
GUIDE
100
AcDbLine
 10
209.5
 20
729.4
 30
0.0
 11
209.5
 21
710.6
 31
0.0
  0
LINE
  5
79F
330
1A
100
AcDbEntity
  8
GUIDE
100
AcDbLine
 10
203.5
 20
729.4
 30
0.0
 11
203.5
 21
710.6
 31
0.0
  0
LINE
  5
7A0
330
1A
100
AcDbEntity
  8
GUIDE
100
AcDbLine
 10
217.0
 20
729.4
 30
0.0
 11
217.0
 21
736.92
 31
0.0
  0
LINE
  5
7A1
330
1A
100
AcDbEntity
  8
GUIDE
100
AcDbLine
 10
217.0
 20
703.08
 30
0.0
 11
217.0
 21
710.6
 31
0.0
  0
LINE
  5
7A2
330
1A
100
AcDbEntity
  8
GUIDE
100
AcDbLine
 10
196.0
 20
703.08
 30
0.0
 11
196.0
 21
710.6
 31
0.0
  0
LINE
  5
7A3
330
1A
100
AcDbEntity
  8
GUIDE
100
AcDbLine
 10
196.0
 20
729.4
 30
0.0
 11
196.0
 21
736.92
 31
0.0
  0
LINE
  5
7A4
330
1A
100
AcDbEntity
  8
GUIDE
100
AcDbLine
 10
217.0
 20
736.92
 30
0.0
 11
196.0
 21
736.92
 31
0.0
  0
LINE
  5
7A5
330
1A
100
AcDbEntity
  8
GUIDE
100
AcDbLine
 10
217.0
 20
729.4
 30
0.0
 11
196.0
 21
729.4
 31
0.0
  0
LINE
  5
7A6
330
1A
100
AcDbEntity
  8
GUIDE
100
AcDbLine
 10
217.0
 20
703.08
 30
0.0
 11
196.0
 21
703.08
 31
0.0
  0
LINE
  5
7A7
330
1A
100
AcDbEntity
  8
GUIDE
100
AcDbLine
 10
217.0
 20
710.6
 30
0.0
 11
196.0
 21
710.6
 31
0.0
  0
LINE
  5
7A8
330
1A
100
AcDbEntity
  8
GUIDE
100
AcDbLine
 10
209.5
 20
725.64
 30
0.0
 11
203.5
 21
725.64
 31
0.0
  0
LINE
  5
7A9
330
1A
100
AcDbEntity
  8
GUIDE
100
AcDbLine
 10
203.5
 20
752.0
 30
0.0
 11
203.5
 21
736.92
 31
0.0
  0
LINE
  5
7AA
330
1A
100
AcDbEntity
  8
GUIDE
100
AcDbLine
 10
209.5
 20
752.0
 30
0.0
 11
209.5
 21
736.92
 31
0.0
  0
LINE
  5
7AB
330
1A
100
AcDbEntity
  8
GUIDE
100
AcDbLine
 10
269.5
 20
748.24
 30
0.0
 11
269.5
 21
740.72
 31
0.0
  0
LINE
  5
7AC
330
1A
100
AcDbEntity
  8
GUIDE
100
AcDbLine
 10
248.5
 20
748.24
 30
0.0
 11
248.5
 21
740.72
 31
0.0
  0
LINE
  5
7AD
330
1A
100
AcDbEntity
  8
GUIDE
100
AcDbLine
 10
269.5
 20
748.24
 30
0.0
 11
248.5
 21
748.24
 31
0.0
  0
LINE
  5
7AE
330
1A
100
AcDbEntity
  8
GUIDE
100
AcDbLine
 10
269.5
 20
740.72
 30
0.0
 11
248.5
 21
740.72
 31
0.0
  0
LINE
  5
7AF
330
1A
100
AcDbEntity
  8
GUIDE
100
AcDbLine
 10
262.0
 20
725.68
 30
0.0
 11
256.0
 21
725.68
 31
0.0
  0
LINE
  5
7B0
330
1A
100
AcDbEntity
  8
GUIDE
100
AcDbLine
 10
269.5
 20
714.4
 30
0.0
 11
248.5
 21
714.4
 31
0.0
  0
LINE
  5
7B1
330
1A
100
AcDbEntity
  8
GUIDE
100
AcDbLine
 10
269.5
 20
721.92
 30
0.0
 11
248.5
 21
721.92
 31
0.0
  0
LINE
  5
7B2
330
1A
100
AcDbEntity
  8
GUIDE
100
AcDbLine
 10
248.5
 20
721.92
 30
0.0
 11
248.5
 21
714.4
 31
0.0
  0
LINE
  5
7B3
330
1A
100
AcDbEntity
  8
GUIDE
100
AcDbLine
 10
269.5
 20
721.92
 30
0.0
 11
269.5
 21
714.4
 31
0.0
  0
LINE
  5
7B4
330
1A
100
AcDbEntity
  8
GUIDE
100
AcDbLine
 10
256.0
 20
699.5
 30
0.0
 11
256.0
 21
714.4
 31
0.0
  0
LINE
  5
7B5
330
1A
100
AcDbEntity
  8
GUIDE
100
AcDbLine
 10
262.0
 20
699.5
 30
0.0
 11
262.0
 21
714.4
 31
0.0
  0
LINE
  5
7B6
330
1A
100
AcDbEntity
  8
GUIDE
100
AcDbLine
 10
262.0
 20
721.92
 30
0.0
 11
262.0
 21
740.72
 31
0.0
  0
LINE
  5
7B7
330
1A
100
AcDbEntity
  8
GUIDE
100
AcDbLine
 10
256.0
 20
721.92
 30
0.0
 11
256.0
 21
740.72
 31
0.0
  0
LINE
  5
7B8
330
1A
100
AcDbEntity
  8
GUIDE
100
AcDbLine
 10
256.0
 20
748.24
 30
0.0
 11
256.0
 21
752.0
 31
0.0
  0
LINE
  5
7B9
330
1A
100
AcDbEntity
  8
GUIDE
100
AcDbLine
 10
262.0
 20
748.24
 30
0.0
 11
262.0
 21
752.0
 31
0.0
  0
LINE
  5
7BA
330
1A
100
AcDbEntity
  8
GUIDE
100
AcDbLine
 10
238.5
 20
703.08
 30
0.0
 11
238.5
 21
699.5
 31
0.0
  0
LINE
  5
7BB
330
1A
100
AcDbEntity
  8
GUIDE
100
AcDbLine
 10
244.5
 20
703.08
 30
0.0
 11
244.5
 21
699.5
 31
0.0
  0
LINE
  5
7BC
330
1A
100
AcDbEntity
  8
GUIDE
100
AcDbLine
 10
244.5
 20
729.4
 30
0.0
 11
244.5
 21
710.6
 31
0.0
  0
LINE
  5
7BD
330
1A
100
AcDbEntity
  8
GUIDE
100
AcDbLine
 10
238.5
 20
729.4
 30
0.0
 11
238.5
 21
710.6
 31
0.0
  0
LINE
  5
7BE
330
1A
100
AcDbEntity
  8
GUIDE
100
AcDbLine
 10
252.0
 20
729.4
 30
0.0
 11
252.0
 21
736.92
 31
0.0
  0
LINE
  5
7BF
330
1A
100
AcDbEntity
  8
GUIDE
100
AcDbLine
 10
252.0
 20
703.08
 30
0.0
 11
252.0
 21
710.6
 31
0.0
  0
LINE
  5
7C0
330
1A
100
AcDbEntity
  8
GUIDE
100
AcDbLine
 10
231.0
 20
703.08
 30
0.0
 11
231.0
 21
710.6
 31
0.0
  0
LINE
  5
7C1
330
1A
100
AcDbEntity
  8
GUIDE
100
AcDbLine
 10
231.0
 20
729.4
 30
0.0
 11
231.0
 21
736.92
 31
0.0
  0
LINE
  5
7C2
330
1A
100
AcDbEntity
  8
GUIDE
100
AcDbLine
 10
252.0
 20
736.92
 30
0.0
 11
231.0
 21
736.92
 31
0.0
  0
LINE
  5
7C3
330
1A
100
AcDbEntity
  8
GUIDE
100
AcDbLine
 10
252.0
 20
729.4
 30
0.0
 11
231.0
 21
729.4
 31
0.0
  0
LINE
  5
7C4
330
1A
100
AcDbEntity
  8
GUIDE
100
AcDbLine
 10
252.0
 20
703.08
 30
0.0
 11
231.0
 21
703.08
 31
0.0
  0
LINE
  5
7C5
330
1A
100
AcDbEntity
  8
GUIDE
100
AcDbLine
 10
252.0
 20
710.6
 30
0.0
 11
231.0
 21
710.6
 31
0.0
  0
LINE
  5
7C6
330
1A
100
AcDbEntity
  8
GUIDE
100
AcDbLine
 10
244.5
 20
725.64
 30
0.0
 11
238.5
 21
725.64
 31
0.0
  0
LINE
  5
7C7
330
1A
100
AcDbEntity
  8
GUIDE
100
AcDbLine
 10
238.5
 20
752.0
 30
0.0
 11
238.5
 21
736.92
 31
0.0
  0
LINE
  5
7C8
330
1A
100
AcDbEntity
  8
GUIDE
100
AcDbLine
 10
244.5
 20
752.0
 30
0.0
 11
244.5
 21
736.92
 31
0.0
  0
LINE
  5
7C9
330
1A
100
AcDbEntity
  8
GUIDE
100
AcDbLine
 10
304.5
 20
748.24
 30
0.0
 11
304.5
 21
740.72
 31
0.0
  0
LINE
  5
7CA
330
1A
100
AcDbEntity
  8
GUIDE
100
AcDbLine
 10
283.5
 20
748.24
 30
0.0
 11
283.5
 21
740.72
 31
0.0
  0
LINE
  5
7CB
330
1A
100
AcDbEntity
  8
GUIDE
100
AcDbLine
 10
304.5
 20
748.24
 30
0.0
 11
283.5
 21
748.24
 31
0.0
  0
LINE
  5
7CC
330
1A
100
AcDbEntity
  8
GUIDE
100
AcDbLine
 10
304.5
 20
740.72
 30
0.0
 11
283.5
 21
740.72
 31
0.0
  0
LINE
  5
7CD
330
1A
100
AcDbEntity
  8
GUIDE
100
AcDbLine
 10
297.0
 20
725.68
 30
0.0
 11
291.0
 21
725.68
 31
0.0
  0
LINE
  5
7CE
330
1A
100
AcDbEntity
  8
GUIDE
100
AcDbLine
 10
304.5
 20
714.4
 30
0.0
 11
283.5
 21
714.4
 31
0.0
  0
LINE
  5
7CF
330
1A
100
AcDbEntity
  8
GUIDE
100
AcDbLine
 10
304.5
 20
721.92
 30
0.0
 11
283.5
 21
721.92
 31
0.0
  0
LINE
  5
7D0
330
1A
100
AcDbEntity
  8
GUIDE
100
AcDbLine
 10
283.5
 20
721.92
 30
0.0
 11
283.5
 21
714.4
 31
0.0
  0
LINE
  5
7D1
330
1A
100
AcDbEntity
  8
GUIDE
100
AcDbLine
 10
304.5
 20
721.92
 30
0.0
 11
304.5
 21
714.4
 31
0.0
  0
LINE
  5
7D2
330
1A
100
AcDbEntity
  8
GUIDE
100
AcDbLine
 10
291.0
 20
699.5
 30
0.0
 11
291.0
 21
714.4
 31
0.0
  0
LINE
  5
7D3
330
1A
100
AcDbEntity
  8
GUIDE
100
AcDbLine
 10
297.0
 20
699.5
 30
0.0
 11
297.0
 21
714.4
 31
0.0
  0
LINE
  5
7D4
330
1A
100
AcDbEntity
  8
GUIDE
100
AcDbLine
 10
297.0
 20
721.92
 30
0.0
 11
297.0
 21
740.72
 31
0.0
  0
LINE
  5
7D5
330
1A
100
AcDbEntity
  8
GUIDE
100
AcDbLine
 10
291.0
 20
721.92
 30
0.0
 11
291.0
 21
740.72
 31
0.0
  0
LINE
  5
7D6
330
1A
100
AcDbEntity
  8
GUIDE
100
AcDbLine
 10
291.0
 20
748.24
 30
0.0
 11
291.0
 21
752.0
 31
0.0
  0
LINE
  5
7D7
330
1A
100
AcDbEntity
  8
GUIDE
100
AcDbLine
 10
297.0
 20
748.24
 30
0.0
 11
297.0
 21
752.0
 31
0.0
  0
LINE
  5
7D8
330
1A
100
AcDbEntity
  8
GUIDE
100
AcDbLine
 10
273.5
 20
703.08
 30
0.0
 11
273.5
 21
699.5
 31
0.0
  0
LINE
  5
7D9
330
1A
100
AcDbEntity
  8
GUIDE
100
AcDbLine
 10
279.5
 20
703.08
 30
0.0
 11
279.5
 21
699.5
 31
0.0
  0
LINE
  5
7DA
330
1A
100
AcDbEntity
  8
GUIDE
100
AcDbLine
 10
279.5
 20
729.4
 30
0.0
 11
279.5
 21
710.6
 31
0.0
  0
LINE
  5
7DB
330
1A
100
AcDbEntity
  8
GUIDE
100
AcDbLine
 10
273.5
 20
729.4
 30
0.0
 11
273.5
 21
710.6
 31
0.0
  0
LINE
  5
7DC
330
1A
100
AcDbEntity
  8
GUIDE
100
AcDbLine
 10
287.0
 20
729.4
 30
0.0
 11
287.0
 21
736.92
 31
0.0
  0
LINE
  5
7DD
330
1A
100
AcDbEntity
  8
GUIDE
100
AcDbLine
 10
287.0
 20
703.08
 30
0.0
 11
287.0
 21
710.6
 31
0.0
  0
LINE
  5
7DE
330
1A
100
AcDbEntity
  8
GUIDE
100
AcDbLine
 10
266.0
 20
703.08
 30
0.0
 11
266.0
 21
710.6
 31
0.0
  0
LINE
  5
7DF
330
1A
100
AcDbEntity
  8
GUIDE
100
AcDbLine
 10
266.0
 20
729.4
 30
0.0
 11
266.0
 21
736.92
 31
0.0
  0
LINE
  5
7E0
330
1A
100
AcDbEntity
  8
GUIDE
100
AcDbLine
 10
287.0
 20
736.92
 30
0.0
 11
266.0
 21
736.92
 31
0.0
  0
LINE
  5
7E1
330
1A
100
AcDbEntity
  8
GUIDE
100
AcDbLine
 10
287.0
 20
729.4
 30
0.0
 11
266.0
 21
729.4
 31
0.0
  0
LINE
  5
7E2
330
1A
100
AcDbEntity
  8
GUIDE
100
AcDbLine
 10
287.0
 20
703.08
 30
0.0
 11
266.0
 21
703.08
 31
0.0
  0
LINE
  5
7E3
330
1A
100
AcDbEntity
  8
GUIDE
100
AcDbLine
 10
287.0
 20
710.6
 30
0.0
 11
266.0
 21
710.6
 31
0.0
  0
LINE
  5
7E4
330
1A
100
AcDbEntity
  8
GUIDE
100
AcDbLine
 10
279.5
 20
725.64
 30
0.0
 11
273.5
 21
725.64
 31
0.0
  0
LINE
  5
7E5
330
1A
100
AcDbEntity
  8
GUIDE
100
AcDbLine
 10
273.5
 20
752.0
 30
0.0
 11
273.5
 21
736.92
 31
0.0
  0
LINE
  5
7E6
330
1A
100
AcDbEntity
  8
GUIDE
100
AcDbLine
 10
279.5
 20
752.0
 30
0.0
 11
279.5
 21
736.92
 31
0.0
  0
LINE
  5
7E7
330
1A
100
AcDbEntity
  8
GUIDE
100
AcDbLine
 10
339.5
 20
748.24
 30
0.0
 11
339.5
 21
740.72
 31
0.0
  0
LINE
  5
7E8
330
1A
100
AcDbEntity
  8
GUIDE
100
AcDbLine
 10
318.5
 20
748.24
 30
0.0
 11
318.5
 21
740.72
 31
0.0
  0
LINE
  5
7E9
330
1A
100
AcDbEntity
  8
GUIDE
100
AcDbLine
 10
339.5
 20
748.24
 30
0.0
 11
318.5
 21
748.24
 31
0.0
  0
LINE
  5
7EA
330
1A
100
AcDbEntity
  8
GUIDE
100
AcDbLine
 10
339.5
 20
740.72
 30
0.0
 11
318.5
 21
740.72
 31
0.0
  0
LINE
  5
7EB
330
1A
100
AcDbEntity
  8
GUIDE
100
AcDbLine
 10
332.0
 20
725.68
 30
0.0
 11
326.0
 21
725.68
 31
0.0
  0
LINE
  5
7EC
330
1A
100
AcDbEntity
  8
GUIDE
100
AcDbLine
 10
339.5
 20
714.4
 30
0.0
 11
318.5
 21
714.4
 31
0.0
  0
LINE
  5
7ED
330
1A
100
AcDbEntity
  8
GUIDE
100
AcDbLine
 10
339.5
 20
721.92
 30
0.0
 11
318.5
 21
721.92
 31
0.0
  0
LINE
  5
7EE
330
1A
100
AcDbEntity
  8
GUIDE
100
AcDbLine
 10
318.5
 20
721.92
 30
0.0
 11
318.5
 21
714.4
 31
0.0
  0
LINE
  5
7EF
330
1A
100
AcDbEntity
  8
GUIDE
100
AcDbLine
 10
339.5
 20
721.92
 30
0.0
 11
339.5
 21
714.4
 31
0.0
  0
LINE
  5
7F0
330
1A
100
AcDbEntity
  8
GUIDE
100
AcDbLine
 10
326.0
 20
699.5
 30
0.0
 11
326.0
 21
714.4
 31
0.0
  0
LINE
  5
7F1
330
1A
100
AcDbEntity
  8
GUIDE
100
AcDbLine
 10
332.0
 20
699.5
 30
0.0
 11
332.0
 21
714.4
 31
0.0
  0
LINE
  5
7F2
330
1A
100
AcDbEntity
  8
GUIDE
100
AcDbLine
 10
332.0
 20
721.92
 30
0.0
 11
332.0
 21
740.72
 31
0.0
  0
LINE
  5
7F3
330
1A
100
AcDbEntity
  8
GUIDE
100
AcDbLine
 10
326.0
 20
721.92
 30
0.0
 11
326.0
 21
740.72
 31
0.0
  0
LINE
  5
7F4
330
1A
100
AcDbEntity
  8
GUIDE
100
AcDbLine
 10
326.0
 20
748.24
 30
0.0
 11
326.0
 21
752.0
 31
0.0
  0
LINE
  5
7F5
330
1A
100
AcDbEntity
  8
GUIDE
100
AcDbLine
 10
332.0
 20
748.24
 30
0.0
 11
332.0
 21
752.0
 31
0.0
  0
LINE
  5
7F6
330
1A
100
AcDbEntity
  8
GUIDE
100
AcDbLine
 10
308.5
 20
703.08
 30
0.0
 11
308.5
 21
699.5
 31
0.0
  0
LINE
  5
7F7
330
1A
100
AcDbEntity
  8
GUIDE
100
AcDbLine
 10
314.5
 20
703.08
 30
0.0
 11
314.5
 21
699.5
 31
0.0
  0
LINE
  5
7F8
330
1A
100
AcDbEntity
  8
GUIDE
100
AcDbLine
 10
314.5
 20
729.4
 30
0.0
 11
314.5
 21
710.6
 31
0.0
  0
LINE
  5
7F9
330
1A
100
AcDbEntity
  8
GUIDE
100
AcDbLine
 10
308.5
 20
729.4
 30
0.0
 11
308.5
 21
710.6
 31
0.0
  0
LINE
  5
7FA
330
1A
100
AcDbEntity
  8
GUIDE
100
AcDbLine
 10
322.0
 20
729.4
 30
0.0
 11
322.0
 21
736.92
 31
0.0
  0
LINE
  5
7FB
330
1A
100
AcDbEntity
  8
GUIDE
100
AcDbLine
 10
322.0
 20
703.08
 30
0.0
 11
322.0
 21
710.6
 31
0.0
  0
LINE
  5
7FC
330
1A
100
AcDbEntity
  8
GUIDE
100
AcDbLine
 10
301.0
 20
703.08
 30
0.0
 11
301.0
 21
710.6
 31
0.0
  0
LINE
  5
7FD
330
1A
100
AcDbEntity
  8
GUIDE
100
AcDbLine
 10
301.0
 20
729.4
 30
0.0
 11
301.0
 21
736.92
 31
0.0
  0
LINE
  5
7FE
330
1A
100
AcDbEntity
  8
GUIDE
100
AcDbLine
 10
322.0
 20
736.92
 30
0.0
 11
301.0
 21
736.92
 31
0.0
  0
LINE
  5
7FF
330
1A
100
AcDbEntity
  8
GUIDE
100
AcDbLine
 10
322.0
 20
729.4
 30
0.0
 11
301.0
 21
729.4
 31
0.0
  0
LINE
  5
800
330
1A
100
AcDbEntity
  8
GUIDE
100
AcDbLine
 10
322.0
 20
703.08
 30
0.0
 11
301.0
 21
703.08
 31
0.0
  0
LINE
  5
801
330
1A
100
AcDbEntity
  8
GUIDE
100
AcDbLine
 10
322.0
 20
710.6
 30
0.0
 11
301.0
 21
710.6
 31
0.0
  0
LINE
  5
802
330
1A
100
AcDbEntity
  8
GUIDE
100
AcDbLine
 10
314.5
 20
725.64
 30
0.0
 11
308.5
 21
725.64
 31
0.0
  0
LINE
  5
803
330
1A
100
AcDbEntity
  8
GUIDE
100
AcDbLine
 10
308.5
 20
752.0
 30
0.0
 11
308.5
 21
736.92
 31
0.0
  0
LINE
  5
804
330
1A
100
AcDbEntity
  8
GUIDE
100
AcDbLine
 10
314.5
 20
752.0
 30
0.0
 11
314.5
 21
736.92
 31
0.0
  0
LINE
  5
805
330
1A
100
AcDbEntity
  8
GUIDE
100
AcDbLine
 10
374.5
 20
748.24
 30
0.0
 11
374.5
 21
740.72
 31
0.0
  0
LINE
  5
806
330
1A
100
AcDbEntity
  8
GUIDE
100
AcDbLine
 10
353.5
 20
748.24
 30
0.0
 11
353.5
 21
740.72
 31
0.0
  0
LINE
  5
807
330
1A
100
AcDbEntity
  8
GUIDE
100
AcDbLine
 10
374.5
 20
748.24
 30
0.0
 11
353.5
 21
748.24
 31
0.0
  0
LINE
  5
808
330
1A
100
AcDbEntity
  8
GUIDE
100
AcDbLine
 10
374.5
 20
740.72
 30
0.0
 11
353.5
 21
740.72
 31
0.0
  0
LINE
  5
809
330
1A
100
AcDbEntity
  8
GUIDE
100
AcDbLine
 10
367.0
 20
725.68
 30
0.0
 11
361.0
 21
725.68
 31
0.0
  0
LINE
  5
80A
330
1A
100
AcDbEntity
  8
GUIDE
100
AcDbLine
 10
374.5
 20
714.4
 30
0.0
 11
353.5
 21
714.4
 31
0.0
  0
LINE
  5
80B
330
1A
100
AcDbEntity
  8
GUIDE
100
AcDbLine
 10
374.5
 20
721.92
 30
0.0
 11
353.5
 21
721.92
 31
0.0
  0
LINE
  5
80C
330
1A
100
AcDbEntity
  8
GUIDE
100
AcDbLine
 10
353.5
 20
721.92
 30
0.0
 11
353.5
 21
714.4
 31
0.0
  0
LINE
  5
80D
330
1A
100
AcDbEntity
  8
GUIDE
100
AcDbLine
 10
374.5
 20
721.92
 30
0.0
 11
374.5
 21
714.4
 31
0.0
  0
LINE
  5
80E
330
1A
100
AcDbEntity
  8
GUIDE
100
AcDbLine
 10
361.0
 20
699.5
 30
0.0
 11
361.0
 21
714.4
 31
0.0
  0
LINE
  5
80F
330
1A
100
AcDbEntity
  8
GUIDE
100
AcDbLine
 10
367.0
 20
699.5
 30
0.0
 11
367.0
 21
714.4
 31
0.0
  0
LINE
  5
810
330
1A
100
AcDbEntity
  8
GUIDE
100
AcDbLine
 10
367.0
 20
721.92
 30
0.0
 11
367.0
 21
740.72
 31
0.0
  0
LINE
  5
811
330
1A
100
AcDbEntity
  8
GUIDE
100
AcDbLine
 10
361.0
 20
721.92
 30
0.0
 11
361.0
 21
740.72
 31
0.0
  0
LINE
  5
812
330
1A
100
AcDbEntity
  8
GUIDE
100
AcDbLine
 10
361.0
 20
748.24
 30
0.0
 11
361.0
 21
752.0
 31
0.0
  0
LINE
  5
813
330
1A
100
AcDbEntity
  8
GUIDE
100
AcDbLine
 10
367.0
 20
748.24
 30
0.0
 11
367.0
 21
752.0
 31
0.0
  0
LINE
  5
814
330
1A
100
AcDbEntity
  8
GUIDE
100
AcDbLine
 10
343.5
 20
703.08
 30
0.0
 11
343.5
 21
699.5
 31
0.0
  0
LINE
  5
815
330
1A
100
AcDbEntity
  8
GUIDE
100
AcDbLine
 10
349.5
 20
703.08
 30
0.0
 11
349.5
 21
699.5
 31
0.0
  0
LINE
  5
816
330
1A
100
AcDbEntity
  8
GUIDE
100
AcDbLine
 10
349.5
 20
729.4
 30
0.0
 11
349.5
 21
710.6
 31
0.0
  0
LINE
  5
817
330
1A
100
AcDbEntity
  8
GUIDE
100
AcDbLine
 10
343.5
 20
729.4
 30
0.0
 11
343.5
 21
710.6
 31
0.0
  0
LINE
  5
818
330
1A
100
AcDbEntity
  8
GUIDE
100
AcDbLine
 10
357.0
 20
729.4
 30
0.0
 11
357.0
 21
736.92
 31
0.0
  0
LINE
  5
819
330
1A
100
AcDbEntity
  8
GUIDE
100
AcDbLine
 10
357.0
 20
703.08
 30
0.0
 11
357.0
 21
710.6
 31
0.0
  0
LINE
  5
81A
330
1A
100
AcDbEntity
  8
GUIDE
100
AcDbLine
 10
336.0
 20
703.08
 30
0.0
 11
336.0
 21
710.6
 31
0.0
  0
LINE
  5
81B
330
1A
100
AcDbEntity
  8
GUIDE
100
AcDbLine
 10
336.0
 20
729.4
 30
0.0
 11
336.0
 21
736.92
 31
0.0
  0
LINE
  5
81C
330
1A
100
AcDbEntity
  8
GUIDE
100
AcDbLine
 10
357.0
 20
736.92
 30
0.0
 11
336.0
 21
736.92
 31
0.0
  0
LINE
  5
81D
330
1A
100
AcDbEntity
  8
GUIDE
100
AcDbLine
 10
357.0
 20
729.4
 30
0.0
 11
336.0
 21
729.4
 31
0.0
  0
LINE
  5
81E
330
1A
100
AcDbEntity
  8
GUIDE
100
AcDbLine
 10
357.0
 20
703.08
 30
0.0
 11
336.0
 21
703.08
 31
0.0
  0
LINE
  5
81F
330
1A
100
AcDbEntity
  8
GUIDE
100
AcDbLine
 10
357.0
 20
710.6
 30
0.0
 11
336.0
 21
710.6
 31
0.0
  0
LINE
  5
820
330
1A
100
AcDbEntity
  8
GUIDE
100
AcDbLine
 10
349.5
 20
725.64
 30
0.0
 11
343.5
 21
725.64
 31
0.0
  0
LINE
  5
821
330
1A
100
AcDbEntity
  8
GUIDE
100
AcDbLine
 10
343.5
 20
752.0
 30
0.0
 11
343.5
 21
736.92
 31
0.0
  0
LINE
  5
822
330
1A
100
AcDbEntity
  8
GUIDE
100
AcDbLine
 10
349.5
 20
752.0
 30
0.0
 11
349.5
 21
736.92
 31
0.0
  0
LINE
  5
823
330
1A
100
AcDbEntity
  8
GUIDE
100
AcDbLine
 10
-675.0
 20
759.6
 30
0.0
 11
374.0
 21
759.6
 31
0.0
  0
LINE
  5
824
330
1A
100
AcDbEntity
  8
GUIDE
100
AcDbLine
 10
-675.0
 20
691.9
 30
0.0
 11
374.0
 21
691.9
 31
0.0
  0
LINE
  5
825
330
1A
100
AcDbEntity
  8
GUIDE
100
AcDbLine
 10
442.276092
 20
752.0
 30
0.0
 11
442.276092
 21
699.36
 31
0.0
  0
LINE
  5
826
330
1A
100
AcDbEntity
  8
GUIDE
100
AcDbLine
 10
452.276092
 20
762.0
 30
0.0
 11
452.276092
 21
755.0
 31
0.0
  0
LINE
  5
827
330
1A
100
AcDbEntity
  8
GUIDE
100
AcDbLine
 10
468.776092
 20
762.0
 30
0.0
 11
452.276092
 21
762.0
 31
0.0
  0
LINE
  5
828
330
1A
100
AcDbEntity
  8
GUIDE
100
AcDbLine
 10
468.776092
 20
689.36
 30
0.0
 11
452.276092
 21
689.36
 31
0.0
  0
LINE
  5
829
330
1A
100
AcDbEntity
  8
GUIDE
100
AcDbLine
 10
472.776092
 20
752.0
 30
0.0
 11
448.276092
 21
752.0
 31
0.0
  0
LINE
  5
82A
330
1A
100
AcDbEntity
  8
GUIDE
100
AcDbLine
 10
472.776092
 20
699.36
 30
0.0
 11
448.276092
 21
699.36
 31
0.0
  0
LINE
  5
82B
330
1A
100
AcDbEntity
  8
GUIDE
100
AcDbLine
 10
472.776092
 20
759.6
 30
0.0
 11
472.776092
 21
752.0
 31
0.0
  0
LINE
  5
82C
330
1A
100
AcDbEntity
  8
GUIDE
100
AcDbLine
 10
472.776092
 20
699.36
 30
0.0
 11
472.776092
 21
691.76
 31
0.0
  0
LINE
  5
82D
330
1A
100
AcDbEntity
  8
GUIDE
100
AcDbLine
 10
463.276092
 20
755.0
 30
0.0
 11
445.276092
 21
755.0
 31
0.0
  0
LINE
  5
82E
330
1A
100
AcDbEntity
  8
GUIDE
100
AcDbLine
 10
445.276092
 20
749.0
 30
0.0
 11
445.276092
 21
702.36
 31
0.0
  0
LINE
  5
82F
330
1A
100
AcDbEntity
  8
GUIDE
100
AcDbLine
 10
463.276092
 20
696.36
 30
0.0
 11
445.276092
 21
696.36
 31
0.0
  0
LINE
  5
830
330
1A
100
AcDbEntity
  8
GUIDE
100
AcDbLine
 10
463.276092
 20
755.0
 30
0.0
 11
463.276092
 21
752.0
 31
0.0
  0
LINE
  5
831
330
1A
100
AcDbEntity
  8
GUIDE
100
AcDbLine
 10
463.276092
 20
699.36
 30
0.0
 11
463.276092
 21
696.36
 31
0.0
  0
LINE
  5
832
330
1A
100
AcDbEntity
  8
GUIDE
100
AcDbLine
 10
452.276092
 20
696.36
 30
0.0
 11
452.276092
 21
689.36
 31
0.0
  0
LINE
  5
833
330
1A
100
AcDbEntity
  8
GUIDE
100
AcDbLine
 10
476.776092
 20
736.92
 30
0.0
 11
476.776092
 21
729.4
 31
0.0
  0
LINE
  5
834
330
1A
100
AcDbEntity
  8
GUIDE
100
AcDbLine
 10
455.776092
 20
703.08
 30
0.0
 11
455.776092
 21
710.6
 31
0.0
  0
LINE
  5
835
330
1A
100
AcDbEntity
  8
GUIDE
100
AcDbLine
 10
455.776092
 20
729.4
 30
0.0
 11
455.776092
 21
736.92
 31
0.0
  0
LINE
  5
836
330
1A
100
AcDbEntity
  8
GUIDE
100
AcDbLine
 10
469.276092
 20
748.24
 30
0.0
 11
469.276092
 21
752.0
 31
0.0
  0
LINE
  5
837
330
1A
100
AcDbEntity
  8
GUIDE
100
AcDbLine
 10
463.276092
 20
748.24
 30
0.0
 11
463.276092
 21
752.0
 31
0.0
  0
LINE
  5
838
330
1A
100
AcDbEntity
  8
GUIDE
100
AcDbLine
 10
463.276092
 20
721.92
 30
0.0
 11
463.276092
 21
740.72
 31
0.0
  0
LINE
  5
839
330
1A
100
AcDbEntity
  8
GUIDE
100
AcDbLine
 10
469.276092
 20
721.92
 30
0.0
 11
469.276092
 21
740.72
 31
0.0
  0
LINE
  5
83A
330
1A
100
AcDbEntity
  8
GUIDE
100
AcDbLine
 10
469.276092
 20
699.36
 30
0.0
 11
469.276092
 21
714.4
 31
0.0
  0
LINE
  5
83B
330
1A
100
AcDbEntity
  8
GUIDE
100
AcDbLine
 10
463.276092
 20
699.36
 30
0.0
 11
463.276092
 21
714.4
 31
0.0
  0
LINE
  5
83C
330
1A
100
AcDbEntity
  8
GUIDE
100
AcDbLine
 10
476.776092
 20
721.92
 30
0.0
 11
476.776092
 21
714.4
 31
0.0
  0
LINE
  5
83D
330
1A
100
AcDbEntity
  8
GUIDE
100
AcDbLine
 10
455.776092
 20
721.92
 30
0.0
 11
455.776092
 21
714.4
 31
0.0
  0
LINE
  5
83E
330
1A
100
AcDbEntity
  8
GUIDE
100
AcDbLine
 10
476.776092
 20
721.92
 30
0.0
 11
455.776092
 21
721.92
 31
0.0
  0
LINE
  5
83F
330
1A
100
AcDbEntity
  8
GUIDE
100
AcDbLine
 10
476.776092
 20
714.4
 30
0.0
 11
455.776092
 21
714.4
 31
0.0
  0
LINE
  5
840
330
1A
100
AcDbEntity
  8
GUIDE
100
AcDbLine
 10
469.276092
 20
725.68
 30
0.0
 11
463.276092
 21
725.68
 31
0.0
  0
LINE
  5
841
330
1A
100
AcDbEntity
  8
GUIDE
100
AcDbLine
 10
476.776092
 20
740.72
 30
0.0
 11
455.776092
 21
740.72
 31
0.0
  0
LINE
  5
842
330
1A
100
AcDbEntity
  8
GUIDE
100
AcDbLine
 10
476.776092
 20
748.24
 30
0.0
 11
455.776092
 21
748.24
 31
0.0
  0
LINE
  5
843
330
1A
100
AcDbEntity
  8
GUIDE
100
AcDbLine
 10
455.776092
 20
748.24
 30
0.0
 11
455.776092
 21
740.72
 31
0.0
  0
LINE
  5
844
330
1A
100
AcDbEntity
  8
GUIDE
100
AcDbLine
 10
476.776092
 20
748.24
 30
0.0
 11
476.776092
 21
740.72
 31
0.0
  0
LINE
  5
845
330
1A
100
AcDbEntity
  8
GUIDE
100
AcDbLine
 10
455.776092
 20
729.4
 30
0.0
 11
463.276092
 21
729.4
 31
0.0
  0
LINE
  5
846
330
1A
100
AcDbEntity
  8
GUIDE
100
AcDbLine
 10
455.776092
 20
736.92
 30
0.0
 11
463.276092
 21
736.92
 31
0.0
  0
LINE
  5
847
330
1A
100
AcDbEntity
  8
GUIDE
100
AcDbLine
 10
455.776092
 20
710.6
 30
0.0
 11
463.276092
 21
710.6
 31
0.0
  0
LINE
  5
848
330
1A
100
AcDbEntity
  8
GUIDE
100
AcDbLine
 10
455.776092
 20
703.08
 30
0.0
 11
463.276092
 21
703.08
 31
0.0
  0
LINE
  5
849
330
1A
100
AcDbEntity
  8
GUIDE
100
AcDbLine
 10
476.776092
 20
710.6
 30
0.0
 11
476.776092
 21
703.08
 31
0.0
  0
LINE
  5
84A
330
1A
100
AcDbEntity
  8
GUIDE
100
AcDbLine
 10
469.276092
 20
736.92
 30
0.0
 11
476.776092
 21
736.92
 31
0.0
  0
LINE
  5
84B
330
1A
100
AcDbEntity
  8
GUIDE
100
AcDbLine
 10
469.276092
 20
729.4
 30
0.0
 11
476.776092
 21
729.4
 31
0.0
  0
LINE
  5
84C
330
1A
100
AcDbEntity
  8
GUIDE
100
AcDbLine
 10
469.276092
 20
710.6
 30
0.0
 11
476.776092
 21
710.6
 31
0.0
  0
LINE
  5
84D
330
1A
100
AcDbEntity
  8
GUIDE
100
AcDbLine
 10
469.276092
 20
703.08
 30
0.0
 11
476.776092
 21
703.08
 31
0.0
  0
LINE
  5
84E
330
1A
100
AcDbEntity
  8
GUIDE
100
AcDbLine
 10
442.276092
 20
699.36
 30
0.0
 11
445.276092
 21
696.36
 31
0.0
  0
LINE
  5
84F
330
1A
100
AcDbEntity
  8
GUIDE
100
AcDbLine
 10
448.276092
 20
699.36
 30
0.0
 11
445.276092
 21
702.36
 31
0.0
  0
LINE
  5
850
330
1A
100
AcDbEntity
  8
GUIDE
100
AcDbLine
 10
445.276092
 20
749.0
 30
0.0
 11
448.276092
 21
752.0
 31
0.0
  0
LINE
  5
851
330
1A
100
AcDbEntity
  8
GUIDE
100
AcDbLine
 10
442.276092
 20
752.0
 30
0.0
 11
445.276092
 21
755.0
 31
0.0
  0
POLYLINE
  5
852
330
1A
100
AcDbEntity
  8
GUIDE
100
AcDb2dPolyline
 66
     1
 10
0.0
 20
0.0
 30
0.0
  0
VERTEX
  5
8A1
330
852
100
AcDbEntity
  8
GUIDE
100
AcDbVertex
100
AcDb2dVertex
 10
468.776092
 20
689.36
 30
0.0
  0
VERTEX
  5
8A2
330
852
100
AcDbEntity
  8
GUIDE
100
AcDbVertex
100
AcDb2dVertex
 10
468.776092
 20
691.76
 30
0.0
  0
VERTEX
  5
8A3
330
852
100
AcDbEntity
  8
GUIDE
100
AcDbVertex
100
AcDb2dVertex
 10
472.776092
 20
691.76
 30
0.0
  0
SEQEND
  5
8A0
330
852
100
AcDbEntity
  8
GUIDE
  0
POLYLINE
  5
857
330
1A
100
AcDbEntity
  8
GUIDE
100
AcDb2dPolyline
 66
     1
 10
0.0
 20
0.0
 30
0.0
  0
VERTEX
  5
8A5
330
857
100
AcDbEntity
  8
GUIDE
100
AcDbVertex
100
AcDb2dVertex
 10
468.776092
 20
759.6
 30
0.0
  0
VERTEX
  5
8A6
330
857
100
AcDbEntity
  8
GUIDE
100
AcDbVertex
100
AcDb2dVertex
 10
468.776092
 20
762.0
 30
0.0
  0
SEQEND
  5
8A4
330
857
100
AcDbEntity
  8
GUIDE
  0
POLYLINE
  5
85B
330
1A
100
AcDbEntity
  8
GUIDE
100
AcDb2dPolyline
 66
     1
 10
0.0
 20
0.0
 30
0.0
  0
VERTEX
  5
8A8
330
85B
100
AcDbEntity
  8
GUIDE
100
AcDbVertex
100
AcDb2dVertex
 10
472.776092
 20
759.6
 30
0.0
  0
VERTEX
  5
8A9
330
85B
100
AcDbEntity
  8
GUIDE
100
AcDbVertex
100
AcDb2dVertex
 10
468.776092
 20
759.6
 30
0.0
  0
SEQEND
  5
8A7
330
85B
100
AcDbEntity
  8
GUIDE
  0
ENDSEC
  0
SECTION
  2
OBJECTS
  0
DICTIONARY
  5
C
330
0
100
AcDbDictionary
  3
ACAD_GROUP
350
D
  3
ACAD_LAYOUT
350
860
  3
ACAD_MLINESTYLE
350
E
1001
ACAD
1000
TREAT_AS_HARD
1070
     0
  0
DICTIONARY
  5
8AA
330
85F
100
AcDbDictionary
  3
ACAD_XREC_ROUNDTRIP
360
8AB
  0
DICTIONARY
  5
D
102
{ACAD_REACTORS
330
C
102
}
330
C
100
AcDbDictionary
1001
ACAD
1000
TREAT_AS_HARD
1070
     0
  0
DICTIONARY
  5
860
102
{ACAD_REACTORS
330
C
102
}
330
C
100
AcDbDictionary
1001
ACAD
1000
TREAT_AS_HARD
1070
     0
  0
DICTIONARY
  5
E
102
{ACAD_REACTORS
330
C
102
}
330
C
100
AcDbDictionary
  3
STANDARD
350
13
1001
ACAD
1000
TREAT_AS_HARD
1070
     0
  0
XRECORD
  5
8AB
102
{ACAD_REACTORS
330
8AA
102
}
330
8AA
100
AcDbXrecord
102
UCS
 74
     0
 71
     1
 10
0.0
 20
0.0
 30
0.0
 10
1.0
 20
0.0
 30
0.0
 10
0.0
 20
1.0
 30
0.0
146
0.0
 79
     0
102
VIEW
281
     0
  0
MLINESTYLE
  5
13
102
{ACAD_REACTORS
330
E
102
}
330
E
100
AcDbMlineStyle
  2
STANDARD
 70
     0
  3

 62
     0
 51
90.0
 52
90.0
 71
     2
 49
0.5
 62
   256
  6
BYLAYER
 49
-0.5
 62
   256
  6
BYLAYER
  0
ENDSEC
  0
EOF
