  0
SECTION
  2
HEADER
  9
$ACADVER
  1
AC1012
  9
$DWGCODEPAGE
  3
ansi_1252
  9
$INSBASE
 10
0.0
 20
0.0
 30
0.0
  9
$EXTMIN
 10
-1085.0
 20
412.0
 30
0.0
  9
$EXTMAX
 10
59.223417
 20
595.5
 30
0.0
  9
$LIMMIN
 10
0.0
 20
0.0
  9
$LIMMAX
 10
12.0
 20
9.0
  9
$ORTHOMODE
 70
     1
  9
$REGENMODE
 70
     1
  9
$FILLMODE
 70
     1
  9
$QTEXTMODE
 70
     0
  9
$MIRRTEXT
 70
     1
  9
$DRAGMODE
 70
     2
  9
$LTSCALE
 40
1.0
  9
$OSMODE
 70
    37
  9
$ATTMODE
 70
     1
  9
$TEXTSIZE
 40
0.2
  9
$TRACEWID
 40
0.05
  9
$TEXTSTYLE
  7
STANDARD
  9
$CLAYER
  8
0
  9
$CELTYPE
  6
BYLAYER
  9
$CECOLOR
 62
   256
  9
$CELTSCALE
 40
1.0
  9
$DELOBJ
 70
     1
  9
$DISPSILH
 70
     0
  9
$DIMSCALE
 40
1.0
  9
$DIMASZ
 40
0.18
  9
$DIMEXO
 40
0.0625
  9
$DIMDLI
 40
0.38
  9
$DIMRND
 40
0.0
  9
$DIMDLE
 40
0.0
  9
$DIMEXE
 40
0.18
  9
$DIMTP
 40
0.0
  9
$DIMTM
 40
0.0
  9
$DIMTXT
 40
0.18
  9
$DIMCEN
 40
0.09
  9
$DIMTSZ
 40
0.0
  9
$DIMTOL
 70
     0
  9
$DIMLIM
 70
     0
  9
$DIMTIH
 70
     1
  9
$DIMTOH
 70
     1
  9
$DIMSE1
 70
     0
  9
$DIMSE2
 70
     0
  9
$DIMTAD
 70
     0
  9
$DIMZIN
 70
     0
  9
$DIMBLK
  1

  9
$DIMASO
 70
     1
  9
$DIMSHO
 70
     1
  9
$DIMPOST
  1

  9
$DIMAPOST
  1

  9
$DIMALT
 70
     0
  9
$DIMALTD
 70
     2
  9
$DIMALTF
 40
25.4
  9
$DIMLFAC
 40
1.0
  9
$DIMTOFL
 70
     0
  9
$DIMTVP
 40
0.0
  9
$DIMTIX
 70
     0
  9
$DIMSOXD
 70
     0
  9
$DIMSAH
 70
     0
  9
$DIMBLK1
  1

  9
$DIMBLK2
  1

  9
$DIMSTYLE
  2
STANDARD
  9
$DIMCLRD
 70
     0
  9
$DIMCLRE
 70
     0
  9
$DIMCLRT
 70
     0
  9
$DIMTFAC
 40
1.0
  9
$DIMGAP
 40
0.09
  9
$DIMJUST
 70
     0
  9
$DIMSD1
 70
     0
  9
$DIMSD2
 70
     0
  9
$DIMTOLJ
 70
     1
  9
$DIMTZIN
 70
     0
  9
$DIMALTZ
 70
     0
  9
$DIMALTTZ
 70
     0
  9
$DIMFIT
 70
     3
  9
$DIMUPT
 70
     0
  9
$DIMUNIT
 70
     2
  9
$DIMDEC
 70
     4
  9
$DIMTDEC
 70
     4
  9
$DIMALTU
 70
     2
  9
$DIMALTTD
 70
     2
  9
$DIMTXSTY
  7
STANDARD
  9
$DIMAUNIT
 70
     0
  9
$LUNITS
 70
     2
  9
$LUPREC
 70
     4
  9
$SKETCHINC
 40
0.1
  9
$FILLETRAD
 40
0.0
  9
$AUNITS
 70
     0
  9
$AUPREC
 70
     0
  9
$MENU
  1
acad
  9
$ELEVATION
 40
0.0
  9
$PELEVATION
 40
0.0
  9
$THICKNESS
 40
0.0
  9
$LIMCHECK
 70
     0
  9
$CHAMFERA
 40
0.0
  9
$CHAMFERB
 40
0.0
  9
$CHAMFERC
 40
0.0
  9
$CHAMFERD
 40
0.0
  9
$SKPOLY
 70
     0
  9
$TDCREATE
 40
2447893.083333334
  9
$TDUPDATE
 40
2447893.083333334
  9
$TDINDWG
 40
0.0026853009
  9
$TDUSRTIMER
 40
0.0026853009
  9
$USRTIMER
 70
     1
  9
$ANGBASE
 50
0.0
  9
$ANGDIR
 70
     0
  9
$PDMODE
 70
     0
  9
$PDSIZE
 40
0.0
  9
$PLINEWID
 40
0.0
  9
$COORDS
 70
     1
  9
$SPLFRAME
 70
     0
  9
$SPLINETYPE
 70
     6
  9
$SPLINESEGS
 70
     8
  9
$ATTDIA
 70
     0
  9
$ATTREQ
 70
     1
  9
$HANDLING
 70
     1
  9
$HANDSEED
  5
C12
  9
$SURFTAB1
 70
     6
  9
$SURFTAB2
 70
     6
  9
$SURFTYPE
 70
     6
  9
$SURFU
 70
     6
  9
$SURFV
 70
     6
  9
$UCSNAME
  2

  9
$UCSORG
 10
0.0
 20
0.0
 30
0.0
  9
$UCSXDIR
 10
1.0
 20
0.0
 30
0.0
  9
$UCSYDIR
 10
0.0
 20
1.0
 30
0.0
  9
$PUCSNAME
  2

  9
$PUCSORG
 10
0.0
 20
0.0
 30
0.0
  9
$PUCSXDIR
 10
1.0
 20
0.0
 30
0.0
  9
$PUCSYDIR
 10
0.0
 20
1.0
 30
0.0
  9
$USERI1
 70
     0
  9
$USERI2
 70
     0
  9
$USERI3
 70
     0
  9
$USERI4
 70
     0
  9
$USERI5
 70
     0
  9
$USERR1
 40
0.0
  9
$USERR2
 40
0.0
  9
$USERR3
 40
0.0
  9
$USERR4
 40
0.0
  9
$USERR5
 40
0.0
  9
$WORLDVIEW
 70
     1
  9
$SHADEDGE
 70
     3
  9
$SHADEDIF
 70
    70
  9
$TILEMODE
 70
     1
  9
$MAXACTVP
 70
    16
  9
$PINSBASE
 10
0.0
 20
0.0
 30
0.0
  9
$PLIMCHECK
 70
     0
  9
$PEXTMIN
 10
1.000000000000000E+20
 20
1.000000000000000E+20
 30
1.000000000000000E+20
  9
$PEXTMAX
 10
-1.000000000000000E+20
 20
-1.000000000000000E+20
 30
-1.000000000000000E+20
  9
$PLIMMIN
 10
0.0
 20
0.0
  9
$PLIMMAX
 10
12.0
 20
9.0
  9
$UNITMODE
 70
     0
  9
$VISRETAIN
 70
     0
  9
$PLINEGEN
 70
     0
  9
$PSLTSCALE
 70
     1
  9
$TREEDEPTH
 70
  3020
  9
$PICKSTYLE
 70
     1
  9
$CMLSTYLE
  2
STANDARD
  9
$CMLJUST
 70
     0
  9
$CMLSCALE
 40
1.0
  9
$SAVEIMAGES
 70
     1
  0
ENDSEC
  0
SECTION
  2
CLASSES
  0
CLASS
  1
XRECORD
  2
AcDbXrecord
  3
AutoCAD 2000
 90
    32768
280
     0
281
     0
  0
CLASS
  1
LWPOLYLINE
  2
AcDbPolyline
  3
AutoCAD 2000
 90
    32768
280
     0
281
     1
  0
CLASS
  1
HATCH
  2
AcDbHatch
  3
AutoCAD 2000
 90
    32768
280
     0
281
     1
  0
CLASS
  1
ACDBPLACEHOLDER
  2
AcDbPlaceHolder
  3
ObjectDBX Classes
 90
        0
280
     0
281
     0
  0
CLASS
  1
LAYOUT
  2
AcDbLayout
  3
ObjectDBX Classes
 90
        0
280
     0
281
     0
  0
ENDSEC
  0
SECTION
  2
TABLES
  0
TABLE
  2
VPORT
  5
8
330
0
100
AcDbSymbolTable
 70
     1
  0
VPORT
  5
BC5
102
{ACAD_XDICTIONARY
360
C10
102
}
330
8
100
AcDbSymbolTableRecord
100
AcDbViewportTableRecord
  2
*ACTIVE
 70
     0
 10
0.0
 20
0.0
 11
1.0
 21
1.0
 12
-512.888291
 22
298.697583
 13
0.0
 23
0.0
 14
1.0
 24
1.0
 15
0.0
 25
0.0
 16
0.0
 26
0.0
 36
1.0
 17
0.0
 27
0.0
 37
0.0
 40
597.395166
 41
1.915354
 42
50.0
 43
0.0
 44
0.0
 50
0.0
 51
0.0
 71
     0
 72
   100
 73
     1
 74
     1
 75
     0
 76
     0
 77
     0
 78
     0
  0
ENDTAB
  0
TABLE
  2
LTYPE
  5
5
330
0
100
AcDbSymbolTable
 70
     1
  0
LTYPE
  5
14
330
5
100
AcDbSymbolTableRecord
100
AcDbLinetypeTableRecord
  2
BYBLOCK
 70
     0
  3

 72
    65
 73
     0
 40
0.0
  0
LTYPE
  5
15
330
5
100
AcDbSymbolTableRecord
100
AcDbLinetypeTableRecord
  2
BYLAYER
 70
     0
  3

 72
    65
 73
     0
 40
0.0
  0
LTYPE
  5
16
330
5
100
AcDbSymbolTableRecord
100
AcDbLinetypeTableRecord
  2
CONTINUOUS
 70
     0
  3
Solid line
 72
    65
 73
     0
 40
0.0
  0
ENDTAB
  0
TABLE
  2
LAYER
  5
2
330
0
100
AcDbSymbolTable
 70
     2
  0
LAYER
  5
F
330
2
100
AcDbSymbolTableRecord
100
AcDbLayerTableRecord
  2
0
 70
     0
 62
     7
  6
CONTINUOUS
  0
LAYER
  5
28
330
2
100
AcDbSymbolTableRecord
100
AcDbLayerTableRecord
  2
GUIDE
 70
     0
 62
     7
  6
CONTINUOUS
  0
ENDTAB
  0
TABLE
  2
STYLE
  5
3
330
0
100
AcDbSymbolTable
 70
     1
  0
STYLE
  5
10
330
3
100
AcDbSymbolTableRecord
100
AcDbTextStyleTableRecord
  2
STANDARD
 70
     0
 40
0.0
 41
1.0
 50
0.0
 71
     0
 42
0.2
  3
txt
  4

  0
ENDTAB
  0
TABLE
  2
VIEW
  5
6
330
0
100
AcDbSymbolTable
 70
     0
  0
ENDTAB
  0
TABLE
  2
UCS
  5
7
330
0
100
AcDbSymbolTable
 70
     0
  0
ENDTAB
  0
TABLE
  2
APPID
  5
9
330
0
100
AcDbSymbolTable
 70
     1
  0
APPID
  5
11
330
9
100
AcDbSymbolTableRecord
100
AcDbRegAppTableRecord
  2
ACAD
 70
     0
  0
ENDTAB
  0
TABLE
  2
DIMSTYLE
  5
A
330
0
100
AcDbSymbolTable
 70
     1
  0
DIMSTYLE
105
1D
330
A
100
AcDbSymbolTableRecord
100
AcDbDimStyleTableRecord
  2
STANDARD
 70
     0
  3

  4

  5

  6

  7

 40
1.0
 41
0.18
 42
0.0625
 43
0.38
 44
0.18
 45
0.0
 46
0.0
 47
0.0
 48
0.0
140
0.18
141
0.09
142
0.0
143
25.4
144
1.0
145
0.0
146
1.0
147
0.09
 71
     0
 72
     0
 73
     1
 74
     1
 75
     0
 76
     0
 77
     0
 78
     0
170
     0
171
     2
172
     0
173
     0
174
     0
175
     0
176
     0
177
     0
178
     0
270
     2
271
     4
272
     4
273
     2
274
     2
340
10
275
     0
280
     0
281
     0
282
     0
283
     1
284
     0
285
     0
286
     0
287
     3
288
     0
  0
ENDTAB
  0
TABLE
  2
BLOCK_RECORD
  5
1
330
0
100
AcDbSymbolTable
 70
     0
  0
BLOCK_RECORD
  5
1A
330
1
100
AcDbSymbolTableRecord
100
AcDbBlockTableRecord
  2
*MODEL_SPACE
  0
BLOCK_RECORD
  5
17
330
1
100
AcDbSymbolTableRecord
100
AcDbBlockTableRecord
  2
*PAPER_SPACE
  0
ENDTAB
  0
ENDSEC
  0
SECTION
  2
BLOCKS
  0
BLOCK
  5
1B
330
1A
100
AcDbEntity
  8
0
100
AcDbBlockBegin
  2
*MODEL_SPACE
 70
     0
 71
     0
 10
0.0
 20
0.0
 30
0.0
  3
*MODEL_SPACE
  1

  0
ENDBLK
  5
1C
330
1A
100
AcDbEntity
  8
0
100
AcDbBlockEnd
  0
BLOCK
  5
18
330
17
100
AcDbEntity
 67
     1
  8
0
100
AcDbBlockBegin
  2
*PAPER_SPACE
 70
     0
 71
     0
 10
0.0
 20
0.0
 30
0.0
  3
*PAPER_SPACE
  1

  0
ENDBLK
  5
19
330
17
100
AcDbEntity
 67
     1
  8
0
100
AcDbBlockEnd
  0
ENDSEC
  0
SECTION
  2
ENTITIES
  0
POLYLINE
  5
600
330
1A
100
AcDbEntity
  8
GUIDE
100
AcDb2dPolyline
 66
     1
 10
0.0
 20
0.0
 30
0.0
  0
VERTEX
  5
C01
330
600
100
AcDbEntity
  8
GUIDE
100
AcDbVertex
100
AcDb2dVertex
 10
-32.0
 20
581.798438
 30
0.0
 42
0.156174
  0
VERTEX
  5
C02
330
600
100
AcDbEntity
  8
GUIDE
100
AcDbVertex
100
AcDb2dVertex
 10
-32.0
 20
588.201562
 30
0.0
 42
0.485071
  0
SEQEND
  5
C00
330
600
100
AcDbEntity
  8
GUIDE
  0
POLYLINE
  5
604
330
1A
100
AcDbEntity
  8
GUIDE
100
AcDb2dPolyline
 66
     1
 10
0.0
 20
0.0
 30
0.0
  0
VERTEX
  5
C04
330
604
100
AcDbEntity
  8
GUIDE
100
AcDbVertex
100
AcDb2dVertex
 10
-33.753789
 20
591.5
 30
0.0
 42
0.485071
  0
VERTEX
  5
C05
330
604
100
AcDbEntity
  8
GUIDE
100
AcDbVertex
100
AcDb2dVertex
 10
-50.246211
 20
591.5
 30
0.0
 42
2.061553
  0
SEQEND
  5
C03
330
604
100
AcDbEntity
  8
GUIDE
  0
LINE
  5
608
330
1A
100
AcDbEntity
  8
GUIDE
100
AcDbLine
 10
-32.0
 20
591.5
 30
0.0
 11
-32.0
 21
561.0
 31
0.0
  0
ARC
  5
609
330
1A
100
AcDbEntity
  8
GUIDE
100
AcDbCircle
 10
-77.0
 20
585.0
 30
0.0
 40
10.5
100
AcDbArc
 50
38.24662
 51
141.75338
  0
ARC
  5
60A
330
1A
100
AcDbEntity
  8
GUIDE
100
AcDbCircle
 10
-59.5
 20
585.0
 30
0.0
 40
10.5
100
AcDbArc
 50
38.24662
 51
141.75338
  0
ARC
  5
60B
330
1A
100
AcDbEntity
  8
GUIDE
100
AcDbCircle
 10
-112.0
 20
585.0
 30
0.0
 40
10.5
100
AcDbArc
 50
38.24662
 51
141.75338
  0
ARC
  5
60C
330
1A
100
AcDbEntity
  8
GUIDE
100
AcDbCircle
 10
-94.5
 20
585.0
 30
0.0
 40
10.5
100
AcDbArc
 50
38.24662
 51
141.75338
  0
ARC
  5
60D
330
1A
100
AcDbEntity
  8
GUIDE
100
AcDbCircle
 10
-147.0
 20
585.0
 30
0.0
 40
10.5
100
AcDbArc
 50
38.24662
 51
141.75338
  0
ARC
  5
60E
330
1A
100
AcDbEntity
  8
GUIDE
100
AcDbCircle
 10
-129.5
 20
585.0
 30
0.0
 40
10.5
100
AcDbArc
 50
38.24662
 51
141.75338
  0
ARC
  5
60F
330
1A
100
AcDbEntity
  8
GUIDE
100
AcDbCircle
 10
-182.0
 20
585.0
 30
0.0
 40
10.5
100
AcDbArc
 50
38.24662
 51
141.75338
  0
ARC
  5
610
330
1A
100
AcDbEntity
  8
GUIDE
100
AcDbCircle
 10
-164.5
 20
585.0
 30
0.0
 40
10.5
100
AcDbArc
 50
38.24662
 51
141.75338
  0
ARC
  5
611
330
1A
100
AcDbEntity
  8
GUIDE
100
AcDbCircle
 10
-217.0
 20
585.0
 30
0.0
 40
10.5
100
AcDbArc
 50
38.24662
 51
141.75338
  0
ARC
  5
612
330
1A
100
AcDbEntity
  8
GUIDE
100
AcDbCircle
 10
-199.5
 20
585.0
 30
0.0
 40
10.5
100
AcDbArc
 50
38.24662
 51
141.75338
  0
ARC
  5
613
330
1A
100
AcDbEntity
  8
GUIDE
100
AcDbCircle
 10
-252.0
 20
585.0
 30
0.0
 40
10.5
100
AcDbArc
 50
38.24662
 51
141.75338
  0
ARC
  5
614
330
1A
100
AcDbEntity
  8
GUIDE
100
AcDbCircle
 10
-234.5
 20
585.0
 30
0.0
 40
10.5
100
AcDbArc
 50
38.24662
 51
141.75338
  0
ARC
  5
615
330
1A
100
AcDbEntity
  8
GUIDE
100
AcDbCircle
 10
-287.0
 20
585.0
 30
0.0
 40
10.5
100
AcDbArc
 50
38.24662
 51
141.75338
  0
ARC
  5
616
330
1A
100
AcDbEntity
  8
GUIDE
100
AcDbCircle
 10
-269.5
 20
585.0
 30
0.0
 40
10.5
100
AcDbArc
 50
38.24662
 51
141.75338
  0
ARC
  5
617
330
1A
100
AcDbEntity
  8
GUIDE
100
AcDbCircle
 10
-322.0
 20
585.0
 30
0.0
 40
10.5
100
AcDbArc
 50
38.24662
 51
141.75338
  0
ARC
  5
618
330
1A
100
AcDbEntity
  8
GUIDE
100
AcDbCircle
 10
-304.5
 20
585.0
 30
0.0
 40
10.5
100
AcDbArc
 50
38.24662
 51
141.75338
  0
ARC
  5
619
330
1A
100
AcDbEntity
  8
GUIDE
100
AcDbCircle
 10
-357.0
 20
585.0
 30
0.0
 40
10.5
100
AcDbArc
 50
38.24662
 51
141.75338
  0
ARC
  5
61A
330
1A
100
AcDbEntity
  8
GUIDE
100
AcDbCircle
 10
-339.5
 20
585.0
 30
0.0
 40
10.5
100
AcDbArc
 50
38.24662
 51
141.75338
  0
ARC
  5
61B
330
1A
100
AcDbEntity
  8
GUIDE
100
AcDbCircle
 10
-392.0
 20
585.0
 30
0.0
 40
10.5
100
AcDbArc
 50
38.24662
 51
141.75338
  0
ARC
  5
61C
330
1A
100
AcDbEntity
  8
GUIDE
100
AcDbCircle
 10
-374.5
 20
585.0
 30
0.0
 40
10.5
100
AcDbArc
 50
38.24662
 51
141.75338
  0
ARC
  5
61D
330
1A
100
AcDbEntity
  8
GUIDE
100
AcDbCircle
 10
-427.0
 20
585.0
 30
0.0
 40
10.5
100
AcDbArc
 50
38.24662
 51
141.75338
  0
ARC
  5
61E
330
1A
100
AcDbEntity
  8
GUIDE
100
AcDbCircle
 10
-409.5
 20
585.0
 30
0.0
 40
10.5
100
AcDbArc
 50
38.24662
 51
141.75338
  0
ARC
  5
61F
330
1A
100
AcDbEntity
  8
GUIDE
100
AcDbCircle
 10
-462.0
 20
585.0
 30
0.0
 40
10.5
100
AcDbArc
 50
38.24662
 51
141.75338
  0
ARC
  5
620
330
1A
100
AcDbEntity
  8
GUIDE
100
AcDbCircle
 10
-444.5
 20
585.0
 30
0.0
 40
10.5
100
AcDbArc
 50
38.24662
 51
141.75338
  0
ARC
  5
621
330
1A
100
AcDbEntity
  8
GUIDE
100
AcDbCircle
 10
-497.0
 20
585.0
 30
0.0
 40
10.5
100
AcDbArc
 50
38.24662
 51
141.75338
  0
ARC
  5
622
330
1A
100
AcDbEntity
  8
GUIDE
100
AcDbCircle
 10
-479.5
 20
585.0
 30
0.0
 40
10.5
100
AcDbArc
 50
38.24662
 51
141.75338
  0
ARC
  5
623
330
1A
100
AcDbEntity
  8
GUIDE
100
AcDbCircle
 10
-532.0
 20
585.0
 30
0.0
 40
10.5
100
AcDbArc
 50
38.24662
 51
141.75338
  0
ARC
  5
624
330
1A
100
AcDbEntity
  8
GUIDE
100
AcDbCircle
 10
-514.5
 20
585.0
 30
0.0
 40
10.5
100
AcDbArc
 50
38.24662
 51
141.75338
  0
ARC
  5
625
330
1A
100
AcDbEntity
  8
GUIDE
100
AcDbCircle
 10
-567.0
 20
585.0
 30
0.0
 40
10.5
100
AcDbArc
 50
38.24662
 51
141.75338
  0
ARC
  5
626
330
1A
100
AcDbEntity
  8
GUIDE
100
AcDbCircle
 10
-549.5
 20
585.0
 30
0.0
 40
10.5
100
AcDbArc
 50
38.24662
 51
141.75338
  0
ARC
  5
627
330
1A
100
AcDbEntity
  8
GUIDE
100
AcDbCircle
 10
-602.0
 20
585.0
 30
0.0
 40
10.5
100
AcDbArc
 50
38.24662
 51
141.75338
  0
ARC
  5
628
330
1A
100
AcDbEntity
  8
GUIDE
100
AcDbCircle
 10
-584.5
 20
585.0
 30
0.0
 40
10.5
100
AcDbArc
 50
38.24662
 51
141.75338
  0
ARC
  5
629
330
1A
100
AcDbEntity
  8
GUIDE
100
AcDbCircle
 10
-637.0
 20
585.0
 30
0.0
 40
10.5
100
AcDbArc
 50
38.24662
 51
141.75338
  0
ARC
  5
62A
330
1A
100
AcDbEntity
  8
GUIDE
100
AcDbCircle
 10
-619.5
 20
585.0
 30
0.0
 40
10.5
100
AcDbArc
 50
38.24662
 51
141.75338
  0
ARC
  5
62B
330
1A
100
AcDbEntity
  8
GUIDE
100
AcDbCircle
 10
-672.0
 20
585.0
 30
0.0
 40
10.5
100
AcDbArc
 50
38.24662
 51
141.75338
  0
ARC
  5
62C
330
1A
100
AcDbEntity
  8
GUIDE
100
AcDbCircle
 10
-654.5
 20
585.0
 30
0.0
 40
10.5
100
AcDbArc
 50
38.24662
 51
141.75338
  0
ARC
  5
62D
330
1A
100
AcDbEntity
  8
GUIDE
100
AcDbCircle
 10
-707.0
 20
585.0
 30
0.0
 40
10.5
100
AcDbArc
 50
38.24662
 51
141.75338
  0
ARC
  5
62E
330
1A
100
AcDbEntity
  8
GUIDE
100
AcDbCircle
 10
-689.5
 20
585.0
 30
0.0
 40
10.5
100
AcDbArc
 50
38.24662
 51
141.75338
  0
ARC
  5
62F
330
1A
100
AcDbEntity
  8
GUIDE
100
AcDbCircle
 10
-742.0
 20
585.0
 30
0.0
 40
10.5
100
AcDbArc
 50
38.24662
 51
141.75338
  0
ARC
  5
630
330
1A
100
AcDbEntity
  8
GUIDE
100
AcDbCircle
 10
-724.5
 20
585.0
 30
0.0
 40
10.5
100
AcDbArc
 50
38.24662
 51
141.75338
  0
ARC
  5
631
330
1A
100
AcDbEntity
  8
GUIDE
100
AcDbCircle
 10
-777.0
 20
585.0
 30
0.0
 40
10.5
100
AcDbArc
 50
38.24662
 51
141.75338
  0
ARC
  5
632
330
1A
100
AcDbEntity
  8
GUIDE
100
AcDbCircle
 10
-759.5
 20
585.0
 30
0.0
 40
10.5
100
AcDbArc
 50
38.24662
 51
141.75338
  0
ARC
  5
633
330
1A
100
AcDbEntity
  8
GUIDE
100
AcDbCircle
 10
-812.0
 20
585.0
 30
0.0
 40
10.5
100
AcDbArc
 50
38.24662
 51
141.75338
  0
ARC
  5
634
330
1A
100
AcDbEntity
  8
GUIDE
100
AcDbCircle
 10
-794.5
 20
585.0
 30
0.0
 40
10.5
100
AcDbArc
 50
38.24662
 51
141.75338
  0
ARC
  5
635
330
1A
100
AcDbEntity
  8
GUIDE
100
AcDbCircle
 10
-847.0
 20
585.0
 30
0.0
 40
10.5
100
AcDbArc
 50
38.24662
 51
141.75338
  0
ARC
  5
636
330
1A
100
AcDbEntity
  8
GUIDE
100
AcDbCircle
 10
-829.5
 20
585.0
 30
0.0
 40
10.5
100
AcDbArc
 50
38.24662
 51
141.75338
  0
ARC
  5
637
330
1A
100
AcDbEntity
  8
GUIDE
100
AcDbCircle
 10
-882.0
 20
585.0
 30
0.0
 40
10.5
100
AcDbArc
 50
38.24662
 51
141.75338
  0
ARC
  5
638
330
1A
100
AcDbEntity
  8
GUIDE
100
AcDbCircle
 10
-864.5
 20
585.0
 30
0.0
 40
10.5
100
AcDbArc
 50
38.24662
 51
141.75338
  0
ARC
  5
639
330
1A
100
AcDbEntity
  8
GUIDE
100
AcDbCircle
 10
-917.0
 20
585.0
 30
0.0
 40
10.5
100
AcDbArc
 50
38.24662
 51
141.75338
  0
ARC
  5
63A
330
1A
100
AcDbEntity
  8
GUIDE
100
AcDbCircle
 10
-899.5
 20
585.0
 30
0.0
 40
10.5
100
AcDbArc
 50
38.24662
 51
141.75338
  0
ARC
  5
63B
330
1A
100
AcDbEntity
  8
GUIDE
100
AcDbCircle
 10
-952.0
 20
585.0
 30
0.0
 40
10.5
100
AcDbArc
 50
38.24662
 51
141.75338
  0
ARC
  5
63C
330
1A
100
AcDbEntity
  8
GUIDE
100
AcDbCircle
 10
-934.5
 20
585.0
 30
0.0
 40
10.5
100
AcDbArc
 50
38.24662
 51
141.75338
  0
ARC
  5
63D
330
1A
100
AcDbEntity
  8
GUIDE
100
AcDbCircle
 10
-987.0
 20
585.0
 30
0.0
 40
10.5
100
AcDbArc
 50
38.24662
 51
141.75338
  0
ARC
  5
63E
330
1A
100
AcDbEntity
  8
GUIDE
100
AcDbCircle
 10
-969.5
 20
585.0
 30
0.0
 40
10.5
100
AcDbArc
 50
38.24662
 51
141.75338
  0
ARC
  5
63F
330
1A
100
AcDbEntity
  8
GUIDE
100
AcDbCircle
 10
-1022.0
 20
585.0
 30
0.0
 40
10.5
100
AcDbArc
 50
38.24662
 51
141.75338
  0
ARC
  5
640
330
1A
100
AcDbEntity
  8
GUIDE
100
AcDbCircle
 10
-1004.5
 20
585.0
 30
0.0
 40
10.5
100
AcDbArc
 50
38.24662
 51
141.75338
  0
LINE
  5
641
330
1A
100
AcDbEntity
  8
GUIDE
100
AcDbLine
 10
-1081.0
 20
561.0
 30
0.0
 11
-32.0
 21
561.0
 31
0.0
  0
LINE
  5
642
330
1A
100
AcDbEntity
  8
GUIDE
100
AcDbLine
 10
-1081.0
 20
571.0
 30
0.0
 11
-32.0
 21
571.0
 31
0.0
  0
LINE
  5
643
330
1A
100
AcDbEntity
  8
GUIDE
100
AcDbLine
 10
-1081.0
 20
591.5
 30
0.0
 11
-32.0
 21
591.5
 31
0.0
  0
ARC
  5
644
330
1A
100
AcDbEntity
  8
GUIDE
100
AcDbCircle
 10
-1039.5
 20
585.0
 30
0.0
 40
10.5
100
AcDbArc
 50
38.24662
 51
141.75338
  0
ARC
  5
645
330
1A
100
AcDbEntity
  8
GUIDE
100
AcDbCircle
 10
-1057.0
 20
585.0
 30
0.0
 40
10.5
100
AcDbArc
 50
38.24662
 51
141.75338
  0
ARC
  5
646
330
1A
100
AcDbEntity
  8
GUIDE
100
AcDbCircle
 10
-1074.5
 20
585.0
 30
0.0
 40
10.5
100
AcDbArc
 50
38.24662
 51
231.75338
  0
LINE
  5
647
330
1A
100
AcDbEntity
  8
GUIDE
100
AcDbLine
 10
-1081.0
 20
561.0
 30
0.0
 11
-1081.0
 21
591.5
 31
0.0
  0
LINE
  5
648
330
1A
100
AcDbEntity
  8
GUIDE
100
AcDbLine
 10
-32.0
 20
437.08
 30
0.0
 11
-32.0
 21
412.0
 31
0.0
  0
LINE
  5
649
330
1A
100
AcDbEntity
  8
GUIDE
100
AcDbLine
 10
-32.0
 20
463.4
 30
0.0
 11
-32.0
 21
444.6
 31
0.0
  0
LINE
  5
64A
330
1A
100
AcDbEntity
  8
GUIDE
100
AcDbLine
 10
-32.0
 20
489.72
 30
0.0
 11
-32.0
 21
470.92
 31
0.0
  0
LINE
  5
64B
330
1A
100
AcDbEntity
  8
GUIDE
100
AcDbLine
 10
-56.5
 20
501.0
 30
0.0
 11
-56.5
 21
485.92
 31
0.0
  0
LINE
  5
64C
330
1A
100
AcDbEntity
  8
GUIDE
100
AcDbLine
 10
-62.5
 20
501.0
 30
0.0
 11
-62.5
 21
485.92
 31
0.0
  0
LINE
  5
64D
330
1A
100
AcDbEntity
  8
GUIDE
100
AcDbLine
 10
-49.0
 20
425.76
 30
0.0
 11
-49.0
 21
433.28
 31
0.0
  0
LINE
  5
64E
330
1A
100
AcDbEntity
  8
GUIDE
100
AcDbLine
 10
-70.0
 20
425.76
 30
0.0
 11
-70.0
 21
433.28
 31
0.0
  0
LINE
  5
64F
330
1A
100
AcDbEntity
  8
GUIDE
100
AcDbLine
 10
-49.0
 20
425.76
 30
0.0
 11
-70.0
 21
425.76
 31
0.0
  0
LINE
  5
650
330
1A
100
AcDbEntity
  8
GUIDE
100
AcDbLine
 10
-49.0
 20
433.28
 30
0.0
 11
-70.0
 21
433.28
 31
0.0
  0
LINE
  5
651
330
1A
100
AcDbEntity
  8
GUIDE
100
AcDbLine
 10
-56.5
 20
448.32
 30
0.0
 11
-62.5
 21
448.32
 31
0.0
  0
LINE
  5
652
330
1A
100
AcDbEntity
  8
GUIDE
100
AcDbLine
 10
-56.5
 20
474.64
 30
0.0
 11
-62.5
 21
474.64
 31
0.0
  0
LINE
  5
653
330
1A
100
AcDbEntity
  8
GUIDE
100
AcDbLine
 10
-49.0
 20
459.6
 30
0.0
 11
-70.0
 21
459.6
 31
0.0
  0
LINE
  5
654
330
1A
100
AcDbEntity
  8
GUIDE
100
AcDbLine
 10
-49.0
 20
452.08
 30
0.0
 11
-70.0
 21
452.08
 31
0.0
  0
LINE
  5
655
330
1A
100
AcDbEntity
  8
GUIDE
100
AcDbLine
 10
-49.0
 20
478.4
 30
0.0
 11
-70.0
 21
478.4
 31
0.0
  0
LINE
  5
656
330
1A
100
AcDbEntity
  8
GUIDE
100
AcDbLine
 10
-49.0
 20
485.92
 30
0.0
 11
-70.0
 21
485.92
 31
0.0
  0
LINE
  5
657
330
1A
100
AcDbEntity
  8
GUIDE
100
AcDbLine
 10
-70.0
 20
478.4
 30
0.0
 11
-70.0
 21
485.92
 31
0.0
  0
LINE
  5
658
330
1A
100
AcDbEntity
  8
GUIDE
100
AcDbLine
 10
-70.0
 20
452.08
 30
0.0
 11
-70.0
 21
459.6
 31
0.0
  0
LINE
  5
659
330
1A
100
AcDbEntity
  8
GUIDE
100
AcDbLine
 10
-49.0
 20
452.08
 30
0.0
 11
-49.0
 21
459.6
 31
0.0
  0
LINE
  5
65A
330
1A
100
AcDbEntity
  8
GUIDE
100
AcDbLine
 10
-49.0
 20
478.4
 30
0.0
 11
-49.0
 21
485.92
 31
0.0
  0
LINE
  5
65B
330
1A
100
AcDbEntity
  8
GUIDE
100
AcDbLine
 10
-62.5
 20
478.4
 30
0.0
 11
-62.5
 21
459.6
 31
0.0
  0
LINE
  5
65C
330
1A
100
AcDbEntity
  8
GUIDE
100
AcDbLine
 10
-56.5
 20
478.4
 30
0.0
 11
-56.5
 21
459.6
 31
0.0
  0
LINE
  5
65D
330
1A
100
AcDbEntity
  8
GUIDE
100
AcDbLine
 10
-56.5
 20
452.08
 30
0.0
 11
-56.5
 21
433.28
 31
0.0
  0
LINE
  5
65E
330
1A
100
AcDbEntity
  8
GUIDE
100
AcDbLine
 10
-62.5
 20
452.08
 30
0.0
 11
-62.5
 21
433.28
 31
0.0
  0
LINE
  5
65F
330
1A
100
AcDbEntity
  8
GUIDE
100
AcDbLine
 10
-62.5
 20
425.76
 30
0.0
 11
-62.5
 21
422.0
 31
0.0
  0
LINE
  5
660
330
1A
100
AcDbEntity
  8
GUIDE
100
AcDbLine
 10
-56.5
 20
425.76
 30
0.0
 11
-56.5
 21
422.0
 31
0.0
  0
LINE
  5
661
330
1A
100
AcDbEntity
  8
GUIDE
100
AcDbLine
 10
-39.0
 20
497.24
 30
0.0
 11
-39.0
 21
501.0
 31
0.0
  0
LINE
  5
662
330
1A
100
AcDbEntity
  8
GUIDE
100
AcDbLine
 10
-45.0
 20
497.24
 30
0.0
 11
-45.0
 21
501.0
 31
0.0
  0
LINE
  5
663
330
1A
100
AcDbEntity
  8
GUIDE
100
AcDbLine
 10
-45.0
 20
470.92
 30
0.0
 11
-45.0
 21
489.72
 31
0.0
  0
LINE
  5
664
330
1A
100
AcDbEntity
  8
GUIDE
100
AcDbLine
 10
-39.0
 20
470.92
 30
0.0
 11
-39.0
 21
489.72
 31
0.0
  0
LINE
  5
665
330
1A
100
AcDbEntity
  8
GUIDE
100
AcDbLine
 10
-39.0
 20
444.6
 30
0.0
 11
-39.0
 21
463.4
 31
0.0
  0
LINE
  5
666
330
1A
100
AcDbEntity
  8
GUIDE
100
AcDbLine
 10
-45.0
 20
444.6
 30
0.0
 11
-45.0
 21
463.4
 31
0.0
  0
LINE
  5
667
330
1A
100
AcDbEntity
  8
GUIDE
100
AcDbLine
 10
-31.5
 20
444.6
 30
0.0
 11
-31.5
 21
437.08
 31
0.0
  0
LINE
  5
668
330
1A
100
AcDbEntity
  8
GUIDE
100
AcDbLine
 10
-31.5
 20
470.92
 30
0.0
 11
-31.5
 21
463.4
 31
0.0
  0
LINE
  5
669
330
1A
100
AcDbEntity
  8
GUIDE
100
AcDbLine
 10
-52.5
 20
470.92
 30
0.0
 11
-52.5
 21
463.4
 31
0.0
  0
LINE
  5
66A
330
1A
100
AcDbEntity
  8
GUIDE
100
AcDbLine
 10
-52.5
 20
444.6
 30
0.0
 11
-52.5
 21
437.08
 31
0.0
  0
LINE
  5
66B
330
1A
100
AcDbEntity
  8
GUIDE
100
AcDbLine
 10
-31.5
 20
437.08
 30
0.0
 11
-52.5
 21
437.08
 31
0.0
  0
LINE
  5
66C
330
1A
100
AcDbEntity
  8
GUIDE
100
AcDbLine
 10
-31.5
 20
444.6
 30
0.0
 11
-52.5
 21
444.6
 31
0.0
  0
LINE
  5
66D
330
1A
100
AcDbEntity
  8
GUIDE
100
AcDbLine
 10
-31.5
 20
470.92
 30
0.0
 11
-52.5
 21
470.92
 31
0.0
  0
LINE
  5
66E
330
1A
100
AcDbEntity
  8
GUIDE
100
AcDbLine
 10
-31.5
 20
463.4
 30
0.0
 11
-52.5
 21
463.4
 31
0.0
  0
LINE
  5
66F
330
1A
100
AcDbEntity
  8
GUIDE
100
AcDbLine
 10
-39.0
 20
448.36
 30
0.0
 11
-45.0
 21
448.36
 31
0.0
  0
LINE
  5
670
330
1A
100
AcDbEntity
  8
GUIDE
100
AcDbLine
 10
-39.0
 20
474.68
 30
0.0
 11
-45.0
 21
474.68
 31
0.0
  0
LINE
  5
671
330
1A
100
AcDbEntity
  8
GUIDE
100
AcDbLine
 10
-31.5
 20
489.72
 30
0.0
 11
-52.5
 21
489.72
 31
0.0
  0
LINE
  5
672
330
1A
100
AcDbEntity
  8
GUIDE
100
AcDbLine
 10
-31.5
 20
497.24
 30
0.0
 11
-52.5
 21
497.24
 31
0.0
  0
LINE
  5
673
330
1A
100
AcDbEntity
  8
GUIDE
100
AcDbLine
 10
-52.5
 20
497.24
 30
0.0
 11
-52.5
 21
489.72
 31
0.0
  0
LINE
  5
674
330
1A
100
AcDbEntity
  8
GUIDE
100
AcDbLine
 10
-31.5
 20
497.24
 30
0.0
 11
-31.5
 21
489.72
 31
0.0
  0
LINE
  5
675
330
1A
100
AcDbEntity
  8
GUIDE
100
AcDbLine
 10
-45.0
 20
422.0
 30
0.0
 11
-45.0
 21
437.08
 31
0.0
  0
LINE
  5
676
330
1A
100
AcDbEntity
  8
GUIDE
100
AcDbLine
 10
-39.0
 20
422.0
 30
0.0
 11
-39.0
 21
437.08
 31
0.0
  0
LINE
  5
677
330
1A
100
AcDbEntity
  8
GUIDE
100
AcDbLine
 10
-91.5
 20
501.0
 30
0.0
 11
-91.5
 21
485.92
 31
0.0
  0
LINE
  5
678
330
1A
100
AcDbEntity
  8
GUIDE
100
AcDbLine
 10
-97.5
 20
501.0
 30
0.0
 11
-97.5
 21
485.92
 31
0.0
  0
LINE
  5
679
330
1A
100
AcDbEntity
  8
GUIDE
100
AcDbLine
 10
-84.0
 20
425.76
 30
0.0
 11
-84.0
 21
433.28
 31
0.0
  0
LINE
  5
67A
330
1A
100
AcDbEntity
  8
GUIDE
100
AcDbLine
 10
-105.0
 20
425.76
 30
0.0
 11
-105.0
 21
433.28
 31
0.0
  0
LINE
  5
67B
330
1A
100
AcDbEntity
  8
GUIDE
100
AcDbLine
 10
-84.0
 20
425.76
 30
0.0
 11
-105.0
 21
425.76
 31
0.0
  0
LINE
  5
67C
330
1A
100
AcDbEntity
  8
GUIDE
100
AcDbLine
 10
-84.0
 20
433.28
 30
0.0
 11
-105.0
 21
433.28
 31
0.0
  0
LINE
  5
67D
330
1A
100
AcDbEntity
  8
GUIDE
100
AcDbLine
 10
-91.5
 20
448.32
 30
0.0
 11
-97.5
 21
448.32
 31
0.0
  0
LINE
  5
67E
330
1A
100
AcDbEntity
  8
GUIDE
100
AcDbLine
 10
-91.5
 20
474.64
 30
0.0
 11
-97.5
 21
474.64
 31
0.0
  0
LINE
  5
67F
330
1A
100
AcDbEntity
  8
GUIDE
100
AcDbLine
 10
-84.0
 20
459.6
 30
0.0
 11
-105.0
 21
459.6
 31
0.0
  0
LINE
  5
680
330
1A
100
AcDbEntity
  8
GUIDE
100
AcDbLine
 10
-84.0
 20
452.08
 30
0.0
 11
-105.0
 21
452.08
 31
0.0
  0
LINE
  5
681
330
1A
100
AcDbEntity
  8
GUIDE
100
AcDbLine
 10
-84.0
 20
478.4
 30
0.0
 11
-105.0
 21
478.4
 31
0.0
  0
LINE
  5
682
330
1A
100
AcDbEntity
  8
GUIDE
100
AcDbLine
 10
-84.0
 20
485.92
 30
0.0
 11
-105.0
 21
485.92
 31
0.0
  0
LINE
  5
683
330
1A
100
AcDbEntity
  8
GUIDE
100
AcDbLine
 10
-105.0
 20
478.4
 30
0.0
 11
-105.0
 21
485.92
 31
0.0
  0
LINE
  5
684
330
1A
100
AcDbEntity
  8
GUIDE
100
AcDbLine
 10
-105.0
 20
452.08
 30
0.0
 11
-105.0
 21
459.6
 31
0.0
  0
LINE
  5
685
330
1A
100
AcDbEntity
  8
GUIDE
100
AcDbLine
 10
-84.0
 20
452.08
 30
0.0
 11
-84.0
 21
459.6
 31
0.0
  0
LINE
  5
686
330
1A
100
AcDbEntity
  8
GUIDE
100
AcDbLine
 10
-84.0
 20
478.4
 30
0.0
 11
-84.0
 21
485.92
 31
0.0
  0
LINE
  5
687
330
1A
100
AcDbEntity
  8
GUIDE
100
AcDbLine
 10
-97.5
 20
478.4
 30
0.0
 11
-97.5
 21
459.6
 31
0.0
  0
LINE
  5
688
330
1A
100
AcDbEntity
  8
GUIDE
100
AcDbLine
 10
-91.5
 20
478.4
 30
0.0
 11
-91.5
 21
459.6
 31
0.0
  0
LINE
  5
689
330
1A
100
AcDbEntity
  8
GUIDE
100
AcDbLine
 10
-91.5
 20
452.08
 30
0.0
 11
-91.5
 21
433.28
 31
0.0
  0
LINE
  5
68A
330
1A
100
AcDbEntity
  8
GUIDE
100
AcDbLine
 10
-97.5
 20
452.08
 30
0.0
 11
-97.5
 21
433.28
 31
0.0
  0
LINE
  5
68B
330
1A
100
AcDbEntity
  8
GUIDE
100
AcDbLine
 10
-97.5
 20
425.76
 30
0.0
 11
-97.5
 21
422.0
 31
0.0
  0
LINE
  5
68C
330
1A
100
AcDbEntity
  8
GUIDE
100
AcDbLine
 10
-91.5
 20
425.76
 30
0.0
 11
-91.5
 21
422.0
 31
0.0
  0
LINE
  5
68D
330
1A
100
AcDbEntity
  8
GUIDE
100
AcDbLine
 10
-74.0
 20
497.24
 30
0.0
 11
-74.0
 21
501.0
 31
0.0
  0
LINE
  5
68E
330
1A
100
AcDbEntity
  8
GUIDE
100
AcDbLine
 10
-80.0
 20
497.24
 30
0.0
 11
-80.0
 21
501.0
 31
0.0
  0
LINE
  5
68F
330
1A
100
AcDbEntity
  8
GUIDE
100
AcDbLine
 10
-80.0
 20
470.92
 30
0.0
 11
-80.0
 21
489.72
 31
0.0
  0
LINE
  5
690
330
1A
100
AcDbEntity
  8
GUIDE
100
AcDbLine
 10
-74.0
 20
470.92
 30
0.0
 11
-74.0
 21
489.72
 31
0.0
  0
LINE
  5
691
330
1A
100
AcDbEntity
  8
GUIDE
100
AcDbLine
 10
-74.0
 20
444.6
 30
0.0
 11
-74.0
 21
463.4
 31
0.0
  0
LINE
  5
692
330
1A
100
AcDbEntity
  8
GUIDE
100
AcDbLine
 10
-80.0
 20
444.6
 30
0.0
 11
-80.0
 21
463.4
 31
0.0
  0
LINE
  5
693
330
1A
100
AcDbEntity
  8
GUIDE
100
AcDbLine
 10
-66.5
 20
444.6
 30
0.0
 11
-66.5
 21
437.08
 31
0.0
  0
LINE
  5
694
330
1A
100
AcDbEntity
  8
GUIDE
100
AcDbLine
 10
-66.5
 20
470.92
 30
0.0
 11
-66.5
 21
463.4
 31
0.0
  0
LINE
  5
695
330
1A
100
AcDbEntity
  8
GUIDE
100
AcDbLine
 10
-87.5
 20
470.92
 30
0.0
 11
-87.5
 21
463.4
 31
0.0
  0
LINE
  5
696
330
1A
100
AcDbEntity
  8
GUIDE
100
AcDbLine
 10
-87.5
 20
444.6
 30
0.0
 11
-87.5
 21
437.08
 31
0.0
  0
LINE
  5
697
330
1A
100
AcDbEntity
  8
GUIDE
100
AcDbLine
 10
-66.5
 20
437.08
 30
0.0
 11
-87.5
 21
437.08
 31
0.0
  0
LINE
  5
698
330
1A
100
AcDbEntity
  8
GUIDE
100
AcDbLine
 10
-66.5
 20
444.6
 30
0.0
 11
-87.5
 21
444.6
 31
0.0
  0
LINE
  5
699
330
1A
100
AcDbEntity
  8
GUIDE
100
AcDbLine
 10
-66.5
 20
470.92
 30
0.0
 11
-87.5
 21
470.92
 31
0.0
  0
LINE
  5
69A
330
1A
100
AcDbEntity
  8
GUIDE
100
AcDbLine
 10
-66.5
 20
463.4
 30
0.0
 11
-87.5
 21
463.4
 31
0.0
  0
LINE
  5
69B
330
1A
100
AcDbEntity
  8
GUIDE
100
AcDbLine
 10
-74.0
 20
448.36
 30
0.0
 11
-80.0
 21
448.36
 31
0.0
  0
LINE
  5
69C
330
1A
100
AcDbEntity
  8
GUIDE
100
AcDbLine
 10
-74.0
 20
474.68
 30
0.0
 11
-80.0
 21
474.68
 31
0.0
  0
LINE
  5
69D
330
1A
100
AcDbEntity
  8
GUIDE
100
AcDbLine
 10
-66.5
 20
489.72
 30
0.0
 11
-87.5
 21
489.72
 31
0.0
  0
LINE
  5
69E
330
1A
100
AcDbEntity
  8
GUIDE
100
AcDbLine
 10
-66.5
 20
497.24
 30
0.0
 11
-87.5
 21
497.24
 31
0.0
  0
LINE
  5
69F
330
1A
100
AcDbEntity
  8
GUIDE
100
AcDbLine
 10
-87.5
 20
497.24
 30
0.0
 11
-87.5
 21
489.72
 31
0.0
  0
LINE
  5
6A0
330
1A
100
AcDbEntity
  8
GUIDE
100
AcDbLine
 10
-66.5
 20
497.24
 30
0.0
 11
-66.5
 21
489.72
 31
0.0
  0
LINE
  5
6A1
330
1A
100
AcDbEntity
  8
GUIDE
100
AcDbLine
 10
-80.0
 20
422.0
 30
0.0
 11
-80.0
 21
437.08
 31
0.0
  0
LINE
  5
6A2
330
1A
100
AcDbEntity
  8
GUIDE
100
AcDbLine
 10
-74.0
 20
422.0
 30
0.0
 11
-74.0
 21
437.08
 31
0.0
  0
LINE
  5
6A3
330
1A
100
AcDbEntity
  8
GUIDE
100
AcDbLine
 10
-126.5
 20
501.0
 30
0.0
 11
-126.5
 21
485.92
 31
0.0
  0
LINE
  5
6A4
330
1A
100
AcDbEntity
  8
GUIDE
100
AcDbLine
 10
-132.5
 20
501.0
 30
0.0
 11
-132.5
 21
485.92
 31
0.0
  0
LINE
  5
6A5
330
1A
100
AcDbEntity
  8
GUIDE
100
AcDbLine
 10
-119.0
 20
425.76
 30
0.0
 11
-119.0
 21
433.28
 31
0.0
  0
LINE
  5
6A6
330
1A
100
AcDbEntity
  8
GUIDE
100
AcDbLine
 10
-140.0
 20
425.76
 30
0.0
 11
-140.0
 21
433.28
 31
0.0
  0
LINE
  5
6A7
330
1A
100
AcDbEntity
  8
GUIDE
100
AcDbLine
 10
-119.0
 20
425.76
 30
0.0
 11
-140.0
 21
425.76
 31
0.0
  0
LINE
  5
6A8
330
1A
100
AcDbEntity
  8
GUIDE
100
AcDbLine
 10
-119.0
 20
433.28
 30
0.0
 11
-140.0
 21
433.28
 31
0.0
  0
LINE
  5
6A9
330
1A
100
AcDbEntity
  8
GUIDE
100
AcDbLine
 10
-126.5
 20
448.32
 30
0.0
 11
-132.5
 21
448.32
 31
0.0
  0
LINE
  5
6AA
330
1A
100
AcDbEntity
  8
GUIDE
100
AcDbLine
 10
-126.5
 20
474.64
 30
0.0
 11
-132.5
 21
474.64
 31
0.0
  0
LINE
  5
6AB
330
1A
100
AcDbEntity
  8
GUIDE
100
AcDbLine
 10
-119.0
 20
459.6
 30
0.0
 11
-140.0
 21
459.6
 31
0.0
  0
LINE
  5
6AC
330
1A
100
AcDbEntity
  8
GUIDE
100
AcDbLine
 10
-119.0
 20
452.08
 30
0.0
 11
-140.0
 21
452.08
 31
0.0
  0
LINE
  5
6AD
330
1A
100
AcDbEntity
  8
GUIDE
100
AcDbLine
 10
-119.0
 20
478.4
 30
0.0
 11
-140.0
 21
478.4
 31
0.0
  0
LINE
  5
6AE
330
1A
100
AcDbEntity
  8
GUIDE
100
AcDbLine
 10
-119.0
 20
485.92
 30
0.0
 11
-140.0
 21
485.92
 31
0.0
  0
LINE
  5
6AF
330
1A
100
AcDbEntity
  8
GUIDE
100
AcDbLine
 10
-140.0
 20
478.4
 30
0.0
 11
-140.0
 21
485.92
 31
0.0
  0
LINE
  5
6B0
330
1A
100
AcDbEntity
  8
GUIDE
100
AcDbLine
 10
-140.0
 20
452.08
 30
0.0
 11
-140.0
 21
459.6
 31
0.0
  0
LINE
  5
6B1
330
1A
100
AcDbEntity
  8
GUIDE
100
AcDbLine
 10
-119.0
 20
452.08
 30
0.0
 11
-119.0
 21
459.6
 31
0.0
  0
LINE
  5
6B2
330
1A
100
AcDbEntity
  8
GUIDE
100
AcDbLine
 10
-119.0
 20
478.4
 30
0.0
 11
-119.0
 21
485.92
 31
0.0
  0
LINE
  5
6B3
330
1A
100
AcDbEntity
  8
GUIDE
100
AcDbLine
 10
-132.5
 20
478.4
 30
0.0
 11
-132.5
 21
459.6
 31
0.0
  0
LINE
  5
6B4
330
1A
100
AcDbEntity
  8
GUIDE
100
AcDbLine
 10
-126.5
 20
478.4
 30
0.0
 11
-126.5
 21
459.6
 31
0.0
  0
LINE
  5
6B5
330
1A
100
AcDbEntity
  8
GUIDE
100
AcDbLine
 10
-126.5
 20
452.08
 30
0.0
 11
-126.5
 21
433.28
 31
0.0
  0
LINE
  5
6B6
330
1A
100
AcDbEntity
  8
GUIDE
100
AcDbLine
 10
-132.5
 20
452.08
 30
0.0
 11
-132.5
 21
433.28
 31
0.0
  0
LINE
  5
6B7
330
1A
100
AcDbEntity
  8
GUIDE
100
AcDbLine
 10
-132.5
 20
425.76
 30
0.0
 11
-132.5
 21
422.0
 31
0.0
  0
LINE
  5
6B8
330
1A
100
AcDbEntity
  8
GUIDE
100
AcDbLine
 10
-126.5
 20
425.76
 30
0.0
 11
-126.5
 21
422.0
 31
0.0
  0
LINE
  5
6B9
330
1A
100
AcDbEntity
  8
GUIDE
100
AcDbLine
 10
-109.0
 20
497.24
 30
0.0
 11
-109.0
 21
501.0
 31
0.0
  0
LINE
  5
6BA
330
1A
100
AcDbEntity
  8
GUIDE
100
AcDbLine
 10
-115.0
 20
497.24
 30
0.0
 11
-115.0
 21
501.0
 31
0.0
  0
LINE
  5
6BB
330
1A
100
AcDbEntity
  8
GUIDE
100
AcDbLine
 10
-115.0
 20
470.92
 30
0.0
 11
-115.0
 21
489.72
 31
0.0
  0
LINE
  5
6BC
330
1A
100
AcDbEntity
  8
GUIDE
100
AcDbLine
 10
-109.0
 20
470.92
 30
0.0
 11
-109.0
 21
489.72
 31
0.0
  0
LINE
  5
6BD
330
1A
100
AcDbEntity
  8
GUIDE
100
AcDbLine
 10
-109.0
 20
444.6
 30
0.0
 11
-109.0
 21
463.4
 31
0.0
  0
LINE
  5
6BE
330
1A
100
AcDbEntity
  8
GUIDE
100
AcDbLine
 10
-115.0
 20
444.6
 30
0.0
 11
-115.0
 21
463.4
 31
0.0
  0
LINE
  5
6BF
330
1A
100
AcDbEntity
  8
GUIDE
100
AcDbLine
 10
-101.5
 20
444.6
 30
0.0
 11
-101.5
 21
437.08
 31
0.0
  0
LINE
  5
6C0
330
1A
100
AcDbEntity
  8
GUIDE
100
AcDbLine
 10
-101.5
 20
470.92
 30
0.0
 11
-101.5
 21
463.4
 31
0.0
  0
LINE
  5
6C1
330
1A
100
AcDbEntity
  8
GUIDE
100
AcDbLine
 10
-122.5
 20
470.92
 30
0.0
 11
-122.5
 21
463.4
 31
0.0
  0
LINE
  5
6C2
330
1A
100
AcDbEntity
  8
GUIDE
100
AcDbLine
 10
-122.5
 20
444.6
 30
0.0
 11
-122.5
 21
437.08
 31
0.0
  0
LINE
  5
6C3
330
1A
100
AcDbEntity
  8
GUIDE
100
AcDbLine
 10
-101.5
 20
437.08
 30
0.0
 11
-122.5
 21
437.08
 31
0.0
  0
LINE
  5
6C4
330
1A
100
AcDbEntity
  8
GUIDE
100
AcDbLine
 10
-101.5
 20
444.6
 30
0.0
 11
-122.5
 21
444.6
 31
0.0
  0
LINE
  5
6C5
330
1A
100
AcDbEntity
  8
GUIDE
100
AcDbLine
 10
-101.5
 20
470.92
 30
0.0
 11
-122.5
 21
470.92
 31
0.0
  0
LINE
  5
6C6
330
1A
100
AcDbEntity
  8
GUIDE
100
AcDbLine
 10
-101.5
 20
463.4
 30
0.0
 11
-122.5
 21
463.4
 31
0.0
  0
LINE
  5
6C7
330
1A
100
AcDbEntity
  8
GUIDE
100
AcDbLine
 10
-109.0
 20
448.36
 30
0.0
 11
-115.0
 21
448.36
 31
0.0
  0
LINE
  5
6C8
330
1A
100
AcDbEntity
  8
GUIDE
100
AcDbLine
 10
-109.0
 20
474.68
 30
0.0
 11
-115.0
 21
474.68
 31
0.0
  0
LINE
  5
6C9
330
1A
100
AcDbEntity
  8
GUIDE
100
AcDbLine
 10
-101.5
 20
489.72
 30
0.0
 11
-122.5
 21
489.72
 31
0.0
  0
LINE
  5
6CA
330
1A
100
AcDbEntity
  8
GUIDE
100
AcDbLine
 10
-101.5
 20
497.24
 30
0.0
 11
-122.5
 21
497.24
 31
0.0
  0
LINE
  5
6CB
330
1A
100
AcDbEntity
  8
GUIDE
100
AcDbLine
 10
-122.5
 20
497.24
 30
0.0
 11
-122.5
 21
489.72
 31
0.0
  0
LINE
  5
6CC
330
1A
100
AcDbEntity
  8
GUIDE
100
AcDbLine
 10
-101.5
 20
497.24
 30
0.0
 11
-101.5
 21
489.72
 31
0.0
  0
LINE
  5
6CD
330
1A
100
AcDbEntity
  8
GUIDE
100
AcDbLine
 10
-115.0
 20
422.0
 30
0.0
 11
-115.0
 21
437.08
 31
0.0
  0
LINE
  5
6CE
330
1A
100
AcDbEntity
  8
GUIDE
100
AcDbLine
 10
-109.0
 20
422.0
 30
0.0
 11
-109.0
 21
437.08
 31
0.0
  0
LINE
  5
6CF
330
1A
100
AcDbEntity
  8
GUIDE
100
AcDbLine
 10
-161.5
 20
501.0
 30
0.0
 11
-161.5
 21
485.92
 31
0.0
  0
LINE
  5
6D0
330
1A
100
AcDbEntity
  8
GUIDE
100
AcDbLine
 10
-167.5
 20
501.0
 30
0.0
 11
-167.5
 21
485.92
 31
0.0
  0
LINE
  5
6D1
330
1A
100
AcDbEntity
  8
GUIDE
100
AcDbLine
 10
-154.0
 20
425.76
 30
0.0
 11
-154.0
 21
433.28
 31
0.0
  0
LINE
  5
6D2
330
1A
100
AcDbEntity
  8
GUIDE
100
AcDbLine
 10
-175.0
 20
425.76
 30
0.0
 11
-175.0
 21
433.28
 31
0.0
  0
LINE
  5
6D3
330
1A
100
AcDbEntity
  8
GUIDE
100
AcDbLine
 10
-154.0
 20
425.76
 30
0.0
 11
-175.0
 21
425.76
 31
0.0
  0
LINE
  5
6D4
330
1A
100
AcDbEntity
  8
GUIDE
100
AcDbLine
 10
-154.0
 20
433.28
 30
0.0
 11
-175.0
 21
433.28
 31
0.0
  0
LINE
  5
6D5
330
1A
100
AcDbEntity
  8
GUIDE
100
AcDbLine
 10
-161.5
 20
448.32
 30
0.0
 11
-167.5
 21
448.32
 31
0.0
  0
LINE
  5
6D6
330
1A
100
AcDbEntity
  8
GUIDE
100
AcDbLine
 10
-161.5
 20
474.64
 30
0.0
 11
-167.5
 21
474.64
 31
0.0
  0
LINE
  5
6D7
330
1A
100
AcDbEntity
  8
GUIDE
100
AcDbLine
 10
-154.0
 20
459.6
 30
0.0
 11
-175.0
 21
459.6
 31
0.0
  0
LINE
  5
6D8
330
1A
100
AcDbEntity
  8
GUIDE
100
AcDbLine
 10
-154.0
 20
452.08
 30
0.0
 11
-175.0
 21
452.08
 31
0.0
  0
LINE
  5
6D9
330
1A
100
AcDbEntity
  8
GUIDE
100
AcDbLine
 10
-154.0
 20
478.4
 30
0.0
 11
-175.0
 21
478.4
 31
0.0
  0
LINE
  5
6DA
330
1A
100
AcDbEntity
  8
GUIDE
100
AcDbLine
 10
-154.0
 20
485.92
 30
0.0
 11
-175.0
 21
485.92
 31
0.0
  0
LINE
  5
6DB
330
1A
100
AcDbEntity
  8
GUIDE
100
AcDbLine
 10
-175.0
 20
478.4
 30
0.0
 11
-175.0
 21
485.92
 31
0.0
  0
LINE
  5
6DC
330
1A
100
AcDbEntity
  8
GUIDE
100
AcDbLine
 10
-175.0
 20
452.08
 30
0.0
 11
-175.0
 21
459.6
 31
0.0
  0
LINE
  5
6DD
330
1A
100
AcDbEntity
  8
GUIDE
100
AcDbLine
 10
-154.0
 20
452.08
 30
0.0
 11
-154.0
 21
459.6
 31
0.0
  0
LINE
  5
6DE
330
1A
100
AcDbEntity
  8
GUIDE
100
AcDbLine
 10
-154.0
 20
478.4
 30
0.0
 11
-154.0
 21
485.92
 31
0.0
  0
LINE
  5
6DF
330
1A
100
AcDbEntity
  8
GUIDE
100
AcDbLine
 10
-167.5
 20
478.4
 30
0.0
 11
-167.5
 21
459.6
 31
0.0
  0
LINE
  5
6E0
330
1A
100
AcDbEntity
  8
GUIDE
100
AcDbLine
 10
-161.5
 20
478.4
 30
0.0
 11
-161.5
 21
459.6
 31
0.0
  0
LINE
  5
6E1
330
1A
100
AcDbEntity
  8
GUIDE
100
AcDbLine
 10
-161.5
 20
452.08
 30
0.0
 11
-161.5
 21
433.28
 31
0.0
  0
LINE
  5
6E2
330
1A
100
AcDbEntity
  8
GUIDE
100
AcDbLine
 10
-167.5
 20
452.08
 30
0.0
 11
-167.5
 21
433.28
 31
0.0
  0
LINE
  5
6E3
330
1A
100
AcDbEntity
  8
GUIDE
100
AcDbLine
 10
-167.5
 20
425.76
 30
0.0
 11
-167.5
 21
422.0
 31
0.0
  0
LINE
  5
6E4
330
1A
100
AcDbEntity
  8
GUIDE
100
AcDbLine
 10
-161.5
 20
425.76
 30
0.0
 11
-161.5
 21
422.0
 31
0.0
  0
LINE
  5
6E5
330
1A
100
AcDbEntity
  8
GUIDE
100
AcDbLine
 10
-144.0
 20
497.24
 30
0.0
 11
-144.0
 21
501.0
 31
0.0
  0
LINE
  5
6E6
330
1A
100
AcDbEntity
  8
GUIDE
100
AcDbLine
 10
-150.0
 20
497.24
 30
0.0
 11
-150.0
 21
501.0
 31
0.0
  0
LINE
  5
6E7
330
1A
100
AcDbEntity
  8
GUIDE
100
AcDbLine
 10
-150.0
 20
470.92
 30
0.0
 11
-150.0
 21
489.72
 31
0.0
  0
LINE
  5
6E8
330
1A
100
AcDbEntity
  8
GUIDE
100
AcDbLine
 10
-144.0
 20
470.92
 30
0.0
 11
-144.0
 21
489.72
 31
0.0
  0
LINE
  5
6E9
330
1A
100
AcDbEntity
  8
GUIDE
100
AcDbLine
 10
-144.0
 20
444.6
 30
0.0
 11
-144.0
 21
463.4
 31
0.0
  0
LINE
  5
6EA
330
1A
100
AcDbEntity
  8
GUIDE
100
AcDbLine
 10
-150.0
 20
444.6
 30
0.0
 11
-150.0
 21
463.4
 31
0.0
  0
LINE
  5
6EB
330
1A
100
AcDbEntity
  8
GUIDE
100
AcDbLine
 10
-136.5
 20
444.6
 30
0.0
 11
-136.5
 21
437.08
 31
0.0
  0
LINE
  5
6EC
330
1A
100
AcDbEntity
  8
GUIDE
100
AcDbLine
 10
-136.5
 20
470.92
 30
0.0
 11
-136.5
 21
463.4
 31
0.0
  0
LINE
  5
6ED
330
1A
100
AcDbEntity
  8
GUIDE
100
AcDbLine
 10
-157.5
 20
470.92
 30
0.0
 11
-157.5
 21
463.4
 31
0.0
  0
LINE
  5
6EE
330
1A
100
AcDbEntity
  8
GUIDE
100
AcDbLine
 10
-157.5
 20
444.6
 30
0.0
 11
-157.5
 21
437.08
 31
0.0
  0
LINE
  5
6EF
330
1A
100
AcDbEntity
  8
GUIDE
100
AcDbLine
 10
-136.5
 20
437.08
 30
0.0
 11
-157.5
 21
437.08
 31
0.0
  0
LINE
  5
6F0
330
1A
100
AcDbEntity
  8
GUIDE
100
AcDbLine
 10
-136.5
 20
444.6
 30
0.0
 11
-157.5
 21
444.6
 31
0.0
  0
LINE
  5
6F1
330
1A
100
AcDbEntity
  8
GUIDE
100
AcDbLine
 10
-136.5
 20
470.92
 30
0.0
 11
-157.5
 21
470.92
 31
0.0
  0
LINE
  5
6F2
330
1A
100
AcDbEntity
  8
GUIDE
100
AcDbLine
 10
-136.5
 20
463.4
 30
0.0
 11
-157.5
 21
463.4
 31
0.0
  0
LINE
  5
6F3
330
1A
100
AcDbEntity
  8
GUIDE
100
AcDbLine
 10
-144.0
 20
448.36
 30
0.0
 11
-150.0
 21
448.36
 31
0.0
  0
LINE
  5
6F4
330
1A
100
AcDbEntity
  8
GUIDE
100
AcDbLine
 10
-144.0
 20
474.68
 30
0.0
 11
-150.0
 21
474.68
 31
0.0
  0
LINE
  5
6F5
330
1A
100
AcDbEntity
  8
GUIDE
100
AcDbLine
 10
-136.5
 20
489.72
 30
0.0
 11
-157.5
 21
489.72
 31
0.0
  0
LINE
  5
6F6
330
1A
100
AcDbEntity
  8
GUIDE
100
AcDbLine
 10
-136.5
 20
497.24
 30
0.0
 11
-157.5
 21
497.24
 31
0.0
  0
LINE
  5
6F7
330
1A
100
AcDbEntity
  8
GUIDE
100
AcDbLine
 10
-157.5
 20
497.24
 30
0.0
 11
-157.5
 21
489.72
 31
0.0
  0
LINE
  5
6F8
330
1A
100
AcDbEntity
  8
GUIDE
100
AcDbLine
 10
-136.5
 20
497.24
 30
0.0
 11
-136.5
 21
489.72
 31
0.0
  0
LINE
  5
6F9
330
1A
100
AcDbEntity
  8
GUIDE
100
AcDbLine
 10
-150.0
 20
422.0
 30
0.0
 11
-150.0
 21
437.08
 31
0.0
  0
LINE
  5
6FA
330
1A
100
AcDbEntity
  8
GUIDE
100
AcDbLine
 10
-144.0
 20
422.0
 30
0.0
 11
-144.0
 21
437.08
 31
0.0
  0
LINE
  5
6FB
330
1A
100
AcDbEntity
  8
GUIDE
100
AcDbLine
 10
-196.5
 20
501.0
 30
0.0
 11
-196.5
 21
485.92
 31
0.0
  0
LINE
  5
6FC
330
1A
100
AcDbEntity
  8
GUIDE
100
AcDbLine
 10
-202.5
 20
501.0
 30
0.0
 11
-202.5
 21
485.92
 31
0.0
  0
LINE
  5
6FD
330
1A
100
AcDbEntity
  8
GUIDE
100
AcDbLine
 10
-189.0
 20
425.76
 30
0.0
 11
-189.0
 21
433.28
 31
0.0
  0
LINE
  5
6FE
330
1A
100
AcDbEntity
  8
GUIDE
100
AcDbLine
 10
-210.0
 20
425.76
 30
0.0
 11
-210.0
 21
433.28
 31
0.0
  0
LINE
  5
6FF
330
1A
100
AcDbEntity
  8
GUIDE
100
AcDbLine
 10
-189.0
 20
425.76
 30
0.0
 11
-210.0
 21
425.76
 31
0.0
  0
LINE
  5
700
330
1A
100
AcDbEntity
  8
GUIDE
100
AcDbLine
 10
-189.0
 20
433.28
 30
0.0
 11
-210.0
 21
433.28
 31
0.0
  0
LINE
  5
701
330
1A
100
AcDbEntity
  8
GUIDE
100
AcDbLine
 10
-196.5
 20
448.32
 30
0.0
 11
-202.5
 21
448.32
 31
0.0
  0
LINE
  5
702
330
1A
100
AcDbEntity
  8
GUIDE
100
AcDbLine
 10
-196.5
 20
474.64
 30
0.0
 11
-202.5
 21
474.64
 31
0.0
  0
LINE
  5
703
330
1A
100
AcDbEntity
  8
GUIDE
100
AcDbLine
 10
-189.0
 20
459.6
 30
0.0
 11
-210.0
 21
459.6
 31
0.0
  0
LINE
  5
704
330
1A
100
AcDbEntity
  8
GUIDE
100
AcDbLine
 10
-189.0
 20
452.08
 30
0.0
 11
-210.0
 21
452.08
 31
0.0
  0
LINE
  5
705
330
1A
100
AcDbEntity
  8
GUIDE
100
AcDbLine
 10
-189.0
 20
478.4
 30
0.0
 11
-210.0
 21
478.4
 31
0.0
  0
LINE
  5
706
330
1A
100
AcDbEntity
  8
GUIDE
100
AcDbLine
 10
-189.0
 20
485.92
 30
0.0
 11
-210.0
 21
485.92
 31
0.0
  0
LINE
  5
707
330
1A
100
AcDbEntity
  8
GUIDE
100
AcDbLine
 10
-210.0
 20
478.4
 30
0.0
 11
-210.0
 21
485.92
 31
0.0
  0
LINE
  5
708
330
1A
100
AcDbEntity
  8
GUIDE
100
AcDbLine
 10
-210.0
 20
452.08
 30
0.0
 11
-210.0
 21
459.6
 31
0.0
  0
LINE
  5
709
330
1A
100
AcDbEntity
  8
GUIDE
100
AcDbLine
 10
-189.0
 20
452.08
 30
0.0
 11
-189.0
 21
459.6
 31
0.0
  0
LINE
  5
70A
330
1A
100
AcDbEntity
  8
GUIDE
100
AcDbLine
 10
-189.0
 20
478.4
 30
0.0
 11
-189.0
 21
485.92
 31
0.0
  0
LINE
  5
70B
330
1A
100
AcDbEntity
  8
GUIDE
100
AcDbLine
 10
-202.5
 20
478.4
 30
0.0
 11
-202.5
 21
459.6
 31
0.0
  0
LINE
  5
70C
330
1A
100
AcDbEntity
  8
GUIDE
100
AcDbLine
 10
-196.5
 20
478.4
 30
0.0
 11
-196.5
 21
459.6
 31
0.0
  0
LINE
  5
70D
330
1A
100
AcDbEntity
  8
GUIDE
100
AcDbLine
 10
-196.5
 20
452.08
 30
0.0
 11
-196.5
 21
433.28
 31
0.0
  0
LINE
  5
70E
330
1A
100
AcDbEntity
  8
GUIDE
100
AcDbLine
 10
-202.5
 20
452.08
 30
0.0
 11
-202.5
 21
433.28
 31
0.0
  0
LINE
  5
70F
330
1A
100
AcDbEntity
  8
GUIDE
100
AcDbLine
 10
-202.5
 20
425.76
 30
0.0
 11
-202.5
 21
422.0
 31
0.0
  0
LINE
  5
710
330
1A
100
AcDbEntity
  8
GUIDE
100
AcDbLine
 10
-196.5
 20
425.76
 30
0.0
 11
-196.5
 21
422.0
 31
0.0
  0
LINE
  5
711
330
1A
100
AcDbEntity
  8
GUIDE
100
AcDbLine
 10
-179.0
 20
497.24
 30
0.0
 11
-179.0
 21
501.0
 31
0.0
  0
LINE
  5
712
330
1A
100
AcDbEntity
  8
GUIDE
100
AcDbLine
 10
-185.0
 20
497.24
 30
0.0
 11
-185.0
 21
501.0
 31
0.0
  0
LINE
  5
713
330
1A
100
AcDbEntity
  8
GUIDE
100
AcDbLine
 10
-185.0
 20
470.92
 30
0.0
 11
-185.0
 21
489.72
 31
0.0
  0
LINE
  5
714
330
1A
100
AcDbEntity
  8
GUIDE
100
AcDbLine
 10
-179.0
 20
470.92
 30
0.0
 11
-179.0
 21
489.72
 31
0.0
  0
LINE
  5
715
330
1A
100
AcDbEntity
  8
GUIDE
100
AcDbLine
 10
-179.0
 20
444.6
 30
0.0
 11
-179.0
 21
463.4
 31
0.0
  0
LINE
  5
716
330
1A
100
AcDbEntity
  8
GUIDE
100
AcDbLine
 10
-185.0
 20
444.6
 30
0.0
 11
-185.0
 21
463.4
 31
0.0
  0
LINE
  5
717
330
1A
100
AcDbEntity
  8
GUIDE
100
AcDbLine
 10
-171.5
 20
444.6
 30
0.0
 11
-171.5
 21
437.08
 31
0.0
  0
LINE
  5
718
330
1A
100
AcDbEntity
  8
GUIDE
100
AcDbLine
 10
-171.5
 20
470.92
 30
0.0
 11
-171.5
 21
463.4
 31
0.0
  0
LINE
  5
719
330
1A
100
AcDbEntity
  8
GUIDE
100
AcDbLine
 10
-192.5
 20
470.92
 30
0.0
 11
-192.5
 21
463.4
 31
0.0
  0
LINE
  5
71A
330
1A
100
AcDbEntity
  8
GUIDE
100
AcDbLine
 10
-192.5
 20
444.6
 30
0.0
 11
-192.5
 21
437.08
 31
0.0
  0
LINE
  5
71B
330
1A
100
AcDbEntity
  8
GUIDE
100
AcDbLine
 10
-171.5
 20
437.08
 30
0.0
 11
-192.5
 21
437.08
 31
0.0
  0
LINE
  5
71C
330
1A
100
AcDbEntity
  8
GUIDE
100
AcDbLine
 10
-171.5
 20
444.6
 30
0.0
 11
-192.5
 21
444.6
 31
0.0
  0
LINE
  5
71D
330
1A
100
AcDbEntity
  8
GUIDE
100
AcDbLine
 10
-171.5
 20
470.92
 30
0.0
 11
-192.5
 21
470.92
 31
0.0
  0
LINE
  5
71E
330
1A
100
AcDbEntity
  8
GUIDE
100
AcDbLine
 10
-171.5
 20
463.4
 30
0.0
 11
-192.5
 21
463.4
 31
0.0
  0
LINE
  5
71F
330
1A
100
AcDbEntity
  8
GUIDE
100
AcDbLine
 10
-179.0
 20
448.36
 30
0.0
 11
-185.0
 21
448.36
 31
0.0
  0
LINE
  5
720
330
1A
100
AcDbEntity
  8
GUIDE
100
AcDbLine
 10
-179.0
 20
474.68
 30
0.0
 11
-185.0
 21
474.68
 31
0.0
  0
LINE
  5
721
330
1A
100
AcDbEntity
  8
GUIDE
100
AcDbLine
 10
-171.5
 20
489.72
 30
0.0
 11
-192.5
 21
489.72
 31
0.0
  0
LINE
  5
722
330
1A
100
AcDbEntity
  8
GUIDE
100
AcDbLine
 10
-171.5
 20
497.24
 30
0.0
 11
-192.5
 21
497.24
 31
0.0
  0
LINE
  5
723
330
1A
100
AcDbEntity
  8
GUIDE
100
AcDbLine
 10
-192.5
 20
497.24
 30
0.0
 11
-192.5
 21
489.72
 31
0.0
  0
LINE
  5
724
330
1A
100
AcDbEntity
  8
GUIDE
100
AcDbLine
 10
-171.5
 20
497.24
 30
0.0
 11
-171.5
 21
489.72
 31
0.0
  0
LINE
  5
725
330
1A
100
AcDbEntity
  8
GUIDE
100
AcDbLine
 10
-185.0
 20
422.0
 30
0.0
 11
-185.0
 21
437.08
 31
0.0
  0
LINE
  5
726
330
1A
100
AcDbEntity
  8
GUIDE
100
AcDbLine
 10
-179.0
 20
422.0
 30
0.0
 11
-179.0
 21
437.08
 31
0.0
  0
LINE
  5
727
330
1A
100
AcDbEntity
  8
GUIDE
100
AcDbLine
 10
-231.5
 20
501.0
 30
0.0
 11
-231.5
 21
485.92
 31
0.0
  0
LINE
  5
728
330
1A
100
AcDbEntity
  8
GUIDE
100
AcDbLine
 10
-237.5
 20
501.0
 30
0.0
 11
-237.5
 21
485.92
 31
0.0
  0
LINE
  5
729
330
1A
100
AcDbEntity
  8
GUIDE
100
AcDbLine
 10
-224.0
 20
425.76
 30
0.0
 11
-224.0
 21
433.28
 31
0.0
  0
LINE
  5
72A
330
1A
100
AcDbEntity
  8
GUIDE
100
AcDbLine
 10
-245.0
 20
425.76
 30
0.0
 11
-245.0
 21
433.28
 31
0.0
  0
LINE
  5
72B
330
1A
100
AcDbEntity
  8
GUIDE
100
AcDbLine
 10
-224.0
 20
425.76
 30
0.0
 11
-245.0
 21
425.76
 31
0.0
  0
LINE
  5
72C
330
1A
100
AcDbEntity
  8
GUIDE
100
AcDbLine
 10
-224.0
 20
433.28
 30
0.0
 11
-245.0
 21
433.28
 31
0.0
  0
LINE
  5
72D
330
1A
100
AcDbEntity
  8
GUIDE
100
AcDbLine
 10
-231.5
 20
448.32
 30
0.0
 11
-237.5
 21
448.32
 31
0.0
  0
LINE
  5
72E
330
1A
100
AcDbEntity
  8
GUIDE
100
AcDbLine
 10
-231.5
 20
474.64
 30
0.0
 11
-237.5
 21
474.64
 31
0.0
  0
LINE
  5
72F
330
1A
100
AcDbEntity
  8
GUIDE
100
AcDbLine
 10
-224.0
 20
459.6
 30
0.0
 11
-245.0
 21
459.6
 31
0.0
  0
LINE
  5
730
330
1A
100
AcDbEntity
  8
GUIDE
100
AcDbLine
 10
-224.0
 20
452.08
 30
0.0
 11
-245.0
 21
452.08
 31
0.0
  0
LINE
  5
731
330
1A
100
AcDbEntity
  8
GUIDE
100
AcDbLine
 10
-224.0
 20
478.4
 30
0.0
 11
-245.0
 21
478.4
 31
0.0
  0
LINE
  5
732
330
1A
100
AcDbEntity
  8
GUIDE
100
AcDbLine
 10
-224.0
 20
485.92
 30
0.0
 11
-245.0
 21
485.92
 31
0.0
  0
LINE
  5
733
330
1A
100
AcDbEntity
  8
GUIDE
100
AcDbLine
 10
-245.0
 20
478.4
 30
0.0
 11
-245.0
 21
485.92
 31
0.0
  0
LINE
  5
734
330
1A
100
AcDbEntity
  8
GUIDE
100
AcDbLine
 10
-245.0
 20
452.08
 30
0.0
 11
-245.0
 21
459.6
 31
0.0
  0
LINE
  5
735
330
1A
100
AcDbEntity
  8
GUIDE
100
AcDbLine
 10
-224.0
 20
452.08
 30
0.0
 11
-224.0
 21
459.6
 31
0.0
  0
LINE
  5
736
330
1A
100
AcDbEntity
  8
GUIDE
100
AcDbLine
 10
-224.0
 20
478.4
 30
0.0
 11
-224.0
 21
485.92
 31
0.0
  0
LINE
  5
737
330
1A
100
AcDbEntity
  8
GUIDE
100
AcDbLine
 10
-237.5
 20
478.4
 30
0.0
 11
-237.5
 21
459.6
 31
0.0
  0
LINE
  5
738
330
1A
100
AcDbEntity
  8
GUIDE
100
AcDbLine
 10
-231.5
 20
478.4
 30
0.0
 11
-231.5
 21
459.6
 31
0.0
  0
LINE
  5
739
330
1A
100
AcDbEntity
  8
GUIDE
100
AcDbLine
 10
-231.5
 20
452.08
 30
0.0
 11
-231.5
 21
433.28
 31
0.0
  0
LINE
  5
73A
330
1A
100
AcDbEntity
  8
GUIDE
100
AcDbLine
 10
-237.5
 20
452.08
 30
0.0
 11
-237.5
 21
433.28
 31
0.0
  0
LINE
  5
73B
330
1A
100
AcDbEntity
  8
GUIDE
100
AcDbLine
 10
-237.5
 20
425.76
 30
0.0
 11
-237.5
 21
422.0
 31
0.0
  0
LINE
  5
73C
330
1A
100
AcDbEntity
  8
GUIDE
100
AcDbLine
 10
-231.5
 20
425.76
 30
0.0
 11
-231.5
 21
422.0
 31
0.0
  0
LINE
  5
73D
330
1A
100
AcDbEntity
  8
GUIDE
100
AcDbLine
 10
-214.0
 20
497.24
 30
0.0
 11
-214.0
 21
501.0
 31
0.0
  0
LINE
  5
73E
330
1A
100
AcDbEntity
  8
GUIDE
100
AcDbLine
 10
-220.0
 20
497.24
 30
0.0
 11
-220.0
 21
501.0
 31
0.0
  0
LINE
  5
73F
330
1A
100
AcDbEntity
  8
GUIDE
100
AcDbLine
 10
-220.0
 20
470.92
 30
0.0
 11
-220.0
 21
489.72
 31
0.0
  0
LINE
  5
740
330
1A
100
AcDbEntity
  8
GUIDE
100
AcDbLine
 10
-214.0
 20
470.92
 30
0.0
 11
-214.0
 21
489.72
 31
0.0
  0
LINE
  5
741
330
1A
100
AcDbEntity
  8
GUIDE
100
AcDbLine
 10
-214.0
 20
444.6
 30
0.0
 11
-214.0
 21
463.4
 31
0.0
  0
LINE
  5
742
330
1A
100
AcDbEntity
  8
GUIDE
100
AcDbLine
 10
-220.0
 20
444.6
 30
0.0
 11
-220.0
 21
463.4
 31
0.0
  0
LINE
  5
743
330
1A
100
AcDbEntity
  8
GUIDE
100
AcDbLine
 10
-206.5
 20
444.6
 30
0.0
 11
-206.5
 21
437.08
 31
0.0
  0
LINE
  5
744
330
1A
100
AcDbEntity
  8
GUIDE
100
AcDbLine
 10
-206.5
 20
470.92
 30
0.0
 11
-206.5
 21
463.4
 31
0.0
  0
LINE
  5
745
330
1A
100
AcDbEntity
  8
GUIDE
100
AcDbLine
 10
-227.5
 20
470.92
 30
0.0
 11
-227.5
 21
463.4
 31
0.0
  0
LINE
  5
746
330
1A
100
AcDbEntity
  8
GUIDE
100
AcDbLine
 10
-227.5
 20
444.6
 30
0.0
 11
-227.5
 21
437.08
 31
0.0
  0
LINE
  5
747
330
1A
100
AcDbEntity
  8
GUIDE
100
AcDbLine
 10
-206.5
 20
437.08
 30
0.0
 11
-227.5
 21
437.08
 31
0.0
  0
LINE
  5
748
330
1A
100
AcDbEntity
  8
GUIDE
100
AcDbLine
 10
-206.5
 20
444.6
 30
0.0
 11
-227.5
 21
444.6
 31
0.0
  0
LINE
  5
749
330
1A
100
AcDbEntity
  8
GUIDE
100
AcDbLine
 10
-206.5
 20
470.92
 30
0.0
 11
-227.5
 21
470.92
 31
0.0
  0
LINE
  5
74A
330
1A
100
AcDbEntity
  8
GUIDE
100
AcDbLine
 10
-206.5
 20
463.4
 30
0.0
 11
-227.5
 21
463.4
 31
0.0
  0
LINE
  5
74B
330
1A
100
AcDbEntity
  8
GUIDE
100
AcDbLine
 10
-214.0
 20
448.36
 30
0.0
 11
-220.0
 21
448.36
 31
0.0
  0
LINE
  5
74C
330
1A
100
AcDbEntity
  8
GUIDE
100
AcDbLine
 10
-214.0
 20
474.68
 30
0.0
 11
-220.0
 21
474.68
 31
0.0
  0
LINE
  5
74D
330
1A
100
AcDbEntity
  8
GUIDE
100
AcDbLine
 10
-206.5
 20
489.72
 30
0.0
 11
-227.5
 21
489.72
 31
0.0
  0
LINE
  5
74E
330
1A
100
AcDbEntity
  8
GUIDE
100
AcDbLine
 10
-206.5
 20
497.24
 30
0.0
 11
-227.5
 21
497.24
 31
0.0
  0
LINE
  5
74F
330
1A
100
AcDbEntity
  8
GUIDE
100
AcDbLine
 10
-227.5
 20
497.24
 30
0.0
 11
-227.5
 21
489.72
 31
0.0
  0
LINE
  5
750
330
1A
100
AcDbEntity
  8
GUIDE
100
AcDbLine
 10
-206.5
 20
497.24
 30
0.0
 11
-206.5
 21
489.72
 31
0.0
  0
LINE
  5
751
330
1A
100
AcDbEntity
  8
GUIDE
100
AcDbLine
 10
-220.0
 20
422.0
 30
0.0
 11
-220.0
 21
437.08
 31
0.0
  0
LINE
  5
752
330
1A
100
AcDbEntity
  8
GUIDE
100
AcDbLine
 10
-214.0
 20
422.0
 30
0.0
 11
-214.0
 21
437.08
 31
0.0
  0
LINE
  5
753
330
1A
100
AcDbEntity
  8
GUIDE
100
AcDbLine
 10
-266.5
 20
501.0
 30
0.0
 11
-266.5
 21
485.92
 31
0.0
  0
LINE
  5
754
330
1A
100
AcDbEntity
  8
GUIDE
100
AcDbLine
 10
-272.5
 20
501.0
 30
0.0
 11
-272.5
 21
485.92
 31
0.0
  0
LINE
  5
755
330
1A
100
AcDbEntity
  8
GUIDE
100
AcDbLine
 10
-259.0
 20
425.76
 30
0.0
 11
-259.0
 21
433.28
 31
0.0
  0
LINE
  5
756
330
1A
100
AcDbEntity
  8
GUIDE
100
AcDbLine
 10
-280.0
 20
425.76
 30
0.0
 11
-280.0
 21
433.28
 31
0.0
  0
LINE
  5
757
330
1A
100
AcDbEntity
  8
GUIDE
100
AcDbLine
 10
-259.0
 20
425.76
 30
0.0
 11
-280.0
 21
425.76
 31
0.0
  0
LINE
  5
758
330
1A
100
AcDbEntity
  8
GUIDE
100
AcDbLine
 10
-259.0
 20
433.28
 30
0.0
 11
-280.0
 21
433.28
 31
0.0
  0
LINE
  5
759
330
1A
100
AcDbEntity
  8
GUIDE
100
AcDbLine
 10
-266.5
 20
448.32
 30
0.0
 11
-272.5
 21
448.32
 31
0.0
  0
LINE
  5
75A
330
1A
100
AcDbEntity
  8
GUIDE
100
AcDbLine
 10
-266.5
 20
474.64
 30
0.0
 11
-272.5
 21
474.64
 31
0.0
  0
LINE
  5
75B
330
1A
100
AcDbEntity
  8
GUIDE
100
AcDbLine
 10
-259.0
 20
459.6
 30
0.0
 11
-280.0
 21
459.6
 31
0.0
  0
LINE
  5
75C
330
1A
100
AcDbEntity
  8
GUIDE
100
AcDbLine
 10
-259.0
 20
452.08
 30
0.0
 11
-280.0
 21
452.08
 31
0.0
  0
LINE
  5
75D
330
1A
100
AcDbEntity
  8
GUIDE
100
AcDbLine
 10
-259.0
 20
478.4
 30
0.0
 11
-280.0
 21
478.4
 31
0.0
  0
LINE
  5
75E
330
1A
100
AcDbEntity
  8
GUIDE
100
AcDbLine
 10
-259.0
 20
485.92
 30
0.0
 11
-280.0
 21
485.92
 31
0.0
  0
LINE
  5
75F
330
1A
100
AcDbEntity
  8
GUIDE
100
AcDbLine
 10
-280.0
 20
478.4
 30
0.0
 11
-280.0
 21
485.92
 31
0.0
  0
LINE
  5
760
330
1A
100
AcDbEntity
  8
GUIDE
100
AcDbLine
 10
-280.0
 20
452.08
 30
0.0
 11
-280.0
 21
459.6
 31
0.0
  0
LINE
  5
761
330
1A
100
AcDbEntity
  8
GUIDE
100
AcDbLine
 10
-259.0
 20
452.08
 30
0.0
 11
-259.0
 21
459.6
 31
0.0
  0
LINE
  5
762
330
1A
100
AcDbEntity
  8
GUIDE
100
AcDbLine
 10
-259.0
 20
478.4
 30
0.0
 11
-259.0
 21
485.92
 31
0.0
  0
LINE
  5
763
330
1A
100
AcDbEntity
  8
GUIDE
100
AcDbLine
 10
-272.5
 20
478.4
 30
0.0
 11
-272.5
 21
459.6
 31
0.0
  0
LINE
  5
764
330
1A
100
AcDbEntity
  8
GUIDE
100
AcDbLine
 10
-266.5
 20
478.4
 30
0.0
 11
-266.5
 21
459.6
 31
0.0
  0
LINE
  5
765
330
1A
100
AcDbEntity
  8
GUIDE
100
AcDbLine
 10
-266.5
 20
452.08
 30
0.0
 11
-266.5
 21
433.28
 31
0.0
  0
LINE
  5
766
330
1A
100
AcDbEntity
  8
GUIDE
100
AcDbLine
 10
-272.5
 20
452.08
 30
0.0
 11
-272.5
 21
433.28
 31
0.0
  0
LINE
  5
767
330
1A
100
AcDbEntity
  8
GUIDE
100
AcDbLine
 10
-272.5
 20
425.76
 30
0.0
 11
-272.5
 21
422.0
 31
0.0
  0
LINE
  5
768
330
1A
100
AcDbEntity
  8
GUIDE
100
AcDbLine
 10
-266.5
 20
425.76
 30
0.0
 11
-266.5
 21
422.0
 31
0.0
  0
LINE
  5
769
330
1A
100
AcDbEntity
  8
GUIDE
100
AcDbLine
 10
-249.0
 20
497.24
 30
0.0
 11
-249.0
 21
501.0
 31
0.0
  0
LINE
  5
76A
330
1A
100
AcDbEntity
  8
GUIDE
100
AcDbLine
 10
-255.0
 20
497.24
 30
0.0
 11
-255.0
 21
501.0
 31
0.0
  0
LINE
  5
76B
330
1A
100
AcDbEntity
  8
GUIDE
100
AcDbLine
 10
-255.0
 20
470.92
 30
0.0
 11
-255.0
 21
489.72
 31
0.0
  0
LINE
  5
76C
330
1A
100
AcDbEntity
  8
GUIDE
100
AcDbLine
 10
-249.0
 20
470.92
 30
0.0
 11
-249.0
 21
489.72
 31
0.0
  0
LINE
  5
76D
330
1A
100
AcDbEntity
  8
GUIDE
100
AcDbLine
 10
-249.0
 20
444.6
 30
0.0
 11
-249.0
 21
463.4
 31
0.0
  0
LINE
  5
76E
330
1A
100
AcDbEntity
  8
GUIDE
100
AcDbLine
 10
-255.0
 20
444.6
 30
0.0
 11
-255.0
 21
463.4
 31
0.0
  0
LINE
  5
76F
330
1A
100
AcDbEntity
  8
GUIDE
100
AcDbLine
 10
-241.5
 20
444.6
 30
0.0
 11
-241.5
 21
437.08
 31
0.0
  0
LINE
  5
770
330
1A
100
AcDbEntity
  8
GUIDE
100
AcDbLine
 10
-241.5
 20
470.92
 30
0.0
 11
-241.5
 21
463.4
 31
0.0
  0
LINE
  5
771
330
1A
100
AcDbEntity
  8
GUIDE
100
AcDbLine
 10
-262.5
 20
470.92
 30
0.0
 11
-262.5
 21
463.4
 31
0.0
  0
LINE
  5
772
330
1A
100
AcDbEntity
  8
GUIDE
100
AcDbLine
 10
-262.5
 20
444.6
 30
0.0
 11
-262.5
 21
437.08
 31
0.0
  0
LINE
  5
773
330
1A
100
AcDbEntity
  8
GUIDE
100
AcDbLine
 10
-241.5
 20
437.08
 30
0.0
 11
-262.5
 21
437.08
 31
0.0
  0
LINE
  5
774
330
1A
100
AcDbEntity
  8
GUIDE
100
AcDbLine
 10
-241.5
 20
444.6
 30
0.0
 11
-262.5
 21
444.6
 31
0.0
  0
LINE
  5
775
330
1A
100
AcDbEntity
  8
GUIDE
100
AcDbLine
 10
-241.5
 20
470.92
 30
0.0
 11
-262.5
 21
470.92
 31
0.0
  0
LINE
  5
776
330
1A
100
AcDbEntity
  8
GUIDE
100
AcDbLine
 10
-241.5
 20
463.4
 30
0.0
 11
-262.5
 21
463.4
 31
0.0
  0
LINE
  5
777
330
1A
100
AcDbEntity
  8
GUIDE
100
AcDbLine
 10
-249.0
 20
448.36
 30
0.0
 11
-255.0
 21
448.36
 31
0.0
  0
LINE
  5
778
330
1A
100
AcDbEntity
  8
GUIDE
100
AcDbLine
 10
-249.0
 20
474.68
 30
0.0
 11
-255.0
 21
474.68
 31
0.0
  0
LINE
  5
779
330
1A
100
AcDbEntity
  8
GUIDE
100
AcDbLine
 10
-241.5
 20
489.72
 30
0.0
 11
-262.5
 21
489.72
 31
0.0
  0
LINE
  5
77A
330
1A
100
AcDbEntity
  8
GUIDE
100
AcDbLine
 10
-241.5
 20
497.24
 30
0.0
 11
-262.5
 21
497.24
 31
0.0
  0
LINE
  5
77B
330
1A
100
AcDbEntity
  8
GUIDE
100
AcDbLine
 10
-262.5
 20
497.24
 30
0.0
 11
-262.5
 21
489.72
 31
0.0
  0
LINE
  5
77C
330
1A
100
AcDbEntity
  8
GUIDE
100
AcDbLine
 10
-241.5
 20
497.24
 30
0.0
 11
-241.5
 21
489.72
 31
0.0
  0
LINE
  5
77D
330
1A
100
AcDbEntity
  8
GUIDE
100
AcDbLine
 10
-255.0
 20
422.0
 30
0.0
 11
-255.0
 21
437.08
 31
0.0
  0
LINE
  5
77E
330
1A
100
AcDbEntity
  8
GUIDE
100
AcDbLine
 10
-249.0
 20
422.0
 30
0.0
 11
-249.0
 21
437.08
 31
0.0
  0
LINE
  5
77F
330
1A
100
AcDbEntity
  8
GUIDE
100
AcDbLine
 10
-301.5
 20
501.0
 30
0.0
 11
-301.5
 21
485.92
 31
0.0
  0
LINE
  5
780
330
1A
100
AcDbEntity
  8
GUIDE
100
AcDbLine
 10
-307.5
 20
501.0
 30
0.0
 11
-307.5
 21
485.92
 31
0.0
  0
LINE
  5
781
330
1A
100
AcDbEntity
  8
GUIDE
100
AcDbLine
 10
-294.0
 20
425.76
 30
0.0
 11
-294.0
 21
433.28
 31
0.0
  0
LINE
  5
782
330
1A
100
AcDbEntity
  8
GUIDE
100
AcDbLine
 10
-315.0
 20
425.76
 30
0.0
 11
-315.0
 21
433.28
 31
0.0
  0
LINE
  5
783
330
1A
100
AcDbEntity
  8
GUIDE
100
AcDbLine
 10
-294.0
 20
425.76
 30
0.0
 11
-315.0
 21
425.76
 31
0.0
  0
LINE
  5
784
330
1A
100
AcDbEntity
  8
GUIDE
100
AcDbLine
 10
-294.0
 20
433.28
 30
0.0
 11
-315.0
 21
433.28
 31
0.0
  0
LINE
  5
785
330
1A
100
AcDbEntity
  8
GUIDE
100
AcDbLine
 10
-301.5
 20
448.32
 30
0.0
 11
-307.5
 21
448.32
 31
0.0
  0
LINE
  5
786
330
1A
100
AcDbEntity
  8
GUIDE
100
AcDbLine
 10
-301.5
 20
474.64
 30
0.0
 11
-307.5
 21
474.64
 31
0.0
  0
LINE
  5
787
330
1A
100
AcDbEntity
  8
GUIDE
100
AcDbLine
 10
-294.0
 20
459.6
 30
0.0
 11
-315.0
 21
459.6
 31
0.0
  0
LINE
  5
788
330
1A
100
AcDbEntity
  8
GUIDE
100
AcDbLine
 10
-294.0
 20
452.08
 30
0.0
 11
-315.0
 21
452.08
 31
0.0
  0
LINE
  5
789
330
1A
100
AcDbEntity
  8
GUIDE
100
AcDbLine
 10
-294.0
 20
478.4
 30
0.0
 11
-315.0
 21
478.4
 31
0.0
  0
LINE
  5
78A
330
1A
100
AcDbEntity
  8
GUIDE
100
AcDbLine
 10
-294.0
 20
485.92
 30
0.0
 11
-315.0
 21
485.92
 31
0.0
  0
LINE
  5
78B
330
1A
100
AcDbEntity
  8
GUIDE
100
AcDbLine
 10
-315.0
 20
478.4
 30
0.0
 11
-315.0
 21
485.92
 31
0.0
  0
LINE
  5
78C
330
1A
100
AcDbEntity
  8
GUIDE
100
AcDbLine
 10
-315.0
 20
452.08
 30
0.0
 11
-315.0
 21
459.6
 31
0.0
  0
LINE
  5
78D
330
1A
100
AcDbEntity
  8
GUIDE
100
AcDbLine
 10
-294.0
 20
452.08
 30
0.0
 11
-294.0
 21
459.6
 31
0.0
  0
LINE
  5
78E
330
1A
100
AcDbEntity
  8
GUIDE
100
AcDbLine
 10
-294.0
 20
478.4
 30
0.0
 11
-294.0
 21
485.92
 31
0.0
  0
LINE
  5
78F
330
1A
100
AcDbEntity
  8
GUIDE
100
AcDbLine
 10
-307.5
 20
478.4
 30
0.0
 11
-307.5
 21
459.6
 31
0.0
  0
LINE
  5
790
330
1A
100
AcDbEntity
  8
GUIDE
100
AcDbLine
 10
-301.5
 20
478.4
 30
0.0
 11
-301.5
 21
459.6
 31
0.0
  0
LINE
  5
791
330
1A
100
AcDbEntity
  8
GUIDE
100
AcDbLine
 10
-301.5
 20
452.08
 30
0.0
 11
-301.5
 21
433.28
 31
0.0
  0
LINE
  5
792
330
1A
100
AcDbEntity
  8
GUIDE
100
AcDbLine
 10
-307.5
 20
452.08
 30
0.0
 11
-307.5
 21
433.28
 31
0.0
  0
LINE
  5
793
330
1A
100
AcDbEntity
  8
GUIDE
100
AcDbLine
 10
-307.5
 20
425.76
 30
0.0
 11
-307.5
 21
422.0
 31
0.0
  0
LINE
  5
794
330
1A
100
AcDbEntity
  8
GUIDE
100
AcDbLine
 10
-301.5
 20
425.76
 30
0.0
 11
-301.5
 21
422.0
 31
0.0
  0
LINE
  5
795
330
1A
100
AcDbEntity
  8
GUIDE
100
AcDbLine
 10
-284.0
 20
497.24
 30
0.0
 11
-284.0
 21
501.0
 31
0.0
  0
LINE
  5
796
330
1A
100
AcDbEntity
  8
GUIDE
100
AcDbLine
 10
-290.0
 20
497.24
 30
0.0
 11
-290.0
 21
501.0
 31
0.0
  0
LINE
  5
797
330
1A
100
AcDbEntity
  8
GUIDE
100
AcDbLine
 10
-290.0
 20
470.92
 30
0.0
 11
-290.0
 21
489.72
 31
0.0
  0
LINE
  5
798
330
1A
100
AcDbEntity
  8
GUIDE
100
AcDbLine
 10
-284.0
 20
470.92
 30
0.0
 11
-284.0
 21
489.72
 31
0.0
  0
LINE
  5
799
330
1A
100
AcDbEntity
  8
GUIDE
100
AcDbLine
 10
-284.0
 20
444.6
 30
0.0
 11
-284.0
 21
463.4
 31
0.0
  0
LINE
  5
79A
330
1A
100
AcDbEntity
  8
GUIDE
100
AcDbLine
 10
-290.0
 20
444.6
 30
0.0
 11
-290.0
 21
463.4
 31
0.0
  0
LINE
  5
79B
330
1A
100
AcDbEntity
  8
GUIDE
100
AcDbLine
 10
-276.5
 20
444.6
 30
0.0
 11
-276.5
 21
437.08
 31
0.0
  0
LINE
  5
79C
330
1A
100
AcDbEntity
  8
GUIDE
100
AcDbLine
 10
-276.5
 20
470.92
 30
0.0
 11
-276.5
 21
463.4
 31
0.0
  0
LINE
  5
79D
330
1A
100
AcDbEntity
  8
GUIDE
100
AcDbLine
 10
-297.5
 20
470.92
 30
0.0
 11
-297.5
 21
463.4
 31
0.0
  0
LINE
  5
79E
330
1A
100
AcDbEntity
  8
GUIDE
100
AcDbLine
 10
-297.5
 20
444.6
 30
0.0
 11
-297.5
 21
437.08
 31
0.0
  0
LINE
  5
79F
330
1A
100
AcDbEntity
  8
GUIDE
100
AcDbLine
 10
-276.5
 20
437.08
 30
0.0
 11
-297.5
 21
437.08
 31
0.0
  0
LINE
  5
7A0
330
1A
100
AcDbEntity
  8
GUIDE
100
AcDbLine
 10
-276.5
 20
444.6
 30
0.0
 11
-297.5
 21
444.6
 31
0.0
  0
LINE
  5
7A1
330
1A
100
AcDbEntity
  8
GUIDE
100
AcDbLine
 10
-276.5
 20
470.92
 30
0.0
 11
-297.5
 21
470.92
 31
0.0
  0
LINE
  5
7A2
330
1A
100
AcDbEntity
  8
GUIDE
100
AcDbLine
 10
-276.5
 20
463.4
 30
0.0
 11
-297.5
 21
463.4
 31
0.0
  0
LINE
  5
7A3
330
1A
100
AcDbEntity
  8
GUIDE
100
AcDbLine
 10
-284.0
 20
448.36
 30
0.0
 11
-290.0
 21
448.36
 31
0.0
  0
LINE
  5
7A4
330
1A
100
AcDbEntity
  8
GUIDE
100
AcDbLine
 10
-284.0
 20
474.68
 30
0.0
 11
-290.0
 21
474.68
 31
0.0
  0
LINE
  5
7A5
330
1A
100
AcDbEntity
  8
GUIDE
100
AcDbLine
 10
-276.5
 20
489.72
 30
0.0
 11
-297.5
 21
489.72
 31
0.0
  0
LINE
  5
7A6
330
1A
100
AcDbEntity
  8
GUIDE
100
AcDbLine
 10
-276.5
 20
497.24
 30
0.0
 11
-297.5
 21
497.24
 31
0.0
  0
LINE
  5
7A7
330
1A
100
AcDbEntity
  8
GUIDE
100
AcDbLine
 10
-297.5
 20
497.24
 30
0.0
 11
-297.5
 21
489.72
 31
0.0
  0
LINE
  5
7A8
330
1A
100
AcDbEntity
  8
GUIDE
100
AcDbLine
 10
-276.5
 20
497.24
 30
0.0
 11
-276.5
 21
489.72
 31
0.0
  0
LINE
  5
7A9
330
1A
100
AcDbEntity
  8
GUIDE
100
AcDbLine
 10
-290.0
 20
422.0
 30
0.0
 11
-290.0
 21
437.08
 31
0.0
  0
LINE
  5
7AA
330
1A
100
AcDbEntity
  8
GUIDE
100
AcDbLine
 10
-284.0
 20
422.0
 30
0.0
 11
-284.0
 21
437.08
 31
0.0
  0
LINE
  5
7AB
330
1A
100
AcDbEntity
  8
GUIDE
100
AcDbLine
 10
-336.5
 20
501.0
 30
0.0
 11
-336.5
 21
485.92
 31
0.0
  0
LINE
  5
7AC
330
1A
100
AcDbEntity
  8
GUIDE
100
AcDbLine
 10
-342.5
 20
501.0
 30
0.0
 11
-342.5
 21
485.92
 31
0.0
  0
LINE
  5
7AD
330
1A
100
AcDbEntity
  8
GUIDE
100
AcDbLine
 10
-329.0
 20
425.76
 30
0.0
 11
-329.0
 21
433.28
 31
0.0
  0
LINE
  5
7AE
330
1A
100
AcDbEntity
  8
GUIDE
100
AcDbLine
 10
-350.0
 20
425.76
 30
0.0
 11
-350.0
 21
433.28
 31
0.0
  0
LINE
  5
7AF
330
1A
100
AcDbEntity
  8
GUIDE
100
AcDbLine
 10
-329.0
 20
425.76
 30
0.0
 11
-350.0
 21
425.76
 31
0.0
  0
LINE
  5
7B0
330
1A
100
AcDbEntity
  8
GUIDE
100
AcDbLine
 10
-329.0
 20
433.28
 30
0.0
 11
-350.0
 21
433.28
 31
0.0
  0
LINE
  5
7B1
330
1A
100
AcDbEntity
  8
GUIDE
100
AcDbLine
 10
-336.5
 20
448.32
 30
0.0
 11
-342.5
 21
448.32
 31
0.0
  0
LINE
  5
7B2
330
1A
100
AcDbEntity
  8
GUIDE
100
AcDbLine
 10
-336.5
 20
474.64
 30
0.0
 11
-342.5
 21
474.64
 31
0.0
  0
LINE
  5
7B3
330
1A
100
AcDbEntity
  8
GUIDE
100
AcDbLine
 10
-329.0
 20
459.6
 30
0.0
 11
-350.0
 21
459.6
 31
0.0
  0
LINE
  5
7B4
330
1A
100
AcDbEntity
  8
GUIDE
100
AcDbLine
 10
-329.0
 20
452.08
 30
0.0
 11
-350.0
 21
452.08
 31
0.0
  0
LINE
  5
7B5
330
1A
100
AcDbEntity
  8
GUIDE
100
AcDbLine
 10
-329.0
 20
478.4
 30
0.0
 11
-350.0
 21
478.4
 31
0.0
  0
LINE
  5
7B6
330
1A
100
AcDbEntity
  8
GUIDE
100
AcDbLine
 10
-329.0
 20
485.92
 30
0.0
 11
-350.0
 21
485.92
 31
0.0
  0
LINE
  5
7B7
330
1A
100
AcDbEntity
  8
GUIDE
100
AcDbLine
 10
-350.0
 20
478.4
 30
0.0
 11
-350.0
 21
485.92
 31
0.0
  0
LINE
  5
7B8
330
1A
100
AcDbEntity
  8
GUIDE
100
AcDbLine
 10
-350.0
 20
452.08
 30
0.0
 11
-350.0
 21
459.6
 31
0.0
  0
LINE
  5
7B9
330
1A
100
AcDbEntity
  8
GUIDE
100
AcDbLine
 10
-329.0
 20
452.08
 30
0.0
 11
-329.0
 21
459.6
 31
0.0
  0
LINE
  5
7BA
330
1A
100
AcDbEntity
  8
GUIDE
100
AcDbLine
 10
-329.0
 20
478.4
 30
0.0
 11
-329.0
 21
485.92
 31
0.0
  0
LINE
  5
7BB
330
1A
100
AcDbEntity
  8
GUIDE
100
AcDbLine
 10
-342.5
 20
478.4
 30
0.0
 11
-342.5
 21
459.6
 31
0.0
  0
LINE
  5
7BC
330
1A
100
AcDbEntity
  8
GUIDE
100
AcDbLine
 10
-336.5
 20
478.4
 30
0.0
 11
-336.5
 21
459.6
 31
0.0
  0
LINE
  5
7BD
330
1A
100
AcDbEntity
  8
GUIDE
100
AcDbLine
 10
-336.5
 20
452.08
 30
0.0
 11
-336.5
 21
433.28
 31
0.0
  0
LINE
  5
7BE
330
1A
100
AcDbEntity
  8
GUIDE
100
AcDbLine
 10
-342.5
 20
452.08
 30
0.0
 11
-342.5
 21
433.28
 31
0.0
  0
LINE
  5
7BF
330
1A
100
AcDbEntity
  8
GUIDE
100
AcDbLine
 10
-342.5
 20
425.76
 30
0.0
 11
-342.5
 21
422.0
 31
0.0
  0
LINE
  5
7C0
330
1A
100
AcDbEntity
  8
GUIDE
100
AcDbLine
 10
-336.5
 20
425.76
 30
0.0
 11
-336.5
 21
422.0
 31
0.0
  0
LINE
  5
7C1
330
1A
100
AcDbEntity
  8
GUIDE
100
AcDbLine
 10
-319.0
 20
497.24
 30
0.0
 11
-319.0
 21
501.0
 31
0.0
  0
LINE
  5
7C2
330
1A
100
AcDbEntity
  8
GUIDE
100
AcDbLine
 10
-325.0
 20
497.24
 30
0.0
 11
-325.0
 21
501.0
 31
0.0
  0
LINE
  5
7C3
330
1A
100
AcDbEntity
  8
GUIDE
100
AcDbLine
 10
-325.0
 20
470.92
 30
0.0
 11
-325.0
 21
489.72
 31
0.0
  0
LINE
  5
7C4
330
1A
100
AcDbEntity
  8
GUIDE
100
AcDbLine
 10
-319.0
 20
470.92
 30
0.0
 11
-319.0
 21
489.72
 31
0.0
  0
LINE
  5
7C5
330
1A
100
AcDbEntity
  8
GUIDE
100
AcDbLine
 10
-319.0
 20
444.6
 30
0.0
 11
-319.0
 21
463.4
 31
0.0
  0
LINE
  5
7C6
330
1A
100
AcDbEntity
  8
GUIDE
100
AcDbLine
 10
-325.0
 20
444.6
 30
0.0
 11
-325.0
 21
463.4
 31
0.0
  0
LINE
  5
7C7
330
1A
100
AcDbEntity
  8
GUIDE
100
AcDbLine
 10
-311.5
 20
444.6
 30
0.0
 11
-311.5
 21
437.08
 31
0.0
  0
LINE
  5
7C8
330
1A
100
AcDbEntity
  8
GUIDE
100
AcDbLine
 10
-311.5
 20
470.92
 30
0.0
 11
-311.5
 21
463.4
 31
0.0
  0
LINE
  5
7C9
330
1A
100
AcDbEntity
  8
GUIDE
100
AcDbLine
 10
-332.5
 20
470.92
 30
0.0
 11
-332.5
 21
463.4
 31
0.0
  0
LINE
  5
7CA
330
1A
100
AcDbEntity
  8
GUIDE
100
AcDbLine
 10
-332.5
 20
444.6
 30
0.0
 11
-332.5
 21
437.08
 31
0.0
  0
LINE
  5
7CB
330
1A
100
AcDbEntity
  8
GUIDE
100
AcDbLine
 10
-311.5
 20
437.08
 30
0.0
 11
-332.5
 21
437.08
 31
0.0
  0
LINE
  5
7CC
330
1A
100
AcDbEntity
  8
GUIDE
100
AcDbLine
 10
-311.5
 20
444.6
 30
0.0
 11
-332.5
 21
444.6
 31
0.0
  0
LINE
  5
7CD
330
1A
100
AcDbEntity
  8
GUIDE
100
AcDbLine
 10
-311.5
 20
470.92
 30
0.0
 11
-332.5
 21
470.92
 31
0.0
  0
LINE
  5
7CE
330
1A
100
AcDbEntity
  8
GUIDE
100
AcDbLine
 10
-311.5
 20
463.4
 30
0.0
 11
-332.5
 21
463.4
 31
0.0
  0
LINE
  5
7CF
330
1A
100
AcDbEntity
  8
GUIDE
100
AcDbLine
 10
-319.0
 20
448.36
 30
0.0
 11
-325.0
 21
448.36
 31
0.0
  0
LINE
  5
7D0
330
1A
100
AcDbEntity
  8
GUIDE
100
AcDbLine
 10
-319.0
 20
474.68
 30
0.0
 11
-325.0
 21
474.68
 31
0.0
  0
LINE
  5
7D1
330
1A
100
AcDbEntity
  8
GUIDE
100
AcDbLine
 10
-311.5
 20
489.72
 30
0.0
 11
-332.5
 21
489.72
 31
0.0
  0
LINE
  5
7D2
330
1A
100
AcDbEntity
  8
GUIDE
100
AcDbLine
 10
-311.5
 20
497.24
 30
0.0
 11
-332.5
 21
497.24
 31
0.0
  0
LINE
  5
7D3
330
1A
100
AcDbEntity
  8
GUIDE
100
AcDbLine
 10
-332.5
 20
497.24
 30
0.0
 11
-332.5
 21
489.72
 31
0.0
  0
LINE
  5
7D4
330
1A
100
AcDbEntity
  8
GUIDE
100
AcDbLine
 10
-311.5
 20
497.24
 30
0.0
 11
-311.5
 21
489.72
 31
0.0
  0
LINE
  5
7D5
330
1A
100
AcDbEntity
  8
GUIDE
100
AcDbLine
 10
-325.0
 20
422.0
 30
0.0
 11
-325.0
 21
437.08
 31
0.0
  0
LINE
  5
7D6
330
1A
100
AcDbEntity
  8
GUIDE
100
AcDbLine
 10
-319.0
 20
422.0
 30
0.0
 11
-319.0
 21
437.08
 31
0.0
  0
LINE
  5
7D7
330
1A
100
AcDbEntity
  8
GUIDE
100
AcDbLine
 10
-371.5
 20
501.0
 30
0.0
 11
-371.5
 21
485.92
 31
0.0
  0
LINE
  5
7D8
330
1A
100
AcDbEntity
  8
GUIDE
100
AcDbLine
 10
-377.5
 20
501.0
 30
0.0
 11
-377.5
 21
485.92
 31
0.0
  0
LINE
  5
7D9
330
1A
100
AcDbEntity
  8
GUIDE
100
AcDbLine
 10
-364.0
 20
425.76
 30
0.0
 11
-364.0
 21
433.28
 31
0.0
  0
LINE
  5
7DA
330
1A
100
AcDbEntity
  8
GUIDE
100
AcDbLine
 10
-385.0
 20
425.76
 30
0.0
 11
-385.0
 21
433.28
 31
0.0
  0
LINE
  5
7DB
330
1A
100
AcDbEntity
  8
GUIDE
100
AcDbLine
 10
-364.0
 20
425.76
 30
0.0
 11
-385.0
 21
425.76
 31
0.0
  0
LINE
  5
7DC
330
1A
100
AcDbEntity
  8
GUIDE
100
AcDbLine
 10
-364.0
 20
433.28
 30
0.0
 11
-385.0
 21
433.28
 31
0.0
  0
LINE
  5
7DD
330
1A
100
AcDbEntity
  8
GUIDE
100
AcDbLine
 10
-371.5
 20
448.32
 30
0.0
 11
-377.5
 21
448.32
 31
0.0
  0
LINE
  5
7DE
330
1A
100
AcDbEntity
  8
GUIDE
100
AcDbLine
 10
-371.5
 20
474.64
 30
0.0
 11
-377.5
 21
474.64
 31
0.0
  0
LINE
  5
7DF
330
1A
100
AcDbEntity
  8
GUIDE
100
AcDbLine
 10
-364.0
 20
459.6
 30
0.0
 11
-385.0
 21
459.6
 31
0.0
  0
LINE
  5
7E0
330
1A
100
AcDbEntity
  8
GUIDE
100
AcDbLine
 10
-364.0
 20
452.08
 30
0.0
 11
-385.0
 21
452.08
 31
0.0
  0
LINE
  5
7E1
330
1A
100
AcDbEntity
  8
GUIDE
100
AcDbLine
 10
-364.0
 20
478.4
 30
0.0
 11
-385.0
 21
478.4
 31
0.0
  0
LINE
  5
7E2
330
1A
100
AcDbEntity
  8
GUIDE
100
AcDbLine
 10
-364.0
 20
485.92
 30
0.0
 11
-385.0
 21
485.92
 31
0.0
  0
LINE
  5
7E3
330
1A
100
AcDbEntity
  8
GUIDE
100
AcDbLine
 10
-385.0
 20
478.4
 30
0.0
 11
-385.0
 21
485.92
 31
0.0
  0
LINE
  5
7E4
330
1A
100
AcDbEntity
  8
GUIDE
100
AcDbLine
 10
-385.0
 20
452.08
 30
0.0
 11
-385.0
 21
459.6
 31
0.0
  0
LINE
  5
7E5
330
1A
100
AcDbEntity
  8
GUIDE
100
AcDbLine
 10
-364.0
 20
452.08
 30
0.0
 11
-364.0
 21
459.6
 31
0.0
  0
LINE
  5
7E6
330
1A
100
AcDbEntity
  8
GUIDE
100
AcDbLine
 10
-364.0
 20
478.4
 30
0.0
 11
-364.0
 21
485.92
 31
0.0
  0
LINE
  5
7E7
330
1A
100
AcDbEntity
  8
GUIDE
100
AcDbLine
 10
-377.5
 20
478.4
 30
0.0
 11
-377.5
 21
459.6
 31
0.0
  0
LINE
  5
7E8
330
1A
100
AcDbEntity
  8
GUIDE
100
AcDbLine
 10
-371.5
 20
478.4
 30
0.0
 11
-371.5
 21
459.6
 31
0.0
  0
LINE
  5
7E9
330
1A
100
AcDbEntity
  8
GUIDE
100
AcDbLine
 10
-371.5
 20
452.08
 30
0.0
 11
-371.5
 21
433.28
 31
0.0
  0
LINE
  5
7EA
330
1A
100
AcDbEntity
  8
GUIDE
100
AcDbLine
 10
-377.5
 20
452.08
 30
0.0
 11
-377.5
 21
433.28
 31
0.0
  0
LINE
  5
7EB
330
1A
100
AcDbEntity
  8
GUIDE
100
AcDbLine
 10
-377.5
 20
425.76
 30
0.0
 11
-377.5
 21
422.0
 31
0.0
  0
LINE
  5
7EC
330
1A
100
AcDbEntity
  8
GUIDE
100
AcDbLine
 10
-371.5
 20
425.76
 30
0.0
 11
-371.5
 21
422.0
 31
0.0
  0
LINE
  5
7ED
330
1A
100
AcDbEntity
  8
GUIDE
100
AcDbLine
 10
-354.0
 20
497.24
 30
0.0
 11
-354.0
 21
501.0
 31
0.0
  0
LINE
  5
7EE
330
1A
100
AcDbEntity
  8
GUIDE
100
AcDbLine
 10
-360.0
 20
497.24
 30
0.0
 11
-360.0
 21
501.0
 31
0.0
  0
LINE
  5
7EF
330
1A
100
AcDbEntity
  8
GUIDE
100
AcDbLine
 10
-360.0
 20
470.92
 30
0.0
 11
-360.0
 21
489.72
 31
0.0
  0
LINE
  5
7F0
330
1A
100
AcDbEntity
  8
GUIDE
100
AcDbLine
 10
-354.0
 20
470.92
 30
0.0
 11
-354.0
 21
489.72
 31
0.0
  0
LINE
  5
7F1
330
1A
100
AcDbEntity
  8
GUIDE
100
AcDbLine
 10
-354.0
 20
444.6
 30
0.0
 11
-354.0
 21
463.4
 31
0.0
  0
LINE
  5
7F2
330
1A
100
AcDbEntity
  8
GUIDE
100
AcDbLine
 10
-360.0
 20
444.6
 30
0.0
 11
-360.0
 21
463.4
 31
0.0
  0
LINE
  5
7F3
330
1A
100
AcDbEntity
  8
GUIDE
100
AcDbLine
 10
-346.5
 20
444.6
 30
0.0
 11
-346.5
 21
437.08
 31
0.0
  0
LINE
  5
7F4
330
1A
100
AcDbEntity
  8
GUIDE
100
AcDbLine
 10
-346.5
 20
470.92
 30
0.0
 11
-346.5
 21
463.4
 31
0.0
  0
LINE
  5
7F5
330
1A
100
AcDbEntity
  8
GUIDE
100
AcDbLine
 10
-367.5
 20
470.92
 30
0.0
 11
-367.5
 21
463.4
 31
0.0
  0
LINE
  5
7F6
330
1A
100
AcDbEntity
  8
GUIDE
100
AcDbLine
 10
-367.5
 20
444.6
 30
0.0
 11
-367.5
 21
437.08
 31
0.0
  0
LINE
  5
7F7
330
1A
100
AcDbEntity
  8
GUIDE
100
AcDbLine
 10
-346.5
 20
437.08
 30
0.0
 11
-367.5
 21
437.08
 31
0.0
  0
LINE
  5
7F8
330
1A
100
AcDbEntity
  8
GUIDE
100
AcDbLine
 10
-346.5
 20
444.6
 30
0.0
 11
-367.5
 21
444.6
 31
0.0
  0
LINE
  5
7F9
330
1A
100
AcDbEntity
  8
GUIDE
100
AcDbLine
 10
-346.5
 20
470.92
 30
0.0
 11
-367.5
 21
470.92
 31
0.0
  0
LINE
  5
7FA
330
1A
100
AcDbEntity
  8
GUIDE
100
AcDbLine
 10
-346.5
 20
463.4
 30
0.0
 11
-367.5
 21
463.4
 31
0.0
  0
LINE
  5
7FB
330
1A
100
AcDbEntity
  8
GUIDE
100
AcDbLine
 10
-354.0
 20
448.36
 30
0.0
 11
-360.0
 21
448.36
 31
0.0
  0
LINE
  5
7FC
330
1A
100
AcDbEntity
  8
GUIDE
100
AcDbLine
 10
-354.0
 20
474.68
 30
0.0
 11
-360.0
 21
474.68
 31
0.0
  0
LINE
  5
7FD
330
1A
100
AcDbEntity
  8
GUIDE
100
AcDbLine
 10
-346.5
 20
489.72
 30
0.0
 11
-367.5
 21
489.72
 31
0.0
  0
LINE
  5
7FE
330
1A
100
AcDbEntity
  8
GUIDE
100
AcDbLine
 10
-346.5
 20
497.24
 30
0.0
 11
-367.5
 21
497.24
 31
0.0
  0
LINE
  5
7FF
330
1A
100
AcDbEntity
  8
GUIDE
100
AcDbLine
 10
-367.5
 20
497.24
 30
0.0
 11
-367.5
 21
489.72
 31
0.0
  0
LINE
  5
800
330
1A
100
AcDbEntity
  8
GUIDE
100
AcDbLine
 10
-346.5
 20
497.24
 30
0.0
 11
-346.5
 21
489.72
 31
0.0
  0
LINE
  5
801
330
1A
100
AcDbEntity
  8
GUIDE
100
AcDbLine
 10
-360.0
 20
422.0
 30
0.0
 11
-360.0
 21
437.08
 31
0.0
  0
LINE
  5
802
330
1A
100
AcDbEntity
  8
GUIDE
100
AcDbLine
 10
-354.0
 20
422.0
 30
0.0
 11
-354.0
 21
437.08
 31
0.0
  0
LINE
  5
803
330
1A
100
AcDbEntity
  8
GUIDE
100
AcDbLine
 10
-406.5
 20
501.0
 30
0.0
 11
-406.5
 21
485.92
 31
0.0
  0
LINE
  5
804
330
1A
100
AcDbEntity
  8
GUIDE
100
AcDbLine
 10
-412.5
 20
501.0
 30
0.0
 11
-412.5
 21
485.92
 31
0.0
  0
LINE
  5
805
330
1A
100
AcDbEntity
  8
GUIDE
100
AcDbLine
 10
-399.0
 20
425.76
 30
0.0
 11
-399.0
 21
433.28
 31
0.0
  0
LINE
  5
806
330
1A
100
AcDbEntity
  8
GUIDE
100
AcDbLine
 10
-420.0
 20
425.76
 30
0.0
 11
-420.0
 21
433.28
 31
0.0
  0
LINE
  5
807
330
1A
100
AcDbEntity
  8
GUIDE
100
AcDbLine
 10
-399.0
 20
425.76
 30
0.0
 11
-420.0
 21
425.76
 31
0.0
  0
LINE
  5
808
330
1A
100
AcDbEntity
  8
GUIDE
100
AcDbLine
 10
-399.0
 20
433.28
 30
0.0
 11
-420.0
 21
433.28
 31
0.0
  0
LINE
  5
809
330
1A
100
AcDbEntity
  8
GUIDE
100
AcDbLine
 10
-406.5
 20
448.32
 30
0.0
 11
-412.5
 21
448.32
 31
0.0
  0
LINE
  5
80A
330
1A
100
AcDbEntity
  8
GUIDE
100
AcDbLine
 10
-406.5
 20
474.64
 30
0.0
 11
-412.5
 21
474.64
 31
0.0
  0
LINE
  5
80B
330
1A
100
AcDbEntity
  8
GUIDE
100
AcDbLine
 10
-399.0
 20
459.6
 30
0.0
 11
-420.0
 21
459.6
 31
0.0
  0
LINE
  5
80C
330
1A
100
AcDbEntity
  8
GUIDE
100
AcDbLine
 10
-399.0
 20
452.08
 30
0.0
 11
-420.0
 21
452.08
 31
0.0
  0
LINE
  5
80D
330
1A
100
AcDbEntity
  8
GUIDE
100
AcDbLine
 10
-399.0
 20
478.4
 30
0.0
 11
-420.0
 21
478.4
 31
0.0
  0
LINE
  5
80E
330
1A
100
AcDbEntity
  8
GUIDE
100
AcDbLine
 10
-399.0
 20
485.92
 30
0.0
 11
-420.0
 21
485.92
 31
0.0
  0
LINE
  5
80F
330
1A
100
AcDbEntity
  8
GUIDE
100
AcDbLine
 10
-420.0
 20
478.4
 30
0.0
 11
-420.0
 21
485.92
 31
0.0
  0
LINE
  5
810
330
1A
100
AcDbEntity
  8
GUIDE
100
AcDbLine
 10
-420.0
 20
452.08
 30
0.0
 11
-420.0
 21
459.6
 31
0.0
  0
LINE
  5
811
330
1A
100
AcDbEntity
  8
GUIDE
100
AcDbLine
 10
-399.0
 20
452.08
 30
0.0
 11
-399.0
 21
459.6
 31
0.0
  0
LINE
  5
812
330
1A
100
AcDbEntity
  8
GUIDE
100
AcDbLine
 10
-399.0
 20
478.4
 30
0.0
 11
-399.0
 21
485.92
 31
0.0
  0
LINE
  5
813
330
1A
100
AcDbEntity
  8
GUIDE
100
AcDbLine
 10
-412.5
 20
478.4
 30
0.0
 11
-412.5
 21
459.6
 31
0.0
  0
LINE
  5
814
330
1A
100
AcDbEntity
  8
GUIDE
100
AcDbLine
 10
-406.5
 20
478.4
 30
0.0
 11
-406.5
 21
459.6
 31
0.0
  0
LINE
  5
815
330
1A
100
AcDbEntity
  8
GUIDE
100
AcDbLine
 10
-406.5
 20
452.08
 30
0.0
 11
-406.5
 21
433.28
 31
0.0
  0
LINE
  5
816
330
1A
100
AcDbEntity
  8
GUIDE
100
AcDbLine
 10
-412.5
 20
452.08
 30
0.0
 11
-412.5
 21
433.28
 31
0.0
  0
LINE
  5
817
330
1A
100
AcDbEntity
  8
GUIDE
100
AcDbLine
 10
-412.5
 20
425.76
 30
0.0
 11
-412.5
 21
422.0
 31
0.0
  0
LINE
  5
818
330
1A
100
AcDbEntity
  8
GUIDE
100
AcDbLine
 10
-406.5
 20
425.76
 30
0.0
 11
-406.5
 21
422.0
 31
0.0
  0
LINE
  5
819
330
1A
100
AcDbEntity
  8
GUIDE
100
AcDbLine
 10
-389.0
 20
497.24
 30
0.0
 11
-389.0
 21
501.0
 31
0.0
  0
LINE
  5
81A
330
1A
100
AcDbEntity
  8
GUIDE
100
AcDbLine
 10
-395.0
 20
497.24
 30
0.0
 11
-395.0
 21
501.0
 31
0.0
  0
LINE
  5
81B
330
1A
100
AcDbEntity
  8
GUIDE
100
AcDbLine
 10
-395.0
 20
470.92
 30
0.0
 11
-395.0
 21
489.72
 31
0.0
  0
LINE
  5
81C
330
1A
100
AcDbEntity
  8
GUIDE
100
AcDbLine
 10
-389.0
 20
470.92
 30
0.0
 11
-389.0
 21
489.72
 31
0.0
  0
LINE
  5
81D
330
1A
100
AcDbEntity
  8
GUIDE
100
AcDbLine
 10
-389.0
 20
444.6
 30
0.0
 11
-389.0
 21
463.4
 31
0.0
  0
LINE
  5
81E
330
1A
100
AcDbEntity
  8
GUIDE
100
AcDbLine
 10
-395.0
 20
444.6
 30
0.0
 11
-395.0
 21
463.4
 31
0.0
  0
LINE
  5
81F
330
1A
100
AcDbEntity
  8
GUIDE
100
AcDbLine
 10
-381.5
 20
444.6
 30
0.0
 11
-381.5
 21
437.08
 31
0.0
  0
LINE
  5
820
330
1A
100
AcDbEntity
  8
GUIDE
100
AcDbLine
 10
-381.5
 20
470.92
 30
0.0
 11
-381.5
 21
463.4
 31
0.0
  0
LINE
  5
821
330
1A
100
AcDbEntity
  8
GUIDE
100
AcDbLine
 10
-402.5
 20
470.92
 30
0.0
 11
-402.5
 21
463.4
 31
0.0
  0
LINE
  5
822
330
1A
100
AcDbEntity
  8
GUIDE
100
AcDbLine
 10
-402.5
 20
444.6
 30
0.0
 11
-402.5
 21
437.08
 31
0.0
  0
LINE
  5
823
330
1A
100
AcDbEntity
  8
GUIDE
100
AcDbLine
 10
-381.5
 20
437.08
 30
0.0
 11
-402.5
 21
437.08
 31
0.0
  0
LINE
  5
824
330
1A
100
AcDbEntity
  8
GUIDE
100
AcDbLine
 10
-381.5
 20
444.6
 30
0.0
 11
-402.5
 21
444.6
 31
0.0
  0
LINE
  5
825
330
1A
100
AcDbEntity
  8
GUIDE
100
AcDbLine
 10
-381.5
 20
470.92
 30
0.0
 11
-402.5
 21
470.92
 31
0.0
  0
LINE
  5
826
330
1A
100
AcDbEntity
  8
GUIDE
100
AcDbLine
 10
-381.5
 20
463.4
 30
0.0
 11
-402.5
 21
463.4
 31
0.0
  0
LINE
  5
827
330
1A
100
AcDbEntity
  8
GUIDE
100
AcDbLine
 10
-389.0
 20
448.36
 30
0.0
 11
-395.0
 21
448.36
 31
0.0
  0
LINE
  5
828
330
1A
100
AcDbEntity
  8
GUIDE
100
AcDbLine
 10
-389.0
 20
474.68
 30
0.0
 11
-395.0
 21
474.68
 31
0.0
  0
LINE
  5
829
330
1A
100
AcDbEntity
  8
GUIDE
100
AcDbLine
 10
-381.5
 20
489.72
 30
0.0
 11
-402.5
 21
489.72
 31
0.0
  0
LINE
  5
82A
330
1A
100
AcDbEntity
  8
GUIDE
100
AcDbLine
 10
-381.5
 20
497.24
 30
0.0
 11
-402.5
 21
497.24
 31
0.0
  0
LINE
  5
82B
330
1A
100
AcDbEntity
  8
GUIDE
100
AcDbLine
 10
-402.5
 20
497.24
 30
0.0
 11
-402.5
 21
489.72
 31
0.0
  0
LINE
  5
82C
330
1A
100
AcDbEntity
  8
GUIDE
100
AcDbLine
 10
-381.5
 20
497.24
 30
0.0
 11
-381.5
 21
489.72
 31
0.0
  0
LINE
  5
82D
330
1A
100
AcDbEntity
  8
GUIDE
100
AcDbLine
 10
-395.0
 20
422.0
 30
0.0
 11
-395.0
 21
437.08
 31
0.0
  0
LINE
  5
82E
330
1A
100
AcDbEntity
  8
GUIDE
100
AcDbLine
 10
-389.0
 20
422.0
 30
0.0
 11
-389.0
 21
437.08
 31
0.0
  0
LINE
  5
82F
330
1A
100
AcDbEntity
  8
GUIDE
100
AcDbLine
 10
-441.5
 20
501.0
 30
0.0
 11
-441.5
 21
485.92
 31
0.0
  0
LINE
  5
830
330
1A
100
AcDbEntity
  8
GUIDE
100
AcDbLine
 10
-447.5
 20
501.0
 30
0.0
 11
-447.5
 21
485.92
 31
0.0
  0
LINE
  5
831
330
1A
100
AcDbEntity
  8
GUIDE
100
AcDbLine
 10
-434.0
 20
425.76
 30
0.0
 11
-434.0
 21
433.28
 31
0.0
  0
LINE
  5
832
330
1A
100
AcDbEntity
  8
GUIDE
100
AcDbLine
 10
-455.0
 20
425.76
 30
0.0
 11
-455.0
 21
433.28
 31
0.0
  0
LINE
  5
833
330
1A
100
AcDbEntity
  8
GUIDE
100
AcDbLine
 10
-434.0
 20
425.76
 30
0.0
 11
-455.0
 21
425.76
 31
0.0
  0
LINE
  5
834
330
1A
100
AcDbEntity
  8
GUIDE
100
AcDbLine
 10
-434.0
 20
433.28
 30
0.0
 11
-455.0
 21
433.28
 31
0.0
  0
LINE
  5
835
330
1A
100
AcDbEntity
  8
GUIDE
100
AcDbLine
 10
-441.5
 20
448.32
 30
0.0
 11
-447.5
 21
448.32
 31
0.0
  0
LINE
  5
836
330
1A
100
AcDbEntity
  8
GUIDE
100
AcDbLine
 10
-441.5
 20
474.64
 30
0.0
 11
-447.5
 21
474.64
 31
0.0
  0
LINE
  5
837
330
1A
100
AcDbEntity
  8
GUIDE
100
AcDbLine
 10
-434.0
 20
459.6
 30
0.0
 11
-455.0
 21
459.6
 31
0.0
  0
LINE
  5
838
330
1A
100
AcDbEntity
  8
GUIDE
100
AcDbLine
 10
-434.0
 20
452.08
 30
0.0
 11
-455.0
 21
452.08
 31
0.0
  0
LINE
  5
839
330
1A
100
AcDbEntity
  8
GUIDE
100
AcDbLine
 10
-434.0
 20
478.4
 30
0.0
 11
-455.0
 21
478.4
 31
0.0
  0
LINE
  5
83A
330
1A
100
AcDbEntity
  8
GUIDE
100
AcDbLine
 10
-434.0
 20
485.92
 30
0.0
 11
-455.0
 21
485.92
 31
0.0
  0
LINE
  5
83B
330
1A
100
AcDbEntity
  8
GUIDE
100
AcDbLine
 10
-455.0
 20
478.4
 30
0.0
 11
-455.0
 21
485.92
 31
0.0
  0
LINE
  5
83C
330
1A
100
AcDbEntity
  8
GUIDE
100
AcDbLine
 10
-455.0
 20
452.08
 30
0.0
 11
-455.0
 21
459.6
 31
0.0
  0
LINE
  5
83D
330
1A
100
AcDbEntity
  8
GUIDE
100
AcDbLine
 10
-434.0
 20
452.08
 30
0.0
 11
-434.0
 21
459.6
 31
0.0
  0
LINE
  5
83E
330
1A
100
AcDbEntity
  8
GUIDE
100
AcDbLine
 10
-434.0
 20
478.4
 30
0.0
 11
-434.0
 21
485.92
 31
0.0
  0
LINE
  5
83F
330
1A
100
AcDbEntity
  8
GUIDE
100
AcDbLine
 10
-447.5
 20
478.4
 30
0.0
 11
-447.5
 21
459.6
 31
0.0
  0
LINE
  5
840
330
1A
100
AcDbEntity
  8
GUIDE
100
AcDbLine
 10
-441.5
 20
478.4
 30
0.0
 11
-441.5
 21
459.6
 31
0.0
  0
LINE
  5
841
330
1A
100
AcDbEntity
  8
GUIDE
100
AcDbLine
 10
-441.5
 20
452.08
 30
0.0
 11
-441.5
 21
433.28
 31
0.0
  0
LINE
  5
842
330
1A
100
AcDbEntity
  8
GUIDE
100
AcDbLine
 10
-447.5
 20
452.08
 30
0.0
 11
-447.5
 21
433.28
 31
0.0
  0
LINE
  5
843
330
1A
100
AcDbEntity
  8
GUIDE
100
AcDbLine
 10
-447.5
 20
425.76
 30
0.0
 11
-447.5
 21
422.0
 31
0.0
  0
LINE
  5
844
330
1A
100
AcDbEntity
  8
GUIDE
100
AcDbLine
 10
-441.5
 20
425.76
 30
0.0
 11
-441.5
 21
422.0
 31
0.0
  0
LINE
  5
845
330
1A
100
AcDbEntity
  8
GUIDE
100
AcDbLine
 10
-424.0
 20
497.24
 30
0.0
 11
-424.0
 21
501.0
 31
0.0
  0
LINE
  5
846
330
1A
100
AcDbEntity
  8
GUIDE
100
AcDbLine
 10
-430.0
 20
497.24
 30
0.0
 11
-430.0
 21
501.0
 31
0.0
  0
LINE
  5
847
330
1A
100
AcDbEntity
  8
GUIDE
100
AcDbLine
 10
-430.0
 20
470.92
 30
0.0
 11
-430.0
 21
489.72
 31
0.0
  0
LINE
  5
848
330
1A
100
AcDbEntity
  8
GUIDE
100
AcDbLine
 10
-424.0
 20
470.92
 30
0.0
 11
-424.0
 21
489.72
 31
0.0
  0
LINE
  5
849
330
1A
100
AcDbEntity
  8
GUIDE
100
AcDbLine
 10
-424.0
 20
444.6
 30
0.0
 11
-424.0
 21
463.4
 31
0.0
  0
LINE
  5
84A
330
1A
100
AcDbEntity
  8
GUIDE
100
AcDbLine
 10
-430.0
 20
444.6
 30
0.0
 11
-430.0
 21
463.4
 31
0.0
  0
LINE
  5
84B
330
1A
100
AcDbEntity
  8
GUIDE
100
AcDbLine
 10
-416.5
 20
444.6
 30
0.0
 11
-416.5
 21
437.08
 31
0.0
  0
LINE
  5
84C
330
1A
100
AcDbEntity
  8
GUIDE
100
AcDbLine
 10
-416.5
 20
470.92
 30
0.0
 11
-416.5
 21
463.4
 31
0.0
  0
LINE
  5
84D
330
1A
100
AcDbEntity
  8
GUIDE
100
AcDbLine
 10
-437.5
 20
470.92
 30
0.0
 11
-437.5
 21
463.4
 31
0.0
  0
LINE
  5
84E
330
1A
100
AcDbEntity
  8
GUIDE
100
AcDbLine
 10
-437.5
 20
444.6
 30
0.0
 11
-437.5
 21
437.08
 31
0.0
  0
LINE
  5
84F
330
1A
100
AcDbEntity
  8
GUIDE
100
AcDbLine
 10
-416.5
 20
437.08
 30
0.0
 11
-437.5
 21
437.08
 31
0.0
  0
LINE
  5
850
330
1A
100
AcDbEntity
  8
GUIDE
100
AcDbLine
 10
-416.5
 20
444.6
 30
0.0
 11
-437.5
 21
444.6
 31
0.0
  0
LINE
  5
851
330
1A
100
AcDbEntity
  8
GUIDE
100
AcDbLine
 10
-416.5
 20
470.92
 30
0.0
 11
-437.5
 21
470.92
 31
0.0
  0
LINE
  5
852
330
1A
100
AcDbEntity
  8
GUIDE
100
AcDbLine
 10
-416.5
 20
463.4
 30
0.0
 11
-437.5
 21
463.4
 31
0.0
  0
LINE
  5
853
330
1A
100
AcDbEntity
  8
GUIDE
100
AcDbLine
 10
-424.0
 20
448.36
 30
0.0
 11
-430.0
 21
448.36
 31
0.0
  0
LINE
  5
854
330
1A
100
AcDbEntity
  8
GUIDE
100
AcDbLine
 10
-424.0
 20
474.68
 30
0.0
 11
-430.0
 21
474.68
 31
0.0
  0
LINE
  5
855
330
1A
100
AcDbEntity
  8
GUIDE
100
AcDbLine
 10
-416.5
 20
489.72
 30
0.0
 11
-437.5
 21
489.72
 31
0.0
  0
LINE
  5
856
330
1A
100
AcDbEntity
  8
GUIDE
100
AcDbLine
 10
-416.5
 20
497.24
 30
0.0
 11
-437.5
 21
497.24
 31
0.0
  0
LINE
  5
857
330
1A
100
AcDbEntity
  8
GUIDE
100
AcDbLine
 10
-437.5
 20
497.24
 30
0.0
 11
-437.5
 21
489.72
 31
0.0
  0
LINE
  5
858
330
1A
100
AcDbEntity
  8
GUIDE
100
AcDbLine
 10
-416.5
 20
497.24
 30
0.0
 11
-416.5
 21
489.72
 31
0.0
  0
LINE
  5
859
330
1A
100
AcDbEntity
  8
GUIDE
100
AcDbLine
 10
-430.0
 20
422.0
 30
0.0
 11
-430.0
 21
437.08
 31
0.0
  0
LINE
  5
85A
330
1A
100
AcDbEntity
  8
GUIDE
100
AcDbLine
 10
-424.0
 20
422.0
 30
0.0
 11
-424.0
 21
437.08
 31
0.0
  0
LINE
  5
85B
330
1A
100
AcDbEntity
  8
GUIDE
100
AcDbLine
 10
-476.5
 20
501.0
 30
0.0
 11
-476.5
 21
485.92
 31
0.0
  0
LINE
  5
85C
330
1A
100
AcDbEntity
  8
GUIDE
100
AcDbLine
 10
-482.5
 20
501.0
 30
0.0
 11
-482.5
 21
485.92
 31
0.0
  0
LINE
  5
85D
330
1A
100
AcDbEntity
  8
GUIDE
100
AcDbLine
 10
-469.0
 20
425.76
 30
0.0
 11
-469.0
 21
433.28
 31
0.0
  0
LINE
  5
85E
330
1A
100
AcDbEntity
  8
GUIDE
100
AcDbLine
 10
-490.0
 20
425.76
 30
0.0
 11
-490.0
 21
433.28
 31
0.0
  0
LINE
  5
85F
330
1A
100
AcDbEntity
  8
GUIDE
100
AcDbLine
 10
-469.0
 20
425.76
 30
0.0
 11
-490.0
 21
425.76
 31
0.0
  0
LINE
  5
860
330
1A
100
AcDbEntity
  8
GUIDE
100
AcDbLine
 10
-469.0
 20
433.28
 30
0.0
 11
-490.0
 21
433.28
 31
0.0
  0
LINE
  5
861
330
1A
100
AcDbEntity
  8
GUIDE
100
AcDbLine
 10
-476.5
 20
448.32
 30
0.0
 11
-482.5
 21
448.32
 31
0.0
  0
LINE
  5
862
330
1A
100
AcDbEntity
  8
GUIDE
100
AcDbLine
 10
-476.5
 20
474.64
 30
0.0
 11
-482.5
 21
474.64
 31
0.0
  0
LINE
  5
863
330
1A
100
AcDbEntity
  8
GUIDE
100
AcDbLine
 10
-469.0
 20
459.6
 30
0.0
 11
-490.0
 21
459.6
 31
0.0
  0
LINE
  5
864
330
1A
100
AcDbEntity
  8
GUIDE
100
AcDbLine
 10
-469.0
 20
452.08
 30
0.0
 11
-490.0
 21
452.08
 31
0.0
  0
LINE
  5
865
330
1A
100
AcDbEntity
  8
GUIDE
100
AcDbLine
 10
-469.0
 20
478.4
 30
0.0
 11
-490.0
 21
478.4
 31
0.0
  0
LINE
  5
866
330
1A
100
AcDbEntity
  8
GUIDE
100
AcDbLine
 10
-469.0
 20
485.92
 30
0.0
 11
-490.0
 21
485.92
 31
0.0
  0
LINE
  5
867
330
1A
100
AcDbEntity
  8
GUIDE
100
AcDbLine
 10
-490.0
 20
478.4
 30
0.0
 11
-490.0
 21
485.92
 31
0.0
  0
LINE
  5
868
330
1A
100
AcDbEntity
  8
GUIDE
100
AcDbLine
 10
-490.0
 20
452.08
 30
0.0
 11
-490.0
 21
459.6
 31
0.0
  0
LINE
  5
869
330
1A
100
AcDbEntity
  8
GUIDE
100
AcDbLine
 10
-469.0
 20
452.08
 30
0.0
 11
-469.0
 21
459.6
 31
0.0
  0
LINE
  5
86A
330
1A
100
AcDbEntity
  8
GUIDE
100
AcDbLine
 10
-469.0
 20
478.4
 30
0.0
 11
-469.0
 21
485.92
 31
0.0
  0
LINE
  5
86B
330
1A
100
AcDbEntity
  8
GUIDE
100
AcDbLine
 10
-482.5
 20
478.4
 30
0.0
 11
-482.5
 21
459.6
 31
0.0
  0
LINE
  5
86C
330
1A
100
AcDbEntity
  8
GUIDE
100
AcDbLine
 10
-476.5
 20
478.4
 30
0.0
 11
-476.5
 21
459.6
 31
0.0
  0
LINE
  5
86D
330
1A
100
AcDbEntity
  8
GUIDE
100
AcDbLine
 10
-476.5
 20
452.08
 30
0.0
 11
-476.5
 21
433.28
 31
0.0
  0
LINE
  5
86E
330
1A
100
AcDbEntity
  8
GUIDE
100
AcDbLine
 10
-482.5
 20
452.08
 30
0.0
 11
-482.5
 21
433.28
 31
0.0
  0
LINE
  5
86F
330
1A
100
AcDbEntity
  8
GUIDE
100
AcDbLine
 10
-482.5
 20
425.76
 30
0.0
 11
-482.5
 21
422.0
 31
0.0
  0
LINE
  5
870
330
1A
100
AcDbEntity
  8
GUIDE
100
AcDbLine
 10
-476.5
 20
425.76
 30
0.0
 11
-476.5
 21
422.0
 31
0.0
  0
LINE
  5
871
330
1A
100
AcDbEntity
  8
GUIDE
100
AcDbLine
 10
-459.0
 20
497.24
 30
0.0
 11
-459.0
 21
501.0
 31
0.0
  0
LINE
  5
872
330
1A
100
AcDbEntity
  8
GUIDE
100
AcDbLine
 10
-465.0
 20
497.24
 30
0.0
 11
-465.0
 21
501.0
 31
0.0
  0
LINE
  5
873
330
1A
100
AcDbEntity
  8
GUIDE
100
AcDbLine
 10
-465.0
 20
470.92
 30
0.0
 11
-465.0
 21
489.72
 31
0.0
  0
LINE
  5
874
330
1A
100
AcDbEntity
  8
GUIDE
100
AcDbLine
 10
-459.0
 20
470.92
 30
0.0
 11
-459.0
 21
489.72
 31
0.0
  0
LINE
  5
875
330
1A
100
AcDbEntity
  8
GUIDE
100
AcDbLine
 10
-459.0
 20
444.6
 30
0.0
 11
-459.0
 21
463.4
 31
0.0
  0
LINE
  5
876
330
1A
100
AcDbEntity
  8
GUIDE
100
AcDbLine
 10
-465.0
 20
444.6
 30
0.0
 11
-465.0
 21
463.4
 31
0.0
  0
LINE
  5
877
330
1A
100
AcDbEntity
  8
GUIDE
100
AcDbLine
 10
-451.5
 20
444.6
 30
0.0
 11
-451.5
 21
437.08
 31
0.0
  0
LINE
  5
878
330
1A
100
AcDbEntity
  8
GUIDE
100
AcDbLine
 10
-451.5
 20
470.92
 30
0.0
 11
-451.5
 21
463.4
 31
0.0
  0
LINE
  5
879
330
1A
100
AcDbEntity
  8
GUIDE
100
AcDbLine
 10
-472.5
 20
470.92
 30
0.0
 11
-472.5
 21
463.4
 31
0.0
  0
LINE
  5
87A
330
1A
100
AcDbEntity
  8
GUIDE
100
AcDbLine
 10
-472.5
 20
444.6
 30
0.0
 11
-472.5
 21
437.08
 31
0.0
  0
LINE
  5
87B
330
1A
100
AcDbEntity
  8
GUIDE
100
AcDbLine
 10
-451.5
 20
437.08
 30
0.0
 11
-472.5
 21
437.08
 31
0.0
  0
LINE
  5
87C
330
1A
100
AcDbEntity
  8
GUIDE
100
AcDbLine
 10
-451.5
 20
444.6
 30
0.0
 11
-472.5
 21
444.6
 31
0.0
  0
LINE
  5
87D
330
1A
100
AcDbEntity
  8
GUIDE
100
AcDbLine
 10
-451.5
 20
470.92
 30
0.0
 11
-472.5
 21
470.92
 31
0.0
  0
LINE
  5
87E
330
1A
100
AcDbEntity
  8
GUIDE
100
AcDbLine
 10
-451.5
 20
463.4
 30
0.0
 11
-472.5
 21
463.4
 31
0.0
  0
LINE
  5
87F
330
1A
100
AcDbEntity
  8
GUIDE
100
AcDbLine
 10
-459.0
 20
448.36
 30
0.0
 11
-465.0
 21
448.36
 31
0.0
  0
LINE
  5
880
330
1A
100
AcDbEntity
  8
GUIDE
100
AcDbLine
 10
-459.0
 20
474.68
 30
0.0
 11
-465.0
 21
474.68
 31
0.0
  0
LINE
  5
881
330
1A
100
AcDbEntity
  8
GUIDE
100
AcDbLine
 10
-451.5
 20
489.72
 30
0.0
 11
-472.5
 21
489.72
 31
0.0
  0
LINE
  5
882
330
1A
100
AcDbEntity
  8
GUIDE
100
AcDbLine
 10
-451.5
 20
497.24
 30
0.0
 11
-472.5
 21
497.24
 31
0.0
  0
LINE
  5
883
330
1A
100
AcDbEntity
  8
GUIDE
100
AcDbLine
 10
-472.5
 20
497.24
 30
0.0
 11
-472.5
 21
489.72
 31
0.0
  0
LINE
  5
884
330
1A
100
AcDbEntity
  8
GUIDE
100
AcDbLine
 10
-451.5
 20
497.24
 30
0.0
 11
-451.5
 21
489.72
 31
0.0
  0
LINE
  5
885
330
1A
100
AcDbEntity
  8
GUIDE
100
AcDbLine
 10
-465.0
 20
422.0
 30
0.0
 11
-465.0
 21
437.08
 31
0.0
  0
LINE
  5
886
330
1A
100
AcDbEntity
  8
GUIDE
100
AcDbLine
 10
-459.0
 20
422.0
 30
0.0
 11
-459.0
 21
437.08
 31
0.0
  0
LINE
  5
887
330
1A
100
AcDbEntity
  8
GUIDE
100
AcDbLine
 10
-511.5
 20
501.0
 30
0.0
 11
-511.5
 21
485.92
 31
0.0
  0
LINE
  5
888
330
1A
100
AcDbEntity
  8
GUIDE
100
AcDbLine
 10
-517.5
 20
501.0
 30
0.0
 11
-517.5
 21
485.92
 31
0.0
  0
LINE
  5
889
330
1A
100
AcDbEntity
  8
GUIDE
100
AcDbLine
 10
-504.0
 20
425.76
 30
0.0
 11
-504.0
 21
433.28
 31
0.0
  0
LINE
  5
88A
330
1A
100
AcDbEntity
  8
GUIDE
100
AcDbLine
 10
-525.0
 20
425.76
 30
0.0
 11
-525.0
 21
433.28
 31
0.0
  0
LINE
  5
88B
330
1A
100
AcDbEntity
  8
GUIDE
100
AcDbLine
 10
-504.0
 20
425.76
 30
0.0
 11
-525.0
 21
425.76
 31
0.0
  0
LINE
  5
88C
330
1A
100
AcDbEntity
  8
GUIDE
100
AcDbLine
 10
-504.0
 20
433.28
 30
0.0
 11
-525.0
 21
433.28
 31
0.0
  0
LINE
  5
88D
330
1A
100
AcDbEntity
  8
GUIDE
100
AcDbLine
 10
-511.5
 20
448.32
 30
0.0
 11
-517.5
 21
448.32
 31
0.0
  0
LINE
  5
88E
330
1A
100
AcDbEntity
  8
GUIDE
100
AcDbLine
 10
-511.5
 20
474.64
 30
0.0
 11
-517.5
 21
474.64
 31
0.0
  0
LINE
  5
88F
330
1A
100
AcDbEntity
  8
GUIDE
100
AcDbLine
 10
-504.0
 20
459.6
 30
0.0
 11
-525.0
 21
459.6
 31
0.0
  0
LINE
  5
890
330
1A
100
AcDbEntity
  8
GUIDE
100
AcDbLine
 10
-504.0
 20
452.08
 30
0.0
 11
-525.0
 21
452.08
 31
0.0
  0
LINE
  5
891
330
1A
100
AcDbEntity
  8
GUIDE
100
AcDbLine
 10
-504.0
 20
478.4
 30
0.0
 11
-525.0
 21
478.4
 31
0.0
  0
LINE
  5
892
330
1A
100
AcDbEntity
  8
GUIDE
100
AcDbLine
 10
-504.0
 20
485.92
 30
0.0
 11
-525.0
 21
485.92
 31
0.0
  0
LINE
  5
893
330
1A
100
AcDbEntity
  8
GUIDE
100
AcDbLine
 10
-525.0
 20
478.4
 30
0.0
 11
-525.0
 21
485.92
 31
0.0
  0
LINE
  5
894
330
1A
100
AcDbEntity
  8
GUIDE
100
AcDbLine
 10
-525.0
 20
452.08
 30
0.0
 11
-525.0
 21
459.6
 31
0.0
  0
LINE
  5
895
330
1A
100
AcDbEntity
  8
GUIDE
100
AcDbLine
 10
-504.0
 20
452.08
 30
0.0
 11
-504.0
 21
459.6
 31
0.0
  0
LINE
  5
896
330
1A
100
AcDbEntity
  8
GUIDE
100
AcDbLine
 10
-504.0
 20
478.4
 30
0.0
 11
-504.0
 21
485.92
 31
0.0
  0
LINE
  5
897
330
1A
100
AcDbEntity
  8
GUIDE
100
AcDbLine
 10
-517.5
 20
478.4
 30
0.0
 11
-517.5
 21
459.6
 31
0.0
  0
LINE
  5
898
330
1A
100
AcDbEntity
  8
GUIDE
100
AcDbLine
 10
-511.5
 20
478.4
 30
0.0
 11
-511.5
 21
459.6
 31
0.0
  0
LINE
  5
899
330
1A
100
AcDbEntity
  8
GUIDE
100
AcDbLine
 10
-511.5
 20
452.08
 30
0.0
 11
-511.5
 21
433.28
 31
0.0
  0
LINE
  5
89A
330
1A
100
AcDbEntity
  8
GUIDE
100
AcDbLine
 10
-517.5
 20
452.08
 30
0.0
 11
-517.5
 21
433.28
 31
0.0
  0
LINE
  5
89B
330
1A
100
AcDbEntity
  8
GUIDE
100
AcDbLine
 10
-517.5
 20
425.76
 30
0.0
 11
-517.5
 21
422.0
 31
0.0
  0
LINE
  5
89C
330
1A
100
AcDbEntity
  8
GUIDE
100
AcDbLine
 10
-511.5
 20
425.76
 30
0.0
 11
-511.5
 21
422.0
 31
0.0
  0
LINE
  5
89D
330
1A
100
AcDbEntity
  8
GUIDE
100
AcDbLine
 10
-494.0
 20
497.24
 30
0.0
 11
-494.0
 21
501.0
 31
0.0
  0
LINE
  5
89E
330
1A
100
AcDbEntity
  8
GUIDE
100
AcDbLine
 10
-500.0
 20
497.24
 30
0.0
 11
-500.0
 21
501.0
 31
0.0
  0
LINE
  5
89F
330
1A
100
AcDbEntity
  8
GUIDE
100
AcDbLine
 10
-500.0
 20
470.92
 30
0.0
 11
-500.0
 21
489.72
 31
0.0
  0
LINE
  5
8A0
330
1A
100
AcDbEntity
  8
GUIDE
100
AcDbLine
 10
-494.0
 20
470.92
 30
0.0
 11
-494.0
 21
489.72
 31
0.0
  0
LINE
  5
8A1
330
1A
100
AcDbEntity
  8
GUIDE
100
AcDbLine
 10
-494.0
 20
444.6
 30
0.0
 11
-494.0
 21
463.4
 31
0.0
  0
LINE
  5
8A2
330
1A
100
AcDbEntity
  8
GUIDE
100
AcDbLine
 10
-500.0
 20
444.6
 30
0.0
 11
-500.0
 21
463.4
 31
0.0
  0
LINE
  5
8A3
330
1A
100
AcDbEntity
  8
GUIDE
100
AcDbLine
 10
-486.5
 20
444.6
 30
0.0
 11
-486.5
 21
437.08
 31
0.0
  0
LINE
  5
8A4
330
1A
100
AcDbEntity
  8
GUIDE
100
AcDbLine
 10
-486.5
 20
470.92
 30
0.0
 11
-486.5
 21
463.4
 31
0.0
  0
LINE
  5
8A5
330
1A
100
AcDbEntity
  8
GUIDE
100
AcDbLine
 10
-507.5
 20
470.92
 30
0.0
 11
-507.5
 21
463.4
 31
0.0
  0
LINE
  5
8A6
330
1A
100
AcDbEntity
  8
GUIDE
100
AcDbLine
 10
-507.5
 20
444.6
 30
0.0
 11
-507.5
 21
437.08
 31
0.0
  0
LINE
  5
8A7
330
1A
100
AcDbEntity
  8
GUIDE
100
AcDbLine
 10
-486.5
 20
437.08
 30
0.0
 11
-507.5
 21
437.08
 31
0.0
  0
LINE
  5
8A8
330
1A
100
AcDbEntity
  8
GUIDE
100
AcDbLine
 10
-486.5
 20
444.6
 30
0.0
 11
-507.5
 21
444.6
 31
0.0
  0
LINE
  5
8A9
330
1A
100
AcDbEntity
  8
GUIDE
100
AcDbLine
 10
-486.5
 20
470.92
 30
0.0
 11
-507.5
 21
470.92
 31
0.0
  0
LINE
  5
8AA
330
1A
100
AcDbEntity
  8
GUIDE
100
AcDbLine
 10
-486.5
 20
463.4
 30
0.0
 11
-507.5
 21
463.4
 31
0.0
  0
LINE
  5
8AB
330
1A
100
AcDbEntity
  8
GUIDE
100
AcDbLine
 10
-494.0
 20
448.36
 30
0.0
 11
-500.0
 21
448.36
 31
0.0
  0
LINE
  5
8AC
330
1A
100
AcDbEntity
  8
GUIDE
100
AcDbLine
 10
-494.0
 20
474.68
 30
0.0
 11
-500.0
 21
474.68
 31
0.0
  0
LINE
  5
8AD
330
1A
100
AcDbEntity
  8
GUIDE
100
AcDbLine
 10
-486.5
 20
489.72
 30
0.0
 11
-507.5
 21
489.72
 31
0.0
  0
LINE
  5
8AE
330
1A
100
AcDbEntity
  8
GUIDE
100
AcDbLine
 10
-486.5
 20
497.24
 30
0.0
 11
-507.5
 21
497.24
 31
0.0
  0
LINE
  5
8AF
330
1A
100
AcDbEntity
  8
GUIDE
100
AcDbLine
 10
-507.5
 20
497.24
 30
0.0
 11
-507.5
 21
489.72
 31
0.0
  0
LINE
  5
8B0
330
1A
100
AcDbEntity
  8
GUIDE
100
AcDbLine
 10
-486.5
 20
497.24
 30
0.0
 11
-486.5
 21
489.72
 31
0.0
  0
LINE
  5
8B1
330
1A
100
AcDbEntity
  8
GUIDE
100
AcDbLine
 10
-500.0
 20
422.0
 30
0.0
 11
-500.0
 21
437.08
 31
0.0
  0
LINE
  5
8B2
330
1A
100
AcDbEntity
  8
GUIDE
100
AcDbLine
 10
-494.0
 20
422.0
 30
0.0
 11
-494.0
 21
437.08
 31
0.0
  0
LINE
  5
8B3
330
1A
100
AcDbEntity
  8
GUIDE
100
AcDbLine
 10
-546.5
 20
501.0
 30
0.0
 11
-546.5
 21
485.92
 31
0.0
  0
LINE
  5
8B4
330
1A
100
AcDbEntity
  8
GUIDE
100
AcDbLine
 10
-552.5
 20
501.0
 30
0.0
 11
-552.5
 21
485.92
 31
0.0
  0
LINE
  5
8B5
330
1A
100
AcDbEntity
  8
GUIDE
100
AcDbLine
 10
-539.0
 20
425.76
 30
0.0
 11
-539.0
 21
433.28
 31
0.0
  0
LINE
  5
8B6
330
1A
100
AcDbEntity
  8
GUIDE
100
AcDbLine
 10
-560.0
 20
425.76
 30
0.0
 11
-560.0
 21
433.28
 31
0.0
  0
LINE
  5
8B7
330
1A
100
AcDbEntity
  8
GUIDE
100
AcDbLine
 10
-539.0
 20
425.76
 30
0.0
 11
-560.0
 21
425.76
 31
0.0
  0
LINE
  5
8B8
330
1A
100
AcDbEntity
  8
GUIDE
100
AcDbLine
 10
-539.0
 20
433.28
 30
0.0
 11
-560.0
 21
433.28
 31
0.0
  0
LINE
  5
8B9
330
1A
100
AcDbEntity
  8
GUIDE
100
AcDbLine
 10
-546.5
 20
448.32
 30
0.0
 11
-552.5
 21
448.32
 31
0.0
  0
LINE
  5
8BA
330
1A
100
AcDbEntity
  8
GUIDE
100
AcDbLine
 10
-546.5
 20
474.64
 30
0.0
 11
-552.5
 21
474.64
 31
0.0
  0
LINE
  5
8BB
330
1A
100
AcDbEntity
  8
GUIDE
100
AcDbLine
 10
-539.0
 20
459.6
 30
0.0
 11
-560.0
 21
459.6
 31
0.0
  0
LINE
  5
8BC
330
1A
100
AcDbEntity
  8
GUIDE
100
AcDbLine
 10
-539.0
 20
452.08
 30
0.0
 11
-560.0
 21
452.08
 31
0.0
  0
LINE
  5
8BD
330
1A
100
AcDbEntity
  8
GUIDE
100
AcDbLine
 10
-539.0
 20
478.4
 30
0.0
 11
-560.0
 21
478.4
 31
0.0
  0
LINE
  5
8BE
330
1A
100
AcDbEntity
  8
GUIDE
100
AcDbLine
 10
-539.0
 20
485.92
 30
0.0
 11
-560.0
 21
485.92
 31
0.0
  0
LINE
  5
8BF
330
1A
100
AcDbEntity
  8
GUIDE
100
AcDbLine
 10
-560.0
 20
478.4
 30
0.0
 11
-560.0
 21
485.92
 31
0.0
  0
LINE
  5
8C0
330
1A
100
AcDbEntity
  8
GUIDE
100
AcDbLine
 10
-560.0
 20
452.08
 30
0.0
 11
-560.0
 21
459.6
 31
0.0
  0
LINE
  5
8C1
330
1A
100
AcDbEntity
  8
GUIDE
100
AcDbLine
 10
-539.0
 20
452.08
 30
0.0
 11
-539.0
 21
459.6
 31
0.0
  0
LINE
  5
8C2
330
1A
100
AcDbEntity
  8
GUIDE
100
AcDbLine
 10
-539.0
 20
478.4
 30
0.0
 11
-539.0
 21
485.92
 31
0.0
  0
LINE
  5
8C3
330
1A
100
AcDbEntity
  8
GUIDE
100
AcDbLine
 10
-552.5
 20
478.4
 30
0.0
 11
-552.5
 21
459.6
 31
0.0
  0
LINE
  5
8C4
330
1A
100
AcDbEntity
  8
GUIDE
100
AcDbLine
 10
-546.5
 20
478.4
 30
0.0
 11
-546.5
 21
459.6
 31
0.0
  0
LINE
  5
8C5
330
1A
100
AcDbEntity
  8
GUIDE
100
AcDbLine
 10
-546.5
 20
452.08
 30
0.0
 11
-546.5
 21
433.28
 31
0.0
  0
LINE
  5
8C6
330
1A
100
AcDbEntity
  8
GUIDE
100
AcDbLine
 10
-552.5
 20
452.08
 30
0.0
 11
-552.5
 21
433.28
 31
0.0
  0
LINE
  5
8C7
330
1A
100
AcDbEntity
  8
GUIDE
100
AcDbLine
 10
-552.5
 20
425.76
 30
0.0
 11
-552.5
 21
422.0
 31
0.0
  0
LINE
  5
8C8
330
1A
100
AcDbEntity
  8
GUIDE
100
AcDbLine
 10
-546.5
 20
425.76
 30
0.0
 11
-546.5
 21
422.0
 31
0.0
  0
LINE
  5
8C9
330
1A
100
AcDbEntity
  8
GUIDE
100
AcDbLine
 10
-529.0
 20
497.24
 30
0.0
 11
-529.0
 21
501.0
 31
0.0
  0
LINE
  5
8CA
330
1A
100
AcDbEntity
  8
GUIDE
100
AcDbLine
 10
-535.0
 20
497.24
 30
0.0
 11
-535.0
 21
501.0
 31
0.0
  0
LINE
  5
8CB
330
1A
100
AcDbEntity
  8
GUIDE
100
AcDbLine
 10
-535.0
 20
470.92
 30
0.0
 11
-535.0
 21
489.72
 31
0.0
  0
LINE
  5
8CC
330
1A
100
AcDbEntity
  8
GUIDE
100
AcDbLine
 10
-529.0
 20
470.92
 30
0.0
 11
-529.0
 21
489.72
 31
0.0
  0
LINE
  5
8CD
330
1A
100
AcDbEntity
  8
GUIDE
100
AcDbLine
 10
-529.0
 20
444.6
 30
0.0
 11
-529.0
 21
463.4
 31
0.0
  0
LINE
  5
8CE
330
1A
100
AcDbEntity
  8
GUIDE
100
AcDbLine
 10
-535.0
 20
444.6
 30
0.0
 11
-535.0
 21
463.4
 31
0.0
  0
LINE
  5
8CF
330
1A
100
AcDbEntity
  8
GUIDE
100
AcDbLine
 10
-521.5
 20
444.6
 30
0.0
 11
-521.5
 21
437.08
 31
0.0
  0
LINE
  5
8D0
330
1A
100
AcDbEntity
  8
GUIDE
100
AcDbLine
 10
-521.5
 20
470.92
 30
0.0
 11
-521.5
 21
463.4
 31
0.0
  0
LINE
  5
8D1
330
1A
100
AcDbEntity
  8
GUIDE
100
AcDbLine
 10
-542.5
 20
470.92
 30
0.0
 11
-542.5
 21
463.4
 31
0.0
  0
LINE
  5
8D2
330
1A
100
AcDbEntity
  8
GUIDE
100
AcDbLine
 10
-542.5
 20
444.6
 30
0.0
 11
-542.5
 21
437.08
 31
0.0
  0
LINE
  5
8D3
330
1A
100
AcDbEntity
  8
GUIDE
100
AcDbLine
 10
-521.5
 20
437.08
 30
0.0
 11
-542.5
 21
437.08
 31
0.0
  0
LINE
  5
8D4
330
1A
100
AcDbEntity
  8
GUIDE
100
AcDbLine
 10
-521.5
 20
444.6
 30
0.0
 11
-542.5
 21
444.6
 31
0.0
  0
LINE
  5
8D5
330
1A
100
AcDbEntity
  8
GUIDE
100
AcDbLine
 10
-521.5
 20
470.92
 30
0.0
 11
-542.5
 21
470.92
 31
0.0
  0
LINE
  5
8D6
330
1A
100
AcDbEntity
  8
GUIDE
100
AcDbLine
 10
-521.5
 20
463.4
 30
0.0
 11
-542.5
 21
463.4
 31
0.0
  0
LINE
  5
8D7
330
1A
100
AcDbEntity
  8
GUIDE
100
AcDbLine
 10
-529.0
 20
448.36
 30
0.0
 11
-535.0
 21
448.36
 31
0.0
  0
LINE
  5
8D8
330
1A
100
AcDbEntity
  8
GUIDE
100
AcDbLine
 10
-529.0
 20
474.68
 30
0.0
 11
-535.0
 21
474.68
 31
0.0
  0
LINE
  5
8D9
330
1A
100
AcDbEntity
  8
GUIDE
100
AcDbLine
 10
-521.5
 20
489.72
 30
0.0
 11
-542.5
 21
489.72
 31
0.0
  0
LINE
  5
8DA
330
1A
100
AcDbEntity
  8
GUIDE
100
AcDbLine
 10
-521.5
 20
497.24
 30
0.0
 11
-542.5
 21
497.24
 31
0.0
  0
LINE
  5
8DB
330
1A
100
AcDbEntity
  8
GUIDE
100
AcDbLine
 10
-542.5
 20
497.24
 30
0.0
 11
-542.5
 21
489.72
 31
0.0
  0
LINE
  5
8DC
330
1A
100
AcDbEntity
  8
GUIDE
100
AcDbLine
 10
-521.5
 20
497.24
 30
0.0
 11
-521.5
 21
489.72
 31
0.0
  0
LINE
  5
8DD
330
1A
100
AcDbEntity
  8
GUIDE
100
AcDbLine
 10
-535.0
 20
422.0
 30
0.0
 11
-535.0
 21
437.08
 31
0.0
  0
LINE
  5
8DE
330
1A
100
AcDbEntity
  8
GUIDE
100
AcDbLine
 10
-529.0
 20
422.0
 30
0.0
 11
-529.0
 21
437.08
 31
0.0
  0
LINE
  5
8DF
330
1A
100
AcDbEntity
  8
GUIDE
100
AcDbLine
 10
-581.5
 20
501.0
 30
0.0
 11
-581.5
 21
485.92
 31
0.0
  0
LINE
  5
8E0
330
1A
100
AcDbEntity
  8
GUIDE
100
AcDbLine
 10
-587.5
 20
501.0
 30
0.0
 11
-587.5
 21
485.92
 31
0.0
  0
LINE
  5
8E1
330
1A
100
AcDbEntity
  8
GUIDE
100
AcDbLine
 10
-574.0
 20
425.76
 30
0.0
 11
-574.0
 21
433.28
 31
0.0
  0
LINE
  5
8E2
330
1A
100
AcDbEntity
  8
GUIDE
100
AcDbLine
 10
-595.0
 20
425.76
 30
0.0
 11
-595.0
 21
433.28
 31
0.0
  0
LINE
  5
8E3
330
1A
100
AcDbEntity
  8
GUIDE
100
AcDbLine
 10
-574.0
 20
425.76
 30
0.0
 11
-595.0
 21
425.76
 31
0.0
  0
LINE
  5
8E4
330
1A
100
AcDbEntity
  8
GUIDE
100
AcDbLine
 10
-574.0
 20
433.28
 30
0.0
 11
-595.0
 21
433.28
 31
0.0
  0
LINE
  5
8E5
330
1A
100
AcDbEntity
  8
GUIDE
100
AcDbLine
 10
-581.5
 20
448.32
 30
0.0
 11
-587.5
 21
448.32
 31
0.0
  0
LINE
  5
8E6
330
1A
100
AcDbEntity
  8
GUIDE
100
AcDbLine
 10
-581.5
 20
474.64
 30
0.0
 11
-587.5
 21
474.64
 31
0.0
  0
LINE
  5
8E7
330
1A
100
AcDbEntity
  8
GUIDE
100
AcDbLine
 10
-574.0
 20
459.6
 30
0.0
 11
-595.0
 21
459.6
 31
0.0
  0
LINE
  5
8E8
330
1A
100
AcDbEntity
  8
GUIDE
100
AcDbLine
 10
-574.0
 20
452.08
 30
0.0
 11
-595.0
 21
452.08
 31
0.0
  0
LINE
  5
8E9
330
1A
100
AcDbEntity
  8
GUIDE
100
AcDbLine
 10
-574.0
 20
478.4
 30
0.0
 11
-595.0
 21
478.4
 31
0.0
  0
LINE
  5
8EA
330
1A
100
AcDbEntity
  8
GUIDE
100
AcDbLine
 10
-574.0
 20
485.92
 30
0.0
 11
-595.0
 21
485.92
 31
0.0
  0
LINE
  5
8EB
330
1A
100
AcDbEntity
  8
GUIDE
100
AcDbLine
 10
-595.0
 20
478.4
 30
0.0
 11
-595.0
 21
485.92
 31
0.0
  0
LINE
  5
8EC
330
1A
100
AcDbEntity
  8
GUIDE
100
AcDbLine
 10
-595.0
 20
452.08
 30
0.0
 11
-595.0
 21
459.6
 31
0.0
  0
LINE
  5
8ED
330
1A
100
AcDbEntity
  8
GUIDE
100
AcDbLine
 10
-574.0
 20
452.08
 30
0.0
 11
-574.0
 21
459.6
 31
0.0
  0
LINE
  5
8EE
330
1A
100
AcDbEntity
  8
GUIDE
100
AcDbLine
 10
-574.0
 20
478.4
 30
0.0
 11
-574.0
 21
485.92
 31
0.0
  0
LINE
  5
8EF
330
1A
100
AcDbEntity
  8
GUIDE
100
AcDbLine
 10
-587.5
 20
478.4
 30
0.0
 11
-587.5
 21
459.6
 31
0.0
  0
LINE
  5
8F0
330
1A
100
AcDbEntity
  8
GUIDE
100
AcDbLine
 10
-581.5
 20
478.4
 30
0.0
 11
-581.5
 21
459.6
 31
0.0
  0
LINE
  5
8F1
330
1A
100
AcDbEntity
  8
GUIDE
100
AcDbLine
 10
-581.5
 20
452.08
 30
0.0
 11
-581.5
 21
433.28
 31
0.0
  0
LINE
  5
8F2
330
1A
100
AcDbEntity
  8
GUIDE
100
AcDbLine
 10
-587.5
 20
452.08
 30
0.0
 11
-587.5
 21
433.28
 31
0.0
  0
LINE
  5
8F3
330
1A
100
AcDbEntity
  8
GUIDE
100
AcDbLine
 10
-587.5
 20
425.76
 30
0.0
 11
-587.5
 21
422.0
 31
0.0
  0
LINE
  5
8F4
330
1A
100
AcDbEntity
  8
GUIDE
100
AcDbLine
 10
-581.5
 20
425.76
 30
0.0
 11
-581.5
 21
422.0
 31
0.0
  0
LINE
  5
8F5
330
1A
100
AcDbEntity
  8
GUIDE
100
AcDbLine
 10
-564.0
 20
497.24
 30
0.0
 11
-564.0
 21
501.0
 31
0.0
  0
LINE
  5
8F6
330
1A
100
AcDbEntity
  8
GUIDE
100
AcDbLine
 10
-570.0
 20
497.24
 30
0.0
 11
-570.0
 21
501.0
 31
0.0
  0
LINE
  5
8F7
330
1A
100
AcDbEntity
  8
GUIDE
100
AcDbLine
 10
-570.0
 20
470.92
 30
0.0
 11
-570.0
 21
489.72
 31
0.0
  0
LINE
  5
8F8
330
1A
100
AcDbEntity
  8
GUIDE
100
AcDbLine
 10
-564.0
 20
470.92
 30
0.0
 11
-564.0
 21
489.72
 31
0.0
  0
LINE
  5
8F9
330
1A
100
AcDbEntity
  8
GUIDE
100
AcDbLine
 10
-564.0
 20
444.6
 30
0.0
 11
-564.0
 21
463.4
 31
0.0
  0
LINE
  5
8FA
330
1A
100
AcDbEntity
  8
GUIDE
100
AcDbLine
 10
-570.0
 20
444.6
 30
0.0
 11
-570.0
 21
463.4
 31
0.0
  0
LINE
  5
8FB
330
1A
100
AcDbEntity
  8
GUIDE
100
AcDbLine
 10
-556.5
 20
444.6
 30
0.0
 11
-556.5
 21
437.08
 31
0.0
  0
LINE
  5
8FC
330
1A
100
AcDbEntity
  8
GUIDE
100
AcDbLine
 10
-556.5
 20
470.92
 30
0.0
 11
-556.5
 21
463.4
 31
0.0
  0
LINE
  5
8FD
330
1A
100
AcDbEntity
  8
GUIDE
100
AcDbLine
 10
-577.5
 20
470.92
 30
0.0
 11
-577.5
 21
463.4
 31
0.0
  0
LINE
  5
8FE
330
1A
100
AcDbEntity
  8
GUIDE
100
AcDbLine
 10
-577.5
 20
444.6
 30
0.0
 11
-577.5
 21
437.08
 31
0.0
  0
LINE
  5
8FF
330
1A
100
AcDbEntity
  8
GUIDE
100
AcDbLine
 10
-556.5
 20
437.08
 30
0.0
 11
-577.5
 21
437.08
 31
0.0
  0
LINE
  5
900
330
1A
100
AcDbEntity
  8
GUIDE
100
AcDbLine
 10
-556.5
 20
444.6
 30
0.0
 11
-577.5
 21
444.6
 31
0.0
  0
LINE
  5
901
330
1A
100
AcDbEntity
  8
GUIDE
100
AcDbLine
 10
-556.5
 20
470.92
 30
0.0
 11
-577.5
 21
470.92
 31
0.0
  0
LINE
  5
902
330
1A
100
AcDbEntity
  8
GUIDE
100
AcDbLine
 10
-556.5
 20
463.4
 30
0.0
 11
-577.5
 21
463.4
 31
0.0
  0
LINE
  5
903
330
1A
100
AcDbEntity
  8
GUIDE
100
AcDbLine
 10
-564.0
 20
448.36
 30
0.0
 11
-570.0
 21
448.36
 31
0.0
  0
LINE
  5
904
330
1A
100
AcDbEntity
  8
GUIDE
100
AcDbLine
 10
-564.0
 20
474.68
 30
0.0
 11
-570.0
 21
474.68
 31
0.0
  0
LINE
  5
905
330
1A
100
AcDbEntity
  8
GUIDE
100
AcDbLine
 10
-556.5
 20
489.72
 30
0.0
 11
-577.5
 21
489.72
 31
0.0
  0
LINE
  5
906
330
1A
100
AcDbEntity
  8
GUIDE
100
AcDbLine
 10
-556.5
 20
497.24
 30
0.0
 11
-577.5
 21
497.24
 31
0.0
  0
LINE
  5
907
330
1A
100
AcDbEntity
  8
GUIDE
100
AcDbLine
 10
-577.5
 20
497.24
 30
0.0
 11
-577.5
 21
489.72
 31
0.0
  0
LINE
  5
908
330
1A
100
AcDbEntity
  8
GUIDE
100
AcDbLine
 10
-556.5
 20
497.24
 30
0.0
 11
-556.5
 21
489.72
 31
0.0
  0
LINE
  5
909
330
1A
100
AcDbEntity
  8
GUIDE
100
AcDbLine
 10
-570.0
 20
422.0
 30
0.0
 11
-570.0
 21
437.08
 31
0.0
  0
LINE
  5
90A
330
1A
100
AcDbEntity
  8
GUIDE
100
AcDbLine
 10
-564.0
 20
422.0
 30
0.0
 11
-564.0
 21
437.08
 31
0.0
  0
LINE
  5
90B
330
1A
100
AcDbEntity
  8
GUIDE
100
AcDbLine
 10
-616.5
 20
501.0
 30
0.0
 11
-616.5
 21
485.92
 31
0.0
  0
LINE
  5
90C
330
1A
100
AcDbEntity
  8
GUIDE
100
AcDbLine
 10
-622.5
 20
501.0
 30
0.0
 11
-622.5
 21
485.92
 31
0.0
  0
LINE
  5
90D
330
1A
100
AcDbEntity
  8
GUIDE
100
AcDbLine
 10
-609.0
 20
425.76
 30
0.0
 11
-609.0
 21
433.28
 31
0.0
  0
LINE
  5
90E
330
1A
100
AcDbEntity
  8
GUIDE
100
AcDbLine
 10
-630.0
 20
425.76
 30
0.0
 11
-630.0
 21
433.28
 31
0.0
  0
LINE
  5
90F
330
1A
100
AcDbEntity
  8
GUIDE
100
AcDbLine
 10
-609.0
 20
425.76
 30
0.0
 11
-630.0
 21
425.76
 31
0.0
  0
LINE
  5
910
330
1A
100
AcDbEntity
  8
GUIDE
100
AcDbLine
 10
-609.0
 20
433.28
 30
0.0
 11
-630.0
 21
433.28
 31
0.0
  0
LINE
  5
911
330
1A
100
AcDbEntity
  8
GUIDE
100
AcDbLine
 10
-616.5
 20
448.32
 30
0.0
 11
-622.5
 21
448.32
 31
0.0
  0
LINE
  5
912
330
1A
100
AcDbEntity
  8
GUIDE
100
AcDbLine
 10
-616.5
 20
474.64
 30
0.0
 11
-622.5
 21
474.64
 31
0.0
  0
LINE
  5
913
330
1A
100
AcDbEntity
  8
GUIDE
100
AcDbLine
 10
-609.0
 20
459.6
 30
0.0
 11
-630.0
 21
459.6
 31
0.0
  0
LINE
  5
914
330
1A
100
AcDbEntity
  8
GUIDE
100
AcDbLine
 10
-609.0
 20
452.08
 30
0.0
 11
-630.0
 21
452.08
 31
0.0
  0
LINE
  5
915
330
1A
100
AcDbEntity
  8
GUIDE
100
AcDbLine
 10
-609.0
 20
478.4
 30
0.0
 11
-630.0
 21
478.4
 31
0.0
  0
LINE
  5
916
330
1A
100
AcDbEntity
  8
GUIDE
100
AcDbLine
 10
-609.0
 20
485.92
 30
0.0
 11
-630.0
 21
485.92
 31
0.0
  0
LINE
  5
917
330
1A
100
AcDbEntity
  8
GUIDE
100
AcDbLine
 10
-630.0
 20
478.4
 30
0.0
 11
-630.0
 21
485.92
 31
0.0
  0
LINE
  5
918
330
1A
100
AcDbEntity
  8
GUIDE
100
AcDbLine
 10
-630.0
 20
452.08
 30
0.0
 11
-630.0
 21
459.6
 31
0.0
  0
LINE
  5
919
330
1A
100
AcDbEntity
  8
GUIDE
100
AcDbLine
 10
-609.0
 20
452.08
 30
0.0
 11
-609.0
 21
459.6
 31
0.0
  0
LINE
  5
91A
330
1A
100
AcDbEntity
  8
GUIDE
100
AcDbLine
 10
-609.0
 20
478.4
 30
0.0
 11
-609.0
 21
485.92
 31
0.0
  0
LINE
  5
91B
330
1A
100
AcDbEntity
  8
GUIDE
100
AcDbLine
 10
-622.5
 20
478.4
 30
0.0
 11
-622.5
 21
459.6
 31
0.0
  0
LINE
  5
91C
330
1A
100
AcDbEntity
  8
GUIDE
100
AcDbLine
 10
-616.5
 20
478.4
 30
0.0
 11
-616.5
 21
459.6
 31
0.0
  0
LINE
  5
91D
330
1A
100
AcDbEntity
  8
GUIDE
100
AcDbLine
 10
-616.5
 20
452.08
 30
0.0
 11
-616.5
 21
433.28
 31
0.0
  0
LINE
  5
91E
330
1A
100
AcDbEntity
  8
GUIDE
100
AcDbLine
 10
-622.5
 20
452.08
 30
0.0
 11
-622.5
 21
433.28
 31
0.0
  0
LINE
  5
91F
330
1A
100
AcDbEntity
  8
GUIDE
100
AcDbLine
 10
-622.5
 20
425.76
 30
0.0
 11
-622.5
 21
422.0
 31
0.0
  0
LINE
  5
920
330
1A
100
AcDbEntity
  8
GUIDE
100
AcDbLine
 10
-616.5
 20
425.76
 30
0.0
 11
-616.5
 21
422.0
 31
0.0
  0
LINE
  5
921
330
1A
100
AcDbEntity
  8
GUIDE
100
AcDbLine
 10
-599.0
 20
497.24
 30
0.0
 11
-599.0
 21
501.0
 31
0.0
  0
LINE
  5
922
330
1A
100
AcDbEntity
  8
GUIDE
100
AcDbLine
 10
-605.0
 20
497.24
 30
0.0
 11
-605.0
 21
501.0
 31
0.0
  0
LINE
  5
923
330
1A
100
AcDbEntity
  8
GUIDE
100
AcDbLine
 10
-605.0
 20
470.92
 30
0.0
 11
-605.0
 21
489.72
 31
0.0
  0
LINE
  5
924
330
1A
100
AcDbEntity
  8
GUIDE
100
AcDbLine
 10
-599.0
 20
470.92
 30
0.0
 11
-599.0
 21
489.72
 31
0.0
  0
LINE
  5
925
330
1A
100
AcDbEntity
  8
GUIDE
100
AcDbLine
 10
-599.0
 20
444.6
 30
0.0
 11
-599.0
 21
463.4
 31
0.0
  0
LINE
  5
926
330
1A
100
AcDbEntity
  8
GUIDE
100
AcDbLine
 10
-605.0
 20
444.6
 30
0.0
 11
-605.0
 21
463.4
 31
0.0
  0
LINE
  5
927
330
1A
100
AcDbEntity
  8
GUIDE
100
AcDbLine
 10
-591.5
 20
444.6
 30
0.0
 11
-591.5
 21
437.08
 31
0.0
  0
LINE
  5
928
330
1A
100
AcDbEntity
  8
GUIDE
100
AcDbLine
 10
-591.5
 20
470.92
 30
0.0
 11
-591.5
 21
463.4
 31
0.0
  0
LINE
  5
929
330
1A
100
AcDbEntity
  8
GUIDE
100
AcDbLine
 10
-612.5
 20
470.92
 30
0.0
 11
-612.5
 21
463.4
 31
0.0
  0
LINE
  5
92A
330
1A
100
AcDbEntity
  8
GUIDE
100
AcDbLine
 10
-612.5
 20
444.6
 30
0.0
 11
-612.5
 21
437.08
 31
0.0
  0
LINE
  5
92B
330
1A
100
AcDbEntity
  8
GUIDE
100
AcDbLine
 10
-591.5
 20
437.08
 30
0.0
 11
-612.5
 21
437.08
 31
0.0
  0
LINE
  5
92C
330
1A
100
AcDbEntity
  8
GUIDE
100
AcDbLine
 10
-591.5
 20
444.6
 30
0.0
 11
-612.5
 21
444.6
 31
0.0
  0
LINE
  5
92D
330
1A
100
AcDbEntity
  8
GUIDE
100
AcDbLine
 10
-591.5
 20
470.92
 30
0.0
 11
-612.5
 21
470.92
 31
0.0
  0
LINE
  5
92E
330
1A
100
AcDbEntity
  8
GUIDE
100
AcDbLine
 10
-591.5
 20
463.4
 30
0.0
 11
-612.5
 21
463.4
 31
0.0
  0
LINE
  5
92F
330
1A
100
AcDbEntity
  8
GUIDE
100
AcDbLine
 10
-599.0
 20
448.36
 30
0.0
 11
-605.0
 21
448.36
 31
0.0
  0
LINE
  5
930
330
1A
100
AcDbEntity
  8
GUIDE
100
AcDbLine
 10
-599.0
 20
474.68
 30
0.0
 11
-605.0
 21
474.68
 31
0.0
  0
LINE
  5
931
330
1A
100
AcDbEntity
  8
GUIDE
100
AcDbLine
 10
-591.5
 20
489.72
 30
0.0
 11
-612.5
 21
489.72
 31
0.0
  0
LINE
  5
932
330
1A
100
AcDbEntity
  8
GUIDE
100
AcDbLine
 10
-591.5
 20
497.24
 30
0.0
 11
-612.5
 21
497.24
 31
0.0
  0
LINE
  5
933
330
1A
100
AcDbEntity
  8
GUIDE
100
AcDbLine
 10
-612.5
 20
497.24
 30
0.0
 11
-612.5
 21
489.72
 31
0.0
  0
LINE
  5
934
330
1A
100
AcDbEntity
  8
GUIDE
100
AcDbLine
 10
-591.5
 20
497.24
 30
0.0
 11
-591.5
 21
489.72
 31
0.0
  0
LINE
  5
935
330
1A
100
AcDbEntity
  8
GUIDE
100
AcDbLine
 10
-605.0
 20
422.0
 30
0.0
 11
-605.0
 21
437.08
 31
0.0
  0
LINE
  5
936
330
1A
100
AcDbEntity
  8
GUIDE
100
AcDbLine
 10
-599.0
 20
422.0
 30
0.0
 11
-599.0
 21
437.08
 31
0.0
  0
LINE
  5
937
330
1A
100
AcDbEntity
  8
GUIDE
100
AcDbLine
 10
-651.5
 20
501.0
 30
0.0
 11
-651.5
 21
485.92
 31
0.0
  0
LINE
  5
938
330
1A
100
AcDbEntity
  8
GUIDE
100
AcDbLine
 10
-657.5
 20
501.0
 30
0.0
 11
-657.5
 21
485.92
 31
0.0
  0
LINE
  5
939
330
1A
100
AcDbEntity
  8
GUIDE
100
AcDbLine
 10
-644.0
 20
425.76
 30
0.0
 11
-644.0
 21
433.28
 31
0.0
  0
LINE
  5
93A
330
1A
100
AcDbEntity
  8
GUIDE
100
AcDbLine
 10
-665.0
 20
425.76
 30
0.0
 11
-665.0
 21
433.28
 31
0.0
  0
LINE
  5
93B
330
1A
100
AcDbEntity
  8
GUIDE
100
AcDbLine
 10
-644.0
 20
425.76
 30
0.0
 11
-665.0
 21
425.76
 31
0.0
  0
LINE
  5
93C
330
1A
100
AcDbEntity
  8
GUIDE
100
AcDbLine
 10
-644.0
 20
433.28
 30
0.0
 11
-665.0
 21
433.28
 31
0.0
  0
LINE
  5
93D
330
1A
100
AcDbEntity
  8
GUIDE
100
AcDbLine
 10
-651.5
 20
448.32
 30
0.0
 11
-657.5
 21
448.32
 31
0.0
  0
LINE
  5
93E
330
1A
100
AcDbEntity
  8
GUIDE
100
AcDbLine
 10
-651.5
 20
474.64
 30
0.0
 11
-657.5
 21
474.64
 31
0.0
  0
LINE
  5
93F
330
1A
100
AcDbEntity
  8
GUIDE
100
AcDbLine
 10
-644.0
 20
459.6
 30
0.0
 11
-665.0
 21
459.6
 31
0.0
  0
LINE
  5
940
330
1A
100
AcDbEntity
  8
GUIDE
100
AcDbLine
 10
-644.0
 20
452.08
 30
0.0
 11
-665.0
 21
452.08
 31
0.0
  0
LINE
  5
941
330
1A
100
AcDbEntity
  8
GUIDE
100
AcDbLine
 10
-644.0
 20
478.4
 30
0.0
 11
-665.0
 21
478.4
 31
0.0
  0
LINE
  5
942
330
1A
100
AcDbEntity
  8
GUIDE
100
AcDbLine
 10
-644.0
 20
485.92
 30
0.0
 11
-665.0
 21
485.92
 31
0.0
  0
LINE
  5
943
330
1A
100
AcDbEntity
  8
GUIDE
100
AcDbLine
 10
-665.0
 20
478.4
 30
0.0
 11
-665.0
 21
485.92
 31
0.0
  0
LINE
  5
944
330
1A
100
AcDbEntity
  8
GUIDE
100
AcDbLine
 10
-665.0
 20
452.08
 30
0.0
 11
-665.0
 21
459.6
 31
0.0
  0
LINE
  5
945
330
1A
100
AcDbEntity
  8
GUIDE
100
AcDbLine
 10
-644.0
 20
452.08
 30
0.0
 11
-644.0
 21
459.6
 31
0.0
  0
LINE
  5
946
330
1A
100
AcDbEntity
  8
GUIDE
100
AcDbLine
 10
-644.0
 20
478.4
 30
0.0
 11
-644.0
 21
485.92
 31
0.0
  0
LINE
  5
947
330
1A
100
AcDbEntity
  8
GUIDE
100
AcDbLine
 10
-657.5
 20
478.4
 30
0.0
 11
-657.5
 21
459.6
 31
0.0
  0
LINE
  5
948
330
1A
100
AcDbEntity
  8
GUIDE
100
AcDbLine
 10
-651.5
 20
478.4
 30
0.0
 11
-651.5
 21
459.6
 31
0.0
  0
LINE
  5
949
330
1A
100
AcDbEntity
  8
GUIDE
100
AcDbLine
 10
-651.5
 20
452.08
 30
0.0
 11
-651.5
 21
433.28
 31
0.0
  0
LINE
  5
94A
330
1A
100
AcDbEntity
  8
GUIDE
100
AcDbLine
 10
-657.5
 20
452.08
 30
0.0
 11
-657.5
 21
433.28
 31
0.0
  0
LINE
  5
94B
330
1A
100
AcDbEntity
  8
GUIDE
100
AcDbLine
 10
-657.5
 20
425.76
 30
0.0
 11
-657.5
 21
422.0
 31
0.0
  0
LINE
  5
94C
330
1A
100
AcDbEntity
  8
GUIDE
100
AcDbLine
 10
-651.5
 20
425.76
 30
0.0
 11
-651.5
 21
422.0
 31
0.0
  0
LINE
  5
94D
330
1A
100
AcDbEntity
  8
GUIDE
100
AcDbLine
 10
-634.0
 20
497.24
 30
0.0
 11
-634.0
 21
501.0
 31
0.0
  0
LINE
  5
94E
330
1A
100
AcDbEntity
  8
GUIDE
100
AcDbLine
 10
-640.0
 20
497.24
 30
0.0
 11
-640.0
 21
501.0
 31
0.0
  0
LINE
  5
94F
330
1A
100
AcDbEntity
  8
GUIDE
100
AcDbLine
 10
-640.0
 20
470.92
 30
0.0
 11
-640.0
 21
489.72
 31
0.0
  0
LINE
  5
950
330
1A
100
AcDbEntity
  8
GUIDE
100
AcDbLine
 10
-634.0
 20
470.92
 30
0.0
 11
-634.0
 21
489.72
 31
0.0
  0
LINE
  5
951
330
1A
100
AcDbEntity
  8
GUIDE
100
AcDbLine
 10
-634.0
 20
444.6
 30
0.0
 11
-634.0
 21
463.4
 31
0.0
  0
LINE
  5
952
330
1A
100
AcDbEntity
  8
GUIDE
100
AcDbLine
 10
-640.0
 20
444.6
 30
0.0
 11
-640.0
 21
463.4
 31
0.0
  0
LINE
  5
953
330
1A
100
AcDbEntity
  8
GUIDE
100
AcDbLine
 10
-626.5
 20
444.6
 30
0.0
 11
-626.5
 21
437.08
 31
0.0
  0
LINE
  5
954
330
1A
100
AcDbEntity
  8
GUIDE
100
AcDbLine
 10
-626.5
 20
470.92
 30
0.0
 11
-626.5
 21
463.4
 31
0.0
  0
LINE
  5
955
330
1A
100
AcDbEntity
  8
GUIDE
100
AcDbLine
 10
-647.5
 20
470.92
 30
0.0
 11
-647.5
 21
463.4
 31
0.0
  0
LINE
  5
956
330
1A
100
AcDbEntity
  8
GUIDE
100
AcDbLine
 10
-647.5
 20
444.6
 30
0.0
 11
-647.5
 21
437.08
 31
0.0
  0
LINE
  5
957
330
1A
100
AcDbEntity
  8
GUIDE
100
AcDbLine
 10
-626.5
 20
437.08
 30
0.0
 11
-647.5
 21
437.08
 31
0.0
  0
LINE
  5
958
330
1A
100
AcDbEntity
  8
GUIDE
100
AcDbLine
 10
-626.5
 20
444.6
 30
0.0
 11
-647.5
 21
444.6
 31
0.0
  0
LINE
  5
959
330
1A
100
AcDbEntity
  8
GUIDE
100
AcDbLine
 10
-626.5
 20
470.92
 30
0.0
 11
-647.5
 21
470.92
 31
0.0
  0
LINE
  5
95A
330
1A
100
AcDbEntity
  8
GUIDE
100
AcDbLine
 10
-626.5
 20
463.4
 30
0.0
 11
-647.5
 21
463.4
 31
0.0
  0
LINE
  5
95B
330
1A
100
AcDbEntity
  8
GUIDE
100
AcDbLine
 10
-634.0
 20
448.36
 30
0.0
 11
-640.0
 21
448.36
 31
0.0
  0
LINE
  5
95C
330
1A
100
AcDbEntity
  8
GUIDE
100
AcDbLine
 10
-634.0
 20
474.68
 30
0.0
 11
-640.0
 21
474.68
 31
0.0
  0
LINE
  5
95D
330
1A
100
AcDbEntity
  8
GUIDE
100
AcDbLine
 10
-626.5
 20
489.72
 30
0.0
 11
-647.5
 21
489.72
 31
0.0
  0
LINE
  5
95E
330
1A
100
AcDbEntity
  8
GUIDE
100
AcDbLine
 10
-626.5
 20
497.24
 30
0.0
 11
-647.5
 21
497.24
 31
0.0
  0
LINE
  5
95F
330
1A
100
AcDbEntity
  8
GUIDE
100
AcDbLine
 10
-647.5
 20
497.24
 30
0.0
 11
-647.5
 21
489.72
 31
0.0
  0
LINE
  5
960
330
1A
100
AcDbEntity
  8
GUIDE
100
AcDbLine
 10
-626.5
 20
497.24
 30
0.0
 11
-626.5
 21
489.72
 31
0.0
  0
LINE
  5
961
330
1A
100
AcDbEntity
  8
GUIDE
100
AcDbLine
 10
-640.0
 20
422.0
 30
0.0
 11
-640.0
 21
437.08
 31
0.0
  0
LINE
  5
962
330
1A
100
AcDbEntity
  8
GUIDE
100
AcDbLine
 10
-634.0
 20
422.0
 30
0.0
 11
-634.0
 21
437.08
 31
0.0
  0
LINE
  5
963
330
1A
100
AcDbEntity
  8
GUIDE
100
AcDbLine
 10
-686.5
 20
501.0
 30
0.0
 11
-686.5
 21
485.92
 31
0.0
  0
LINE
  5
964
330
1A
100
AcDbEntity
  8
GUIDE
100
AcDbLine
 10
-692.5
 20
501.0
 30
0.0
 11
-692.5
 21
485.92
 31
0.0
  0
LINE
  5
965
330
1A
100
AcDbEntity
  8
GUIDE
100
AcDbLine
 10
-679.0
 20
425.76
 30
0.0
 11
-679.0
 21
433.28
 31
0.0
  0
LINE
  5
966
330
1A
100
AcDbEntity
  8
GUIDE
100
AcDbLine
 10
-700.0
 20
425.76
 30
0.0
 11
-700.0
 21
433.28
 31
0.0
  0
LINE
  5
967
330
1A
100
AcDbEntity
  8
GUIDE
100
AcDbLine
 10
-679.0
 20
425.76
 30
0.0
 11
-700.0
 21
425.76
 31
0.0
  0
LINE
  5
968
330
1A
100
AcDbEntity
  8
GUIDE
100
AcDbLine
 10
-679.0
 20
433.28
 30
0.0
 11
-700.0
 21
433.28
 31
0.0
  0
LINE
  5
969
330
1A
100
AcDbEntity
  8
GUIDE
100
AcDbLine
 10
-686.5
 20
448.32
 30
0.0
 11
-692.5
 21
448.32
 31
0.0
  0
LINE
  5
96A
330
1A
100
AcDbEntity
  8
GUIDE
100
AcDbLine
 10
-686.5
 20
474.64
 30
0.0
 11
-692.5
 21
474.64
 31
0.0
  0
LINE
  5
96B
330
1A
100
AcDbEntity
  8
GUIDE
100
AcDbLine
 10
-679.0
 20
459.6
 30
0.0
 11
-700.0
 21
459.6
 31
0.0
  0
LINE
  5
96C
330
1A
100
AcDbEntity
  8
GUIDE
100
AcDbLine
 10
-679.0
 20
452.08
 30
0.0
 11
-700.0
 21
452.08
 31
0.0
  0
LINE
  5
96D
330
1A
100
AcDbEntity
  8
GUIDE
100
AcDbLine
 10
-679.0
 20
478.4
 30
0.0
 11
-700.0
 21
478.4
 31
0.0
  0
LINE
  5
96E
330
1A
100
AcDbEntity
  8
GUIDE
100
AcDbLine
 10
-679.0
 20
485.92
 30
0.0
 11
-700.0
 21
485.92
 31
0.0
  0
LINE
  5
96F
330
1A
100
AcDbEntity
  8
GUIDE
100
AcDbLine
 10
-700.0
 20
478.4
 30
0.0
 11
-700.0
 21
485.92
 31
0.0
  0
LINE
  5
970
330
1A
100
AcDbEntity
  8
GUIDE
100
AcDbLine
 10
-700.0
 20
452.08
 30
0.0
 11
-700.0
 21
459.6
 31
0.0
  0
LINE
  5
971
330
1A
100
AcDbEntity
  8
GUIDE
100
AcDbLine
 10
-679.0
 20
452.08
 30
0.0
 11
-679.0
 21
459.6
 31
0.0
  0
LINE
  5
972
330
1A
100
AcDbEntity
  8
GUIDE
100
AcDbLine
 10
-679.0
 20
478.4
 30
0.0
 11
-679.0
 21
485.92
 31
0.0
  0
LINE
  5
973
330
1A
100
AcDbEntity
  8
GUIDE
100
AcDbLine
 10
-692.5
 20
478.4
 30
0.0
 11
-692.5
 21
459.6
 31
0.0
  0
LINE
  5
974
330
1A
100
AcDbEntity
  8
GUIDE
100
AcDbLine
 10
-686.5
 20
478.4
 30
0.0
 11
-686.5
 21
459.6
 31
0.0
  0
LINE
  5
975
330
1A
100
AcDbEntity
  8
GUIDE
100
AcDbLine
 10
-686.5
 20
452.08
 30
0.0
 11
-686.5
 21
433.28
 31
0.0
  0
LINE
  5
976
330
1A
100
AcDbEntity
  8
GUIDE
100
AcDbLine
 10
-692.5
 20
452.08
 30
0.0
 11
-692.5
 21
433.28
 31
0.0
  0
LINE
  5
977
330
1A
100
AcDbEntity
  8
GUIDE
100
AcDbLine
 10
-692.5
 20
425.76
 30
0.0
 11
-692.5
 21
422.0
 31
0.0
  0
LINE
  5
978
330
1A
100
AcDbEntity
  8
GUIDE
100
AcDbLine
 10
-686.5
 20
425.76
 30
0.0
 11
-686.5
 21
422.0
 31
0.0
  0
LINE
  5
979
330
1A
100
AcDbEntity
  8
GUIDE
100
AcDbLine
 10
-669.0
 20
497.24
 30
0.0
 11
-669.0
 21
501.0
 31
0.0
  0
LINE
  5
97A
330
1A
100
AcDbEntity
  8
GUIDE
100
AcDbLine
 10
-675.0
 20
497.24
 30
0.0
 11
-675.0
 21
501.0
 31
0.0
  0
LINE
  5
97B
330
1A
100
AcDbEntity
  8
GUIDE
100
AcDbLine
 10
-675.0
 20
470.92
 30
0.0
 11
-675.0
 21
489.72
 31
0.0
  0
LINE
  5
97C
330
1A
100
AcDbEntity
  8
GUIDE
100
AcDbLine
 10
-669.0
 20
470.92
 30
0.0
 11
-669.0
 21
489.72
 31
0.0
  0
LINE
  5
97D
330
1A
100
AcDbEntity
  8
GUIDE
100
AcDbLine
 10
-669.0
 20
444.6
 30
0.0
 11
-669.0
 21
463.4
 31
0.0
  0
LINE
  5
97E
330
1A
100
AcDbEntity
  8
GUIDE
100
AcDbLine
 10
-675.0
 20
444.6
 30
0.0
 11
-675.0
 21
463.4
 31
0.0
  0
LINE
  5
97F
330
1A
100
AcDbEntity
  8
GUIDE
100
AcDbLine
 10
-661.5
 20
444.6
 30
0.0
 11
-661.5
 21
437.08
 31
0.0
  0
LINE
  5
980
330
1A
100
AcDbEntity
  8
GUIDE
100
AcDbLine
 10
-661.5
 20
470.92
 30
0.0
 11
-661.5
 21
463.4
 31
0.0
  0
LINE
  5
981
330
1A
100
AcDbEntity
  8
GUIDE
100
AcDbLine
 10
-682.5
 20
470.92
 30
0.0
 11
-682.5
 21
463.4
 31
0.0
  0
LINE
  5
982
330
1A
100
AcDbEntity
  8
GUIDE
100
AcDbLine
 10
-682.5
 20
444.6
 30
0.0
 11
-682.5
 21
437.08
 31
0.0
  0
LINE
  5
983
330
1A
100
AcDbEntity
  8
GUIDE
100
AcDbLine
 10
-661.5
 20
437.08
 30
0.0
 11
-682.5
 21
437.08
 31
0.0
  0
LINE
  5
984
330
1A
100
AcDbEntity
  8
GUIDE
100
AcDbLine
 10
-661.5
 20
444.6
 30
0.0
 11
-682.5
 21
444.6
 31
0.0
  0
LINE
  5
985
330
1A
100
AcDbEntity
  8
GUIDE
100
AcDbLine
 10
-661.5
 20
470.92
 30
0.0
 11
-682.5
 21
470.92
 31
0.0
  0
LINE
  5
986
330
1A
100
AcDbEntity
  8
GUIDE
100
AcDbLine
 10
-661.5
 20
463.4
 30
0.0
 11
-682.5
 21
463.4
 31
0.0
  0
LINE
  5
987
330
1A
100
AcDbEntity
  8
GUIDE
100
AcDbLine
 10
-669.0
 20
448.36
 30
0.0
 11
-675.0
 21
448.36
 31
0.0
  0
LINE
  5
988
330
1A
100
AcDbEntity
  8
GUIDE
100
AcDbLine
 10
-669.0
 20
474.68
 30
0.0
 11
-675.0
 21
474.68
 31
0.0
  0
LINE
  5
989
330
1A
100
AcDbEntity
  8
GUIDE
100
AcDbLine
 10
-661.5
 20
489.72
 30
0.0
 11
-682.5
 21
489.72
 31
0.0
  0
LINE
  5
98A
330
1A
100
AcDbEntity
  8
GUIDE
100
AcDbLine
 10
-661.5
 20
497.24
 30
0.0
 11
-682.5
 21
497.24
 31
0.0
  0
LINE
  5
98B
330
1A
100
AcDbEntity
  8
GUIDE
100
AcDbLine
 10
-682.5
 20
497.24
 30
0.0
 11
-682.5
 21
489.72
 31
0.0
  0
LINE
  5
98C
330
1A
100
AcDbEntity
  8
GUIDE
100
AcDbLine
 10
-661.5
 20
497.24
 30
0.0
 11
-661.5
 21
489.72
 31
0.0
  0
LINE
  5
98D
330
1A
100
AcDbEntity
  8
GUIDE
100
AcDbLine
 10
-675.0
 20
422.0
 30
0.0
 11
-675.0
 21
437.08
 31
0.0
  0
LINE
  5
98E
330
1A
100
AcDbEntity
  8
GUIDE
100
AcDbLine
 10
-669.0
 20
422.0
 30
0.0
 11
-669.0
 21
437.08
 31
0.0
  0
LINE
  5
98F
330
1A
100
AcDbEntity
  8
GUIDE
100
AcDbLine
 10
-721.5
 20
501.0
 30
0.0
 11
-721.5
 21
485.92
 31
0.0
  0
LINE
  5
990
330
1A
100
AcDbEntity
  8
GUIDE
100
AcDbLine
 10
-727.5
 20
501.0
 30
0.0
 11
-727.5
 21
485.92
 31
0.0
  0
LINE
  5
991
330
1A
100
AcDbEntity
  8
GUIDE
100
AcDbLine
 10
-714.0
 20
425.76
 30
0.0
 11
-714.0
 21
433.28
 31
0.0
  0
LINE
  5
992
330
1A
100
AcDbEntity
  8
GUIDE
100
AcDbLine
 10
-735.0
 20
425.76
 30
0.0
 11
-735.0
 21
433.28
 31
0.0
  0
LINE
  5
993
330
1A
100
AcDbEntity
  8
GUIDE
100
AcDbLine
 10
-714.0
 20
425.76
 30
0.0
 11
-735.0
 21
425.76
 31
0.0
  0
LINE
  5
994
330
1A
100
AcDbEntity
  8
GUIDE
100
AcDbLine
 10
-714.0
 20
433.28
 30
0.0
 11
-735.0
 21
433.28
 31
0.0
  0
LINE
  5
995
330
1A
100
AcDbEntity
  8
GUIDE
100
AcDbLine
 10
-721.5
 20
448.32
 30
0.0
 11
-727.5
 21
448.32
 31
0.0
  0
LINE
  5
996
330
1A
100
AcDbEntity
  8
GUIDE
100
AcDbLine
 10
-721.5
 20
474.64
 30
0.0
 11
-727.5
 21
474.64
 31
0.0
  0
LINE
  5
997
330
1A
100
AcDbEntity
  8
GUIDE
100
AcDbLine
 10
-714.0
 20
459.6
 30
0.0
 11
-735.0
 21
459.6
 31
0.0
  0
LINE
  5
998
330
1A
100
AcDbEntity
  8
GUIDE
100
AcDbLine
 10
-714.0
 20
452.08
 30
0.0
 11
-735.0
 21
452.08
 31
0.0
  0
LINE
  5
999
330
1A
100
AcDbEntity
  8
GUIDE
100
AcDbLine
 10
-714.0
 20
478.4
 30
0.0
 11
-735.0
 21
478.4
 31
0.0
  0
LINE
  5
99A
330
1A
100
AcDbEntity
  8
GUIDE
100
AcDbLine
 10
-714.0
 20
485.92
 30
0.0
 11
-735.0
 21
485.92
 31
0.0
  0
LINE
  5
99B
330
1A
100
AcDbEntity
  8
GUIDE
100
AcDbLine
 10
-735.0
 20
478.4
 30
0.0
 11
-735.0
 21
485.92
 31
0.0
  0
LINE
  5
99C
330
1A
100
AcDbEntity
  8
GUIDE
100
AcDbLine
 10
-735.0
 20
452.08
 30
0.0
 11
-735.0
 21
459.6
 31
0.0
  0
LINE
  5
99D
330
1A
100
AcDbEntity
  8
GUIDE
100
AcDbLine
 10
-714.0
 20
452.08
 30
0.0
 11
-714.0
 21
459.6
 31
0.0
  0
LINE
  5
99E
330
1A
100
AcDbEntity
  8
GUIDE
100
AcDbLine
 10
-714.0
 20
478.4
 30
0.0
 11
-714.0
 21
485.92
 31
0.0
  0
LINE
  5
99F
330
1A
100
AcDbEntity
  8
GUIDE
100
AcDbLine
 10
-727.5
 20
478.4
 30
0.0
 11
-727.5
 21
459.6
 31
0.0
  0
LINE
  5
9A0
330
1A
100
AcDbEntity
  8
GUIDE
100
AcDbLine
 10
-721.5
 20
478.4
 30
0.0
 11
-721.5
 21
459.6
 31
0.0
  0
LINE
  5
9A1
330
1A
100
AcDbEntity
  8
GUIDE
100
AcDbLine
 10
-721.5
 20
452.08
 30
0.0
 11
-721.5
 21
433.28
 31
0.0
  0
LINE
  5
9A2
330
1A
100
AcDbEntity
  8
GUIDE
100
AcDbLine
 10
-727.5
 20
452.08
 30
0.0
 11
-727.5
 21
433.28
 31
0.0
  0
LINE
  5
9A3
330
1A
100
AcDbEntity
  8
GUIDE
100
AcDbLine
 10
-727.5
 20
425.76
 30
0.0
 11
-727.5
 21
422.0
 31
0.0
  0
LINE
  5
9A4
330
1A
100
AcDbEntity
  8
GUIDE
100
AcDbLine
 10
-721.5
 20
425.76
 30
0.0
 11
-721.5
 21
422.0
 31
0.0
  0
LINE
  5
9A5
330
1A
100
AcDbEntity
  8
GUIDE
100
AcDbLine
 10
-704.0
 20
497.24
 30
0.0
 11
-704.0
 21
501.0
 31
0.0
  0
LINE
  5
9A6
330
1A
100
AcDbEntity
  8
GUIDE
100
AcDbLine
 10
-710.0
 20
497.24
 30
0.0
 11
-710.0
 21
501.0
 31
0.0
  0
LINE
  5
9A7
330
1A
100
AcDbEntity
  8
GUIDE
100
AcDbLine
 10
-710.0
 20
470.92
 30
0.0
 11
-710.0
 21
489.72
 31
0.0
  0
LINE
  5
9A8
330
1A
100
AcDbEntity
  8
GUIDE
100
AcDbLine
 10
-704.0
 20
470.92
 30
0.0
 11
-704.0
 21
489.72
 31
0.0
  0
LINE
  5
9A9
330
1A
100
AcDbEntity
  8
GUIDE
100
AcDbLine
 10
-704.0
 20
444.6
 30
0.0
 11
-704.0
 21
463.4
 31
0.0
  0
LINE
  5
9AA
330
1A
100
AcDbEntity
  8
GUIDE
100
AcDbLine
 10
-710.0
 20
444.6
 30
0.0
 11
-710.0
 21
463.4
 31
0.0
  0
LINE
  5
9AB
330
1A
100
AcDbEntity
  8
GUIDE
100
AcDbLine
 10
-696.5
 20
444.6
 30
0.0
 11
-696.5
 21
437.08
 31
0.0
  0
LINE
  5
9AC
330
1A
100
AcDbEntity
  8
GUIDE
100
AcDbLine
 10
-696.5
 20
470.92
 30
0.0
 11
-696.5
 21
463.4
 31
0.0
  0
LINE
  5
9AD
330
1A
100
AcDbEntity
  8
GUIDE
100
AcDbLine
 10
-717.5
 20
470.92
 30
0.0
 11
-717.5
 21
463.4
 31
0.0
  0
LINE
  5
9AE
330
1A
100
AcDbEntity
  8
GUIDE
100
AcDbLine
 10
-717.5
 20
444.6
 30
0.0
 11
-717.5
 21
437.08
 31
0.0
  0
LINE
  5
9AF
330
1A
100
AcDbEntity
  8
GUIDE
100
AcDbLine
 10
-696.5
 20
437.08
 30
0.0
 11
-717.5
 21
437.08
 31
0.0
  0
LINE
  5
9B0
330
1A
100
AcDbEntity
  8
GUIDE
100
AcDbLine
 10
-696.5
 20
444.6
 30
0.0
 11
-717.5
 21
444.6
 31
0.0
  0
LINE
  5
9B1
330
1A
100
AcDbEntity
  8
GUIDE
100
AcDbLine
 10
-696.5
 20
470.92
 30
0.0
 11
-717.5
 21
470.92
 31
0.0
  0
LINE
  5
9B2
330
1A
100
AcDbEntity
  8
GUIDE
100
AcDbLine
 10
-696.5
 20
463.4
 30
0.0
 11
-717.5
 21
463.4
 31
0.0
  0
LINE
  5
9B3
330
1A
100
AcDbEntity
  8
GUIDE
100
AcDbLine
 10
-704.0
 20
448.36
 30
0.0
 11
-710.0
 21
448.36
 31
0.0
  0
LINE
  5
9B4
330
1A
100
AcDbEntity
  8
GUIDE
100
AcDbLine
 10
-704.0
 20
474.68
 30
0.0
 11
-710.0
 21
474.68
 31
0.0
  0
LINE
  5
9B5
330
1A
100
AcDbEntity
  8
GUIDE
100
AcDbLine
 10
-696.5
 20
489.72
 30
0.0
 11
-717.5
 21
489.72
 31
0.0
  0
LINE
  5
9B6
330
1A
100
AcDbEntity
  8
GUIDE
100
AcDbLine
 10
-696.5
 20
497.24
 30
0.0
 11
-717.5
 21
497.24
 31
0.0
  0
LINE
  5
9B7
330
1A
100
AcDbEntity
  8
GUIDE
100
AcDbLine
 10
-717.5
 20
497.24
 30
0.0
 11
-717.5
 21
489.72
 31
0.0
  0
LINE
  5
9B8
330
1A
100
AcDbEntity
  8
GUIDE
100
AcDbLine
 10
-696.5
 20
497.24
 30
0.0
 11
-696.5
 21
489.72
 31
0.0
  0
LINE
  5
9B9
330
1A
100
AcDbEntity
  8
GUIDE
100
AcDbLine
 10
-710.0
 20
422.0
 30
0.0
 11
-710.0
 21
437.08
 31
0.0
  0
LINE
  5
9BA
330
1A
100
AcDbEntity
  8
GUIDE
100
AcDbLine
 10
-704.0
 20
422.0
 30
0.0
 11
-704.0
 21
437.08
 31
0.0
  0
LINE
  5
9BB
330
1A
100
AcDbEntity
  8
GUIDE
100
AcDbLine
 10
-756.5
 20
501.0
 30
0.0
 11
-756.5
 21
485.92
 31
0.0
  0
LINE
  5
9BC
330
1A
100
AcDbEntity
  8
GUIDE
100
AcDbLine
 10
-762.5
 20
501.0
 30
0.0
 11
-762.5
 21
485.92
 31
0.0
  0
LINE
  5
9BD
330
1A
100
AcDbEntity
  8
GUIDE
100
AcDbLine
 10
-749.0
 20
425.76
 30
0.0
 11
-749.0
 21
433.28
 31
0.0
  0
LINE
  5
9BE
330
1A
100
AcDbEntity
  8
GUIDE
100
AcDbLine
 10
-770.0
 20
425.76
 30
0.0
 11
-770.0
 21
433.28
 31
0.0
  0
LINE
  5
9BF
330
1A
100
AcDbEntity
  8
GUIDE
100
AcDbLine
 10
-749.0
 20
425.76
 30
0.0
 11
-770.0
 21
425.76
 31
0.0
  0
LINE
  5
9C0
330
1A
100
AcDbEntity
  8
GUIDE
100
AcDbLine
 10
-749.0
 20
433.28
 30
0.0
 11
-770.0
 21
433.28
 31
0.0
  0
LINE
  5
9C1
330
1A
100
AcDbEntity
  8
GUIDE
100
AcDbLine
 10
-756.5
 20
448.32
 30
0.0
 11
-762.5
 21
448.32
 31
0.0
  0
LINE
  5
9C2
330
1A
100
AcDbEntity
  8
GUIDE
100
AcDbLine
 10
-756.5
 20
474.64
 30
0.0
 11
-762.5
 21
474.64
 31
0.0
  0
LINE
  5
9C3
330
1A
100
AcDbEntity
  8
GUIDE
100
AcDbLine
 10
-749.0
 20
459.6
 30
0.0
 11
-770.0
 21
459.6
 31
0.0
  0
LINE
  5
9C4
330
1A
100
AcDbEntity
  8
GUIDE
100
AcDbLine
 10
-749.0
 20
452.08
 30
0.0
 11
-770.0
 21
452.08
 31
0.0
  0
LINE
  5
9C5
330
1A
100
AcDbEntity
  8
GUIDE
100
AcDbLine
 10
-749.0
 20
478.4
 30
0.0
 11
-770.0
 21
478.4
 31
0.0
  0
LINE
  5
9C6
330
1A
100
AcDbEntity
  8
GUIDE
100
AcDbLine
 10
-749.0
 20
485.92
 30
0.0
 11
-770.0
 21
485.92
 31
0.0
  0
LINE
  5
9C7
330
1A
100
AcDbEntity
  8
GUIDE
100
AcDbLine
 10
-770.0
 20
478.4
 30
0.0
 11
-770.0
 21
485.92
 31
0.0
  0
LINE
  5
9C8
330
1A
100
AcDbEntity
  8
GUIDE
100
AcDbLine
 10
-770.0
 20
452.08
 30
0.0
 11
-770.0
 21
459.6
 31
0.0
  0
LINE
  5
9C9
330
1A
100
AcDbEntity
  8
GUIDE
100
AcDbLine
 10
-749.0
 20
452.08
 30
0.0
 11
-749.0
 21
459.6
 31
0.0
  0
LINE
  5
9CA
330
1A
100
AcDbEntity
  8
GUIDE
100
AcDbLine
 10
-749.0
 20
478.4
 30
0.0
 11
-749.0
 21
485.92
 31
0.0
  0
LINE
  5
9CB
330
1A
100
AcDbEntity
  8
GUIDE
100
AcDbLine
 10
-762.5
 20
478.4
 30
0.0
 11
-762.5
 21
459.6
 31
0.0
  0
LINE
  5
9CC
330
1A
100
AcDbEntity
  8
GUIDE
100
AcDbLine
 10
-756.5
 20
478.4
 30
0.0
 11
-756.5
 21
459.6
 31
0.0
  0
LINE
  5
9CD
330
1A
100
AcDbEntity
  8
GUIDE
100
AcDbLine
 10
-756.5
 20
452.08
 30
0.0
 11
-756.5
 21
433.28
 31
0.0
  0
LINE
  5
9CE
330
1A
100
AcDbEntity
  8
GUIDE
100
AcDbLine
 10
-762.5
 20
452.08
 30
0.0
 11
-762.5
 21
433.28
 31
0.0
  0
LINE
  5
9CF
330
1A
100
AcDbEntity
  8
GUIDE
100
AcDbLine
 10
-762.5
 20
425.76
 30
0.0
 11
-762.5
 21
422.0
 31
0.0
  0
LINE
  5
9D0
330
1A
100
AcDbEntity
  8
GUIDE
100
AcDbLine
 10
-756.5
 20
425.76
 30
0.0
 11
-756.5
 21
422.0
 31
0.0
  0
LINE
  5
9D1
330
1A
100
AcDbEntity
  8
GUIDE
100
AcDbLine
 10
-739.0
 20
497.24
 30
0.0
 11
-739.0
 21
501.0
 31
0.0
  0
LINE
  5
9D2
330
1A
100
AcDbEntity
  8
GUIDE
100
AcDbLine
 10
-745.0
 20
497.24
 30
0.0
 11
-745.0
 21
501.0
 31
0.0
  0
LINE
  5
9D3
330
1A
100
AcDbEntity
  8
GUIDE
100
AcDbLine
 10
-745.0
 20
470.92
 30
0.0
 11
-745.0
 21
489.72
 31
0.0
  0
LINE
  5
9D4
330
1A
100
AcDbEntity
  8
GUIDE
100
AcDbLine
 10
-739.0
 20
470.92
 30
0.0
 11
-739.0
 21
489.72
 31
0.0
  0
LINE
  5
9D5
330
1A
100
AcDbEntity
  8
GUIDE
100
AcDbLine
 10
-739.0
 20
444.6
 30
0.0
 11
-739.0
 21
463.4
 31
0.0
  0
LINE
  5
9D6
330
1A
100
AcDbEntity
  8
GUIDE
100
AcDbLine
 10
-745.0
 20
444.6
 30
0.0
 11
-745.0
 21
463.4
 31
0.0
  0
LINE
  5
9D7
330
1A
100
AcDbEntity
  8
GUIDE
100
AcDbLine
 10
-731.5
 20
444.6
 30
0.0
 11
-731.5
 21
437.08
 31
0.0
  0
LINE
  5
9D8
330
1A
100
AcDbEntity
  8
GUIDE
100
AcDbLine
 10
-731.5
 20
470.92
 30
0.0
 11
-731.5
 21
463.4
 31
0.0
  0
LINE
  5
9D9
330
1A
100
AcDbEntity
  8
GUIDE
100
AcDbLine
 10
-752.5
 20
470.92
 30
0.0
 11
-752.5
 21
463.4
 31
0.0
  0
LINE
  5
9DA
330
1A
100
AcDbEntity
  8
GUIDE
100
AcDbLine
 10
-752.5
 20
444.6
 30
0.0
 11
-752.5
 21
437.08
 31
0.0
  0
LINE
  5
9DB
330
1A
100
AcDbEntity
  8
GUIDE
100
AcDbLine
 10
-731.5
 20
437.08
 30
0.0
 11
-752.5
 21
437.08
 31
0.0
  0
LINE
  5
9DC
330
1A
100
AcDbEntity
  8
GUIDE
100
AcDbLine
 10
-731.5
 20
444.6
 30
0.0
 11
-752.5
 21
444.6
 31
0.0
  0
LINE
  5
9DD
330
1A
100
AcDbEntity
  8
GUIDE
100
AcDbLine
 10
-731.5
 20
470.92
 30
0.0
 11
-752.5
 21
470.92
 31
0.0
  0
LINE
  5
9DE
330
1A
100
AcDbEntity
  8
GUIDE
100
AcDbLine
 10
-731.5
 20
463.4
 30
0.0
 11
-752.5
 21
463.4
 31
0.0
  0
LINE
  5
9DF
330
1A
100
AcDbEntity
  8
GUIDE
100
AcDbLine
 10
-739.0
 20
448.36
 30
0.0
 11
-745.0
 21
448.36
 31
0.0
  0
LINE
  5
9E0
330
1A
100
AcDbEntity
  8
GUIDE
100
AcDbLine
 10
-739.0
 20
474.68
 30
0.0
 11
-745.0
 21
474.68
 31
0.0
  0
LINE
  5
9E1
330
1A
100
AcDbEntity
  8
GUIDE
100
AcDbLine
 10
-731.5
 20
489.72
 30
0.0
 11
-752.5
 21
489.72
 31
0.0
  0
LINE
  5
9E2
330
1A
100
AcDbEntity
  8
GUIDE
100
AcDbLine
 10
-731.5
 20
497.24
 30
0.0
 11
-752.5
 21
497.24
 31
0.0
  0
LINE
  5
9E3
330
1A
100
AcDbEntity
  8
GUIDE
100
AcDbLine
 10
-752.5
 20
497.24
 30
0.0
 11
-752.5
 21
489.72
 31
0.0
  0
LINE
  5
9E4
330
1A
100
AcDbEntity
  8
GUIDE
100
AcDbLine
 10
-731.5
 20
497.24
 30
0.0
 11
-731.5
 21
489.72
 31
0.0
  0
LINE
  5
9E5
330
1A
100
AcDbEntity
  8
GUIDE
100
AcDbLine
 10
-745.0
 20
422.0
 30
0.0
 11
-745.0
 21
437.08
 31
0.0
  0
LINE
  5
9E6
330
1A
100
AcDbEntity
  8
GUIDE
100
AcDbLine
 10
-739.0
 20
422.0
 30
0.0
 11
-739.0
 21
437.08
 31
0.0
  0
LINE
  5
9E7
330
1A
100
AcDbEntity
  8
GUIDE
100
AcDbLine
 10
-791.5
 20
501.0
 30
0.0
 11
-791.5
 21
485.92
 31
0.0
  0
LINE
  5
9E8
330
1A
100
AcDbEntity
  8
GUIDE
100
AcDbLine
 10
-797.5
 20
501.0
 30
0.0
 11
-797.5
 21
485.92
 31
0.0
  0
LINE
  5
9E9
330
1A
100
AcDbEntity
  8
GUIDE
100
AcDbLine
 10
-784.0
 20
425.76
 30
0.0
 11
-784.0
 21
433.28
 31
0.0
  0
LINE
  5
9EA
330
1A
100
AcDbEntity
  8
GUIDE
100
AcDbLine
 10
-805.0
 20
425.76
 30
0.0
 11
-805.0
 21
433.28
 31
0.0
  0
LINE
  5
9EB
330
1A
100
AcDbEntity
  8
GUIDE
100
AcDbLine
 10
-784.0
 20
425.76
 30
0.0
 11
-805.0
 21
425.76
 31
0.0
  0
LINE
  5
9EC
330
1A
100
AcDbEntity
  8
GUIDE
100
AcDbLine
 10
-784.0
 20
433.28
 30
0.0
 11
-805.0
 21
433.28
 31
0.0
  0
LINE
  5
9ED
330
1A
100
AcDbEntity
  8
GUIDE
100
AcDbLine
 10
-791.5
 20
448.32
 30
0.0
 11
-797.5
 21
448.32
 31
0.0
  0
LINE
  5
9EE
330
1A
100
AcDbEntity
  8
GUIDE
100
AcDbLine
 10
-791.5
 20
474.64
 30
0.0
 11
-797.5
 21
474.64
 31
0.0
  0
LINE
  5
9EF
330
1A
100
AcDbEntity
  8
GUIDE
100
AcDbLine
 10
-784.0
 20
459.6
 30
0.0
 11
-805.0
 21
459.6
 31
0.0
  0
LINE
  5
9F0
330
1A
100
AcDbEntity
  8
GUIDE
100
AcDbLine
 10
-784.0
 20
452.08
 30
0.0
 11
-805.0
 21
452.08
 31
0.0
  0
LINE
  5
9F1
330
1A
100
AcDbEntity
  8
GUIDE
100
AcDbLine
 10
-784.0
 20
478.4
 30
0.0
 11
-805.0
 21
478.4
 31
0.0
  0
LINE
  5
9F2
330
1A
100
AcDbEntity
  8
GUIDE
100
AcDbLine
 10
-784.0
 20
485.92
 30
0.0
 11
-805.0
 21
485.92
 31
0.0
  0
LINE
  5
9F3
330
1A
100
AcDbEntity
  8
GUIDE
100
AcDbLine
 10
-805.0
 20
478.4
 30
0.0
 11
-805.0
 21
485.92
 31
0.0
  0
LINE
  5
9F4
330
1A
100
AcDbEntity
  8
GUIDE
100
AcDbLine
 10
-805.0
 20
452.08
 30
0.0
 11
-805.0
 21
459.6
 31
0.0
  0
LINE
  5
9F5
330
1A
100
AcDbEntity
  8
GUIDE
100
AcDbLine
 10
-784.0
 20
452.08
 30
0.0
 11
-784.0
 21
459.6
 31
0.0
  0
LINE
  5
9F6
330
1A
100
AcDbEntity
  8
GUIDE
100
AcDbLine
 10
-784.0
 20
478.4
 30
0.0
 11
-784.0
 21
485.92
 31
0.0
  0
LINE
  5
9F7
330
1A
100
AcDbEntity
  8
GUIDE
100
AcDbLine
 10
-797.5
 20
478.4
 30
0.0
 11
-797.5
 21
459.6
 31
0.0
  0
LINE
  5
9F8
330
1A
100
AcDbEntity
  8
GUIDE
100
AcDbLine
 10
-791.5
 20
478.4
 30
0.0
 11
-791.5
 21
459.6
 31
0.0
  0
LINE
  5
9F9
330
1A
100
AcDbEntity
  8
GUIDE
100
AcDbLine
 10
-791.5
 20
452.08
 30
0.0
 11
-791.5
 21
433.28
 31
0.0
  0
LINE
  5
9FA
330
1A
100
AcDbEntity
  8
GUIDE
100
AcDbLine
 10
-797.5
 20
452.08
 30
0.0
 11
-797.5
 21
433.28
 31
0.0
  0
LINE
  5
9FB
330
1A
100
AcDbEntity
  8
GUIDE
100
AcDbLine
 10
-797.5
 20
425.76
 30
0.0
 11
-797.5
 21
422.0
 31
0.0
  0
LINE
  5
9FC
330
1A
100
AcDbEntity
  8
GUIDE
100
AcDbLine
 10
-791.5
 20
425.76
 30
0.0
 11
-791.5
 21
422.0
 31
0.0
  0
LINE
  5
9FD
330
1A
100
AcDbEntity
  8
GUIDE
100
AcDbLine
 10
-774.0
 20
497.24
 30
0.0
 11
-774.0
 21
501.0
 31
0.0
  0
LINE
  5
9FE
330
1A
100
AcDbEntity
  8
GUIDE
100
AcDbLine
 10
-780.0
 20
497.24
 30
0.0
 11
-780.0
 21
501.0
 31
0.0
  0
LINE
  5
9FF
330
1A
100
AcDbEntity
  8
GUIDE
100
AcDbLine
 10
-780.0
 20
470.92
 30
0.0
 11
-780.0
 21
489.72
 31
0.0
  0
LINE
  5
A00
330
1A
100
AcDbEntity
  8
GUIDE
100
AcDbLine
 10
-774.0
 20
470.92
 30
0.0
 11
-774.0
 21
489.72
 31
0.0
  0
LINE
  5
A01
330
1A
100
AcDbEntity
  8
GUIDE
100
AcDbLine
 10
-774.0
 20
444.6
 30
0.0
 11
-774.0
 21
463.4
 31
0.0
  0
LINE
  5
A02
330
1A
100
AcDbEntity
  8
GUIDE
100
AcDbLine
 10
-780.0
 20
444.6
 30
0.0
 11
-780.0
 21
463.4
 31
0.0
  0
LINE
  5
A03
330
1A
100
AcDbEntity
  8
GUIDE
100
AcDbLine
 10
-766.5
 20
444.6
 30
0.0
 11
-766.5
 21
437.08
 31
0.0
  0
LINE
  5
A04
330
1A
100
AcDbEntity
  8
GUIDE
100
AcDbLine
 10
-766.5
 20
470.92
 30
0.0
 11
-766.5
 21
463.4
 31
0.0
  0
LINE
  5
A05
330
1A
100
AcDbEntity
  8
GUIDE
100
AcDbLine
 10
-787.5
 20
470.92
 30
0.0
 11
-787.5
 21
463.4
 31
0.0
  0
LINE
  5
A06
330
1A
100
AcDbEntity
  8
GUIDE
100
AcDbLine
 10
-787.5
 20
444.6
 30
0.0
 11
-787.5
 21
437.08
 31
0.0
  0
LINE
  5
A07
330
1A
100
AcDbEntity
  8
GUIDE
100
AcDbLine
 10
-766.5
 20
437.08
 30
0.0
 11
-787.5
 21
437.08
 31
0.0
  0
LINE
  5
A08
330
1A
100
AcDbEntity
  8
GUIDE
100
AcDbLine
 10
-766.5
 20
444.6
 30
0.0
 11
-787.5
 21
444.6
 31
0.0
  0
LINE
  5
A09
330
1A
100
AcDbEntity
  8
GUIDE
100
AcDbLine
 10
-766.5
 20
470.92
 30
0.0
 11
-787.5
 21
470.92
 31
0.0
  0
LINE
  5
A0A
330
1A
100
AcDbEntity
  8
GUIDE
100
AcDbLine
 10
-766.5
 20
463.4
 30
0.0
 11
-787.5
 21
463.4
 31
0.0
  0
LINE
  5
A0B
330
1A
100
AcDbEntity
  8
GUIDE
100
AcDbLine
 10
-774.0
 20
448.36
 30
0.0
 11
-780.0
 21
448.36
 31
0.0
  0
LINE
  5
A0C
330
1A
100
AcDbEntity
  8
GUIDE
100
AcDbLine
 10
-774.0
 20
474.68
 30
0.0
 11
-780.0
 21
474.68
 31
0.0
  0
LINE
  5
A0D
330
1A
100
AcDbEntity
  8
GUIDE
100
AcDbLine
 10
-766.5
 20
489.72
 30
0.0
 11
-787.5
 21
489.72
 31
0.0
  0
LINE
  5
A0E
330
1A
100
AcDbEntity
  8
GUIDE
100
AcDbLine
 10
-766.5
 20
497.24
 30
0.0
 11
-787.5
 21
497.24
 31
0.0
  0
LINE
  5
A0F
330
1A
100
AcDbEntity
  8
GUIDE
100
AcDbLine
 10
-787.5
 20
497.24
 30
0.0
 11
-787.5
 21
489.72
 31
0.0
  0
LINE
  5
A10
330
1A
100
AcDbEntity
  8
GUIDE
100
AcDbLine
 10
-766.5
 20
497.24
 30
0.0
 11
-766.5
 21
489.72
 31
0.0
  0
LINE
  5
A11
330
1A
100
AcDbEntity
  8
GUIDE
100
AcDbLine
 10
-780.0
 20
422.0
 30
0.0
 11
-780.0
 21
437.08
 31
0.0
  0
LINE
  5
A12
330
1A
100
AcDbEntity
  8
GUIDE
100
AcDbLine
 10
-774.0
 20
422.0
 30
0.0
 11
-774.0
 21
437.08
 31
0.0
  0
LINE
  5
A13
330
1A
100
AcDbEntity
  8
GUIDE
100
AcDbLine
 10
-826.5
 20
501.0
 30
0.0
 11
-826.5
 21
485.92
 31
0.0
  0
LINE
  5
A14
330
1A
100
AcDbEntity
  8
GUIDE
100
AcDbLine
 10
-832.5
 20
501.0
 30
0.0
 11
-832.5
 21
485.92
 31
0.0
  0
LINE
  5
A15
330
1A
100
AcDbEntity
  8
GUIDE
100
AcDbLine
 10
-819.0
 20
425.76
 30
0.0
 11
-819.0
 21
433.28
 31
0.0
  0
LINE
  5
A16
330
1A
100
AcDbEntity
  8
GUIDE
100
AcDbLine
 10
-840.0
 20
425.76
 30
0.0
 11
-840.0
 21
433.28
 31
0.0
  0
LINE
  5
A17
330
1A
100
AcDbEntity
  8
GUIDE
100
AcDbLine
 10
-819.0
 20
425.76
 30
0.0
 11
-840.0
 21
425.76
 31
0.0
  0
LINE
  5
A18
330
1A
100
AcDbEntity
  8
GUIDE
100
AcDbLine
 10
-819.0
 20
433.28
 30
0.0
 11
-840.0
 21
433.28
 31
0.0
  0
LINE
  5
A19
330
1A
100
AcDbEntity
  8
GUIDE
100
AcDbLine
 10
-826.5
 20
448.32
 30
0.0
 11
-832.5
 21
448.32
 31
0.0
  0
LINE
  5
A1A
330
1A
100
AcDbEntity
  8
GUIDE
100
AcDbLine
 10
-826.5
 20
474.64
 30
0.0
 11
-832.5
 21
474.64
 31
0.0
  0
LINE
  5
A1B
330
1A
100
AcDbEntity
  8
GUIDE
100
AcDbLine
 10
-819.0
 20
459.6
 30
0.0
 11
-840.0
 21
459.6
 31
0.0
  0
LINE
  5
A1C
330
1A
100
AcDbEntity
  8
GUIDE
100
AcDbLine
 10
-819.0
 20
452.08
 30
0.0
 11
-840.0
 21
452.08
 31
0.0
  0
LINE
  5
A1D
330
1A
100
AcDbEntity
  8
GUIDE
100
AcDbLine
 10
-819.0
 20
478.4
 30
0.0
 11
-840.0
 21
478.4
 31
0.0
  0
LINE
  5
A1E
330
1A
100
AcDbEntity
  8
GUIDE
100
AcDbLine
 10
-819.0
 20
485.92
 30
0.0
 11
-840.0
 21
485.92
 31
0.0
  0
LINE
  5
A1F
330
1A
100
AcDbEntity
  8
GUIDE
100
AcDbLine
 10
-840.0
 20
478.4
 30
0.0
 11
-840.0
 21
485.92
 31
0.0
  0
LINE
  5
A20
330
1A
100
AcDbEntity
  8
GUIDE
100
AcDbLine
 10
-840.0
 20
452.08
 30
0.0
 11
-840.0
 21
459.6
 31
0.0
  0
LINE
  5
A21
330
1A
100
AcDbEntity
  8
GUIDE
100
AcDbLine
 10
-819.0
 20
452.08
 30
0.0
 11
-819.0
 21
459.6
 31
0.0
  0
LINE
  5
A22
330
1A
100
AcDbEntity
  8
GUIDE
100
AcDbLine
 10
-819.0
 20
478.4
 30
0.0
 11
-819.0
 21
485.92
 31
0.0
  0
LINE
  5
A23
330
1A
100
AcDbEntity
  8
GUIDE
100
AcDbLine
 10
-832.5
 20
478.4
 30
0.0
 11
-832.5
 21
459.6
 31
0.0
  0
LINE
  5
A24
330
1A
100
AcDbEntity
  8
GUIDE
100
AcDbLine
 10
-826.5
 20
478.4
 30
0.0
 11
-826.5
 21
459.6
 31
0.0
  0
LINE
  5
A25
330
1A
100
AcDbEntity
  8
GUIDE
100
AcDbLine
 10
-826.5
 20
452.08
 30
0.0
 11
-826.5
 21
433.28
 31
0.0
  0
LINE
  5
A26
330
1A
100
AcDbEntity
  8
GUIDE
100
AcDbLine
 10
-832.5
 20
452.08
 30
0.0
 11
-832.5
 21
433.28
 31
0.0
  0
LINE
  5
A27
330
1A
100
AcDbEntity
  8
GUIDE
100
AcDbLine
 10
-832.5
 20
425.76
 30
0.0
 11
-832.5
 21
422.0
 31
0.0
  0
LINE
  5
A28
330
1A
100
AcDbEntity
  8
GUIDE
100
AcDbLine
 10
-826.5
 20
425.76
 30
0.0
 11
-826.5
 21
422.0
 31
0.0
  0
LINE
  5
A29
330
1A
100
AcDbEntity
  8
GUIDE
100
AcDbLine
 10
-809.0
 20
497.24
 30
0.0
 11
-809.0
 21
501.0
 31
0.0
  0
LINE
  5
A2A
330
1A
100
AcDbEntity
  8
GUIDE
100
AcDbLine
 10
-815.0
 20
497.24
 30
0.0
 11
-815.0
 21
501.0
 31
0.0
  0
LINE
  5
A2B
330
1A
100
AcDbEntity
  8
GUIDE
100
AcDbLine
 10
-815.0
 20
470.92
 30
0.0
 11
-815.0
 21
489.72
 31
0.0
  0
LINE
  5
A2C
330
1A
100
AcDbEntity
  8
GUIDE
100
AcDbLine
 10
-809.0
 20
470.92
 30
0.0
 11
-809.0
 21
489.72
 31
0.0
  0
LINE
  5
A2D
330
1A
100
AcDbEntity
  8
GUIDE
100
AcDbLine
 10
-809.0
 20
444.6
 30
0.0
 11
-809.0
 21
463.4
 31
0.0
  0
LINE
  5
A2E
330
1A
100
AcDbEntity
  8
GUIDE
100
AcDbLine
 10
-815.0
 20
444.6
 30
0.0
 11
-815.0
 21
463.4
 31
0.0
  0
LINE
  5
A2F
330
1A
100
AcDbEntity
  8
GUIDE
100
AcDbLine
 10
-801.5
 20
444.6
 30
0.0
 11
-801.5
 21
437.08
 31
0.0
  0
LINE
  5
A30
330
1A
100
AcDbEntity
  8
GUIDE
100
AcDbLine
 10
-801.5
 20
470.92
 30
0.0
 11
-801.5
 21
463.4
 31
0.0
  0
LINE
  5
A31
330
1A
100
AcDbEntity
  8
GUIDE
100
AcDbLine
 10
-822.5
 20
470.92
 30
0.0
 11
-822.5
 21
463.4
 31
0.0
  0
LINE
  5
A32
330
1A
100
AcDbEntity
  8
GUIDE
100
AcDbLine
 10
-822.5
 20
444.6
 30
0.0
 11
-822.5
 21
437.08
 31
0.0
  0
LINE
  5
A33
330
1A
100
AcDbEntity
  8
GUIDE
100
AcDbLine
 10
-801.5
 20
437.08
 30
0.0
 11
-822.5
 21
437.08
 31
0.0
  0
LINE
  5
A34
330
1A
100
AcDbEntity
  8
GUIDE
100
AcDbLine
 10
-801.5
 20
444.6
 30
0.0
 11
-822.5
 21
444.6
 31
0.0
  0
LINE
  5
A35
330
1A
100
AcDbEntity
  8
GUIDE
100
AcDbLine
 10
-801.5
 20
470.92
 30
0.0
 11
-822.5
 21
470.92
 31
0.0
  0
LINE
  5
A36
330
1A
100
AcDbEntity
  8
GUIDE
100
AcDbLine
 10
-801.5
 20
463.4
 30
0.0
 11
-822.5
 21
463.4
 31
0.0
  0
LINE
  5
A37
330
1A
100
AcDbEntity
  8
GUIDE
100
AcDbLine
 10
-809.0
 20
448.36
 30
0.0
 11
-815.0
 21
448.36
 31
0.0
  0
LINE
  5
A38
330
1A
100
AcDbEntity
  8
GUIDE
100
AcDbLine
 10
-809.0
 20
474.68
 30
0.0
 11
-815.0
 21
474.68
 31
0.0
  0
LINE
  5
A39
330
1A
100
AcDbEntity
  8
GUIDE
100
AcDbLine
 10
-801.5
 20
489.72
 30
0.0
 11
-822.5
 21
489.72
 31
0.0
  0
LINE
  5
A3A
330
1A
100
AcDbEntity
  8
GUIDE
100
AcDbLine
 10
-801.5
 20
497.24
 30
0.0
 11
-822.5
 21
497.24
 31
0.0
  0
LINE
  5
A3B
330
1A
100
AcDbEntity
  8
GUIDE
100
AcDbLine
 10
-822.5
 20
497.24
 30
0.0
 11
-822.5
 21
489.72
 31
0.0
  0
LINE
  5
A3C
330
1A
100
AcDbEntity
  8
GUIDE
100
AcDbLine
 10
-801.5
 20
497.24
 30
0.0
 11
-801.5
 21
489.72
 31
0.0
  0
LINE
  5
A3D
330
1A
100
AcDbEntity
  8
GUIDE
100
AcDbLine
 10
-815.0
 20
422.0
 30
0.0
 11
-815.0
 21
437.08
 31
0.0
  0
LINE
  5
A3E
330
1A
100
AcDbEntity
  8
GUIDE
100
AcDbLine
 10
-809.0
 20
422.0
 30
0.0
 11
-809.0
 21
437.08
 31
0.0
  0
LINE
  5
A3F
330
1A
100
AcDbEntity
  8
GUIDE
100
AcDbLine
 10
-861.5
 20
501.0
 30
0.0
 11
-861.5
 21
485.92
 31
0.0
  0
LINE
  5
A40
330
1A
100
AcDbEntity
  8
GUIDE
100
AcDbLine
 10
-867.5
 20
501.0
 30
0.0
 11
-867.5
 21
485.92
 31
0.0
  0
LINE
  5
A41
330
1A
100
AcDbEntity
  8
GUIDE
100
AcDbLine
 10
-854.0
 20
425.76
 30
0.0
 11
-854.0
 21
433.28
 31
0.0
  0
LINE
  5
A42
330
1A
100
AcDbEntity
  8
GUIDE
100
AcDbLine
 10
-875.0
 20
425.76
 30
0.0
 11
-875.0
 21
433.28
 31
0.0
  0
LINE
  5
A43
330
1A
100
AcDbEntity
  8
GUIDE
100
AcDbLine
 10
-854.0
 20
425.76
 30
0.0
 11
-875.0
 21
425.76
 31
0.0
  0
LINE
  5
A44
330
1A
100
AcDbEntity
  8
GUIDE
100
AcDbLine
 10
-854.0
 20
433.28
 30
0.0
 11
-875.0
 21
433.28
 31
0.0
  0
LINE
  5
A45
330
1A
100
AcDbEntity
  8
GUIDE
100
AcDbLine
 10
-861.5
 20
448.32
 30
0.0
 11
-867.5
 21
448.32
 31
0.0
  0
LINE
  5
A46
330
1A
100
AcDbEntity
  8
GUIDE
100
AcDbLine
 10
-861.5
 20
474.64
 30
0.0
 11
-867.5
 21
474.64
 31
0.0
  0
LINE
  5
A47
330
1A
100
AcDbEntity
  8
GUIDE
100
AcDbLine
 10
-854.0
 20
459.6
 30
0.0
 11
-875.0
 21
459.6
 31
0.0
  0
LINE
  5
A48
330
1A
100
AcDbEntity
  8
GUIDE
100
AcDbLine
 10
-854.0
 20
452.08
 30
0.0
 11
-875.0
 21
452.08
 31
0.0
  0
LINE
  5
A49
330
1A
100
AcDbEntity
  8
GUIDE
100
AcDbLine
 10
-854.0
 20
478.4
 30
0.0
 11
-875.0
 21
478.4
 31
0.0
  0
LINE
  5
A4A
330
1A
100
AcDbEntity
  8
GUIDE
100
AcDbLine
 10
-854.0
 20
485.92
 30
0.0
 11
-875.0
 21
485.92
 31
0.0
  0
LINE
  5
A4B
330
1A
100
AcDbEntity
  8
GUIDE
100
AcDbLine
 10
-875.0
 20
478.4
 30
0.0
 11
-875.0
 21
485.92
 31
0.0
  0
LINE
  5
A4C
330
1A
100
AcDbEntity
  8
GUIDE
100
AcDbLine
 10
-875.0
 20
452.08
 30
0.0
 11
-875.0
 21
459.6
 31
0.0
  0
LINE
  5
A4D
330
1A
100
AcDbEntity
  8
GUIDE
100
AcDbLine
 10
-854.0
 20
452.08
 30
0.0
 11
-854.0
 21
459.6
 31
0.0
  0
LINE
  5
A4E
330
1A
100
AcDbEntity
  8
GUIDE
100
AcDbLine
 10
-854.0
 20
478.4
 30
0.0
 11
-854.0
 21
485.92
 31
0.0
  0
LINE
  5
A4F
330
1A
100
AcDbEntity
  8
GUIDE
100
AcDbLine
 10
-867.5
 20
478.4
 30
0.0
 11
-867.5
 21
459.6
 31
0.0
  0
LINE
  5
A50
330
1A
100
AcDbEntity
  8
GUIDE
100
AcDbLine
 10
-861.5
 20
478.4
 30
0.0
 11
-861.5
 21
459.6
 31
0.0
  0
LINE
  5
A51
330
1A
100
AcDbEntity
  8
GUIDE
100
AcDbLine
 10
-861.5
 20
452.08
 30
0.0
 11
-861.5
 21
433.28
 31
0.0
  0
LINE
  5
A52
330
1A
100
AcDbEntity
  8
GUIDE
100
AcDbLine
 10
-867.5
 20
452.08
 30
0.0
 11
-867.5
 21
433.28
 31
0.0
  0
LINE
  5
A53
330
1A
100
AcDbEntity
  8
GUIDE
100
AcDbLine
 10
-867.5
 20
425.76
 30
0.0
 11
-867.5
 21
422.0
 31
0.0
  0
LINE
  5
A54
330
1A
100
AcDbEntity
  8
GUIDE
100
AcDbLine
 10
-861.5
 20
425.76
 30
0.0
 11
-861.5
 21
422.0
 31
0.0
  0
LINE
  5
A55
330
1A
100
AcDbEntity
  8
GUIDE
100
AcDbLine
 10
-844.0
 20
497.24
 30
0.0
 11
-844.0
 21
501.0
 31
0.0
  0
LINE
  5
A56
330
1A
100
AcDbEntity
  8
GUIDE
100
AcDbLine
 10
-850.0
 20
497.24
 30
0.0
 11
-850.0
 21
501.0
 31
0.0
  0
LINE
  5
A57
330
1A
100
AcDbEntity
  8
GUIDE
100
AcDbLine
 10
-850.0
 20
470.92
 30
0.0
 11
-850.0
 21
489.72
 31
0.0
  0
LINE
  5
A58
330
1A
100
AcDbEntity
  8
GUIDE
100
AcDbLine
 10
-844.0
 20
470.92
 30
0.0
 11
-844.0
 21
489.72
 31
0.0
  0
LINE
  5
A59
330
1A
100
AcDbEntity
  8
GUIDE
100
AcDbLine
 10
-844.0
 20
444.6
 30
0.0
 11
-844.0
 21
463.4
 31
0.0
  0
LINE
  5
A5A
330
1A
100
AcDbEntity
  8
GUIDE
100
AcDbLine
 10
-850.0
 20
444.6
 30
0.0
 11
-850.0
 21
463.4
 31
0.0
  0
LINE
  5
A5B
330
1A
100
AcDbEntity
  8
GUIDE
100
AcDbLine
 10
-836.5
 20
444.6
 30
0.0
 11
-836.5
 21
437.08
 31
0.0
  0
LINE
  5
A5C
330
1A
100
AcDbEntity
  8
GUIDE
100
AcDbLine
 10
-836.5
 20
470.92
 30
0.0
 11
-836.5
 21
463.4
 31
0.0
  0
LINE
  5
A5D
330
1A
100
AcDbEntity
  8
GUIDE
100
AcDbLine
 10
-857.5
 20
470.92
 30
0.0
 11
-857.5
 21
463.4
 31
0.0
  0
LINE
  5
A5E
330
1A
100
AcDbEntity
  8
GUIDE
100
AcDbLine
 10
-857.5
 20
444.6
 30
0.0
 11
-857.5
 21
437.08
 31
0.0
  0
LINE
  5
A5F
330
1A
100
AcDbEntity
  8
GUIDE
100
AcDbLine
 10
-836.5
 20
437.08
 30
0.0
 11
-857.5
 21
437.08
 31
0.0
  0
LINE
  5
A60
330
1A
100
AcDbEntity
  8
GUIDE
100
AcDbLine
 10
-836.5
 20
444.6
 30
0.0
 11
-857.5
 21
444.6
 31
0.0
  0
LINE
  5
A61
330
1A
100
AcDbEntity
  8
GUIDE
100
AcDbLine
 10
-836.5
 20
470.92
 30
0.0
 11
-857.5
 21
470.92
 31
0.0
  0
LINE
  5
A62
330
1A
100
AcDbEntity
  8
GUIDE
100
AcDbLine
 10
-836.5
 20
463.4
 30
0.0
 11
-857.5
 21
463.4
 31
0.0
  0
LINE
  5
A63
330
1A
100
AcDbEntity
  8
GUIDE
100
AcDbLine
 10
-844.0
 20
448.36
 30
0.0
 11
-850.0
 21
448.36
 31
0.0
  0
LINE
  5
A64
330
1A
100
AcDbEntity
  8
GUIDE
100
AcDbLine
 10
-844.0
 20
474.68
 30
0.0
 11
-850.0
 21
474.68
 31
0.0
  0
LINE
  5
A65
330
1A
100
AcDbEntity
  8
GUIDE
100
AcDbLine
 10
-836.5
 20
489.72
 30
0.0
 11
-857.5
 21
489.72
 31
0.0
  0
LINE
  5
A66
330
1A
100
AcDbEntity
  8
GUIDE
100
AcDbLine
 10
-836.5
 20
497.24
 30
0.0
 11
-857.5
 21
497.24
 31
0.0
  0
LINE
  5
A67
330
1A
100
AcDbEntity
  8
GUIDE
100
AcDbLine
 10
-857.5
 20
497.24
 30
0.0
 11
-857.5
 21
489.72
 31
0.0
  0
LINE
  5
A68
330
1A
100
AcDbEntity
  8
GUIDE
100
AcDbLine
 10
-836.5
 20
497.24
 30
0.0
 11
-836.5
 21
489.72
 31
0.0
  0
LINE
  5
A69
330
1A
100
AcDbEntity
  8
GUIDE
100
AcDbLine
 10
-850.0
 20
422.0
 30
0.0
 11
-850.0
 21
437.08
 31
0.0
  0
LINE
  5
A6A
330
1A
100
AcDbEntity
  8
GUIDE
100
AcDbLine
 10
-844.0
 20
422.0
 30
0.0
 11
-844.0
 21
437.08
 31
0.0
  0
LINE
  5
A6B
330
1A
100
AcDbEntity
  8
GUIDE
100
AcDbLine
 10
-896.5
 20
501.0
 30
0.0
 11
-896.5
 21
485.92
 31
0.0
  0
LINE
  5
A6C
330
1A
100
AcDbEntity
  8
GUIDE
100
AcDbLine
 10
-902.5
 20
501.0
 30
0.0
 11
-902.5
 21
485.92
 31
0.0
  0
LINE
  5
A6D
330
1A
100
AcDbEntity
  8
GUIDE
100
AcDbLine
 10
-889.0
 20
425.76
 30
0.0
 11
-889.0
 21
433.28
 31
0.0
  0
LINE
  5
A6E
330
1A
100
AcDbEntity
  8
GUIDE
100
AcDbLine
 10
-910.0
 20
425.76
 30
0.0
 11
-910.0
 21
433.28
 31
0.0
  0
LINE
  5
A6F
330
1A
100
AcDbEntity
  8
GUIDE
100
AcDbLine
 10
-889.0
 20
425.76
 30
0.0
 11
-910.0
 21
425.76
 31
0.0
  0
LINE
  5
A70
330
1A
100
AcDbEntity
  8
GUIDE
100
AcDbLine
 10
-889.0
 20
433.28
 30
0.0
 11
-910.0
 21
433.28
 31
0.0
  0
LINE
  5
A71
330
1A
100
AcDbEntity
  8
GUIDE
100
AcDbLine
 10
-896.5
 20
448.32
 30
0.0
 11
-902.5
 21
448.32
 31
0.0
  0
LINE
  5
A72
330
1A
100
AcDbEntity
  8
GUIDE
100
AcDbLine
 10
-896.5
 20
474.64
 30
0.0
 11
-902.5
 21
474.64
 31
0.0
  0
LINE
  5
A73
330
1A
100
AcDbEntity
  8
GUIDE
100
AcDbLine
 10
-889.0
 20
459.6
 30
0.0
 11
-910.0
 21
459.6
 31
0.0
  0
LINE
  5
A74
330
1A
100
AcDbEntity
  8
GUIDE
100
AcDbLine
 10
-889.0
 20
452.08
 30
0.0
 11
-910.0
 21
452.08
 31
0.0
  0
LINE
  5
A75
330
1A
100
AcDbEntity
  8
GUIDE
100
AcDbLine
 10
-889.0
 20
478.4
 30
0.0
 11
-910.0
 21
478.4
 31
0.0
  0
LINE
  5
A76
330
1A
100
AcDbEntity
  8
GUIDE
100
AcDbLine
 10
-889.0
 20
485.92
 30
0.0
 11
-910.0
 21
485.92
 31
0.0
  0
LINE
  5
A77
330
1A
100
AcDbEntity
  8
GUIDE
100
AcDbLine
 10
-910.0
 20
478.4
 30
0.0
 11
-910.0
 21
485.92
 31
0.0
  0
LINE
  5
A78
330
1A
100
AcDbEntity
  8
GUIDE
100
AcDbLine
 10
-910.0
 20
452.08
 30
0.0
 11
-910.0
 21
459.6
 31
0.0
  0
LINE
  5
A79
330
1A
100
AcDbEntity
  8
GUIDE
100
AcDbLine
 10
-889.0
 20
452.08
 30
0.0
 11
-889.0
 21
459.6
 31
0.0
  0
LINE
  5
A7A
330
1A
100
AcDbEntity
  8
GUIDE
100
AcDbLine
 10
-889.0
 20
478.4
 30
0.0
 11
-889.0
 21
485.92
 31
0.0
  0
LINE
  5
A7B
330
1A
100
AcDbEntity
  8
GUIDE
100
AcDbLine
 10
-902.5
 20
478.4
 30
0.0
 11
-902.5
 21
459.6
 31
0.0
  0
LINE
  5
A7C
330
1A
100
AcDbEntity
  8
GUIDE
100
AcDbLine
 10
-896.5
 20
478.4
 30
0.0
 11
-896.5
 21
459.6
 31
0.0
  0
LINE
  5
A7D
330
1A
100
AcDbEntity
  8
GUIDE
100
AcDbLine
 10
-896.5
 20
452.08
 30
0.0
 11
-896.5
 21
433.28
 31
0.0
  0
LINE
  5
A7E
330
1A
100
AcDbEntity
  8
GUIDE
100
AcDbLine
 10
-902.5
 20
452.08
 30
0.0
 11
-902.5
 21
433.28
 31
0.0
  0
LINE
  5
A7F
330
1A
100
AcDbEntity
  8
GUIDE
100
AcDbLine
 10
-902.5
 20
425.76
 30
0.0
 11
-902.5
 21
422.0
 31
0.0
  0
LINE
  5
A80
330
1A
100
AcDbEntity
  8
GUIDE
100
AcDbLine
 10
-896.5
 20
425.76
 30
0.0
 11
-896.5
 21
422.0
 31
0.0
  0
LINE
  5
A81
330
1A
100
AcDbEntity
  8
GUIDE
100
AcDbLine
 10
-879.0
 20
497.24
 30
0.0
 11
-879.0
 21
501.0
 31
0.0
  0
LINE
  5
A82
330
1A
100
AcDbEntity
  8
GUIDE
100
AcDbLine
 10
-885.0
 20
497.24
 30
0.0
 11
-885.0
 21
501.0
 31
0.0
  0
LINE
  5
A83
330
1A
100
AcDbEntity
  8
GUIDE
100
AcDbLine
 10
-885.0
 20
470.92
 30
0.0
 11
-885.0
 21
489.72
 31
0.0
  0
LINE
  5
A84
330
1A
100
AcDbEntity
  8
GUIDE
100
AcDbLine
 10
-879.0
 20
470.92
 30
0.0
 11
-879.0
 21
489.72
 31
0.0
  0
LINE
  5
A85
330
1A
100
AcDbEntity
  8
GUIDE
100
AcDbLine
 10
-879.0
 20
444.6
 30
0.0
 11
-879.0
 21
463.4
 31
0.0
  0
LINE
  5
A86
330
1A
100
AcDbEntity
  8
GUIDE
100
AcDbLine
 10
-885.0
 20
444.6
 30
0.0
 11
-885.0
 21
463.4
 31
0.0
  0
LINE
  5
A87
330
1A
100
AcDbEntity
  8
GUIDE
100
AcDbLine
 10
-871.5
 20
444.6
 30
0.0
 11
-871.5
 21
437.08
 31
0.0
  0
LINE
  5
A88
330
1A
100
AcDbEntity
  8
GUIDE
100
AcDbLine
 10
-871.5
 20
470.92
 30
0.0
 11
-871.5
 21
463.4
 31
0.0
  0
LINE
  5
A89
330
1A
100
AcDbEntity
  8
GUIDE
100
AcDbLine
 10
-892.5
 20
470.92
 30
0.0
 11
-892.5
 21
463.4
 31
0.0
  0
LINE
  5
A8A
330
1A
100
AcDbEntity
  8
GUIDE
100
AcDbLine
 10
-892.5
 20
444.6
 30
0.0
 11
-892.5
 21
437.08
 31
0.0
  0
LINE
  5
A8B
330
1A
100
AcDbEntity
  8
GUIDE
100
AcDbLine
 10
-871.5
 20
437.08
 30
0.0
 11
-892.5
 21
437.08
 31
0.0
  0
LINE
  5
A8C
330
1A
100
AcDbEntity
  8
GUIDE
100
AcDbLine
 10
-871.5
 20
444.6
 30
0.0
 11
-892.5
 21
444.6
 31
0.0
  0
LINE
  5
A8D
330
1A
100
AcDbEntity
  8
GUIDE
100
AcDbLine
 10
-871.5
 20
470.92
 30
0.0
 11
-892.5
 21
470.92
 31
0.0
  0
LINE
  5
A8E
330
1A
100
AcDbEntity
  8
GUIDE
100
AcDbLine
 10
-871.5
 20
463.4
 30
0.0
 11
-892.5
 21
463.4
 31
0.0
  0
LINE
  5
A8F
330
1A
100
AcDbEntity
  8
GUIDE
100
AcDbLine
 10
-879.0
 20
448.36
 30
0.0
 11
-885.0
 21
448.36
 31
0.0
  0
LINE
  5
A90
330
1A
100
AcDbEntity
  8
GUIDE
100
AcDbLine
 10
-879.0
 20
474.68
 30
0.0
 11
-885.0
 21
474.68
 31
0.0
  0
LINE
  5
A91
330
1A
100
AcDbEntity
  8
GUIDE
100
AcDbLine
 10
-871.5
 20
489.72
 30
0.0
 11
-892.5
 21
489.72
 31
0.0
  0
LINE
  5
A92
330
1A
100
AcDbEntity
  8
GUIDE
100
AcDbLine
 10
-871.5
 20
497.24
 30
0.0
 11
-892.5
 21
497.24
 31
0.0
  0
LINE
  5
A93
330
1A
100
AcDbEntity
  8
GUIDE
100
AcDbLine
 10
-892.5
 20
497.24
 30
0.0
 11
-892.5
 21
489.72
 31
0.0
  0
LINE
  5
A94
330
1A
100
AcDbEntity
  8
GUIDE
100
AcDbLine
 10
-871.5
 20
497.24
 30
0.0
 11
-871.5
 21
489.72
 31
0.0
  0
LINE
  5
A95
330
1A
100
AcDbEntity
  8
GUIDE
100
AcDbLine
 10
-885.0
 20
422.0
 30
0.0
 11
-885.0
 21
437.08
 31
0.0
  0
LINE
  5
A96
330
1A
100
AcDbEntity
  8
GUIDE
100
AcDbLine
 10
-879.0
 20
422.0
 30
0.0
 11
-879.0
 21
437.08
 31
0.0
  0
LINE
  5
A97
330
1A
100
AcDbEntity
  8
GUIDE
100
AcDbLine
 10
-931.5
 20
501.0
 30
0.0
 11
-931.5
 21
485.92
 31
0.0
  0
LINE
  5
A98
330
1A
100
AcDbEntity
  8
GUIDE
100
AcDbLine
 10
-937.5
 20
501.0
 30
0.0
 11
-937.5
 21
485.92
 31
0.0
  0
LINE
  5
A99
330
1A
100
AcDbEntity
  8
GUIDE
100
AcDbLine
 10
-924.0
 20
425.76
 30
0.0
 11
-924.0
 21
433.28
 31
0.0
  0
LINE
  5
A9A
330
1A
100
AcDbEntity
  8
GUIDE
100
AcDbLine
 10
-945.0
 20
425.76
 30
0.0
 11
-945.0
 21
433.28
 31
0.0
  0
LINE
  5
A9B
330
1A
100
AcDbEntity
  8
GUIDE
100
AcDbLine
 10
-924.0
 20
425.76
 30
0.0
 11
-945.0
 21
425.76
 31
0.0
  0
LINE
  5
A9C
330
1A
100
AcDbEntity
  8
GUIDE
100
AcDbLine
 10
-924.0
 20
433.28
 30
0.0
 11
-945.0
 21
433.28
 31
0.0
  0
LINE
  5
A9D
330
1A
100
AcDbEntity
  8
GUIDE
100
AcDbLine
 10
-931.5
 20
448.32
 30
0.0
 11
-937.5
 21
448.32
 31
0.0
  0
LINE
  5
A9E
330
1A
100
AcDbEntity
  8
GUIDE
100
AcDbLine
 10
-931.5
 20
474.64
 30
0.0
 11
-937.5
 21
474.64
 31
0.0
  0
LINE
  5
A9F
330
1A
100
AcDbEntity
  8
GUIDE
100
AcDbLine
 10
-924.0
 20
459.6
 30
0.0
 11
-945.0
 21
459.6
 31
0.0
  0
LINE
  5
AA0
330
1A
100
AcDbEntity
  8
GUIDE
100
AcDbLine
 10
-924.0
 20
452.08
 30
0.0
 11
-945.0
 21
452.08
 31
0.0
  0
LINE
  5
AA1
330
1A
100
AcDbEntity
  8
GUIDE
100
AcDbLine
 10
-924.0
 20
478.4
 30
0.0
 11
-945.0
 21
478.4
 31
0.0
  0
LINE
  5
AA2
330
1A
100
AcDbEntity
  8
GUIDE
100
AcDbLine
 10
-924.0
 20
485.92
 30
0.0
 11
-945.0
 21
485.92
 31
0.0
  0
LINE
  5
AA3
330
1A
100
AcDbEntity
  8
GUIDE
100
AcDbLine
 10
-945.0
 20
478.4
 30
0.0
 11
-945.0
 21
485.92
 31
0.0
  0
LINE
  5
AA4
330
1A
100
AcDbEntity
  8
GUIDE
100
AcDbLine
 10
-945.0
 20
452.08
 30
0.0
 11
-945.0
 21
459.6
 31
0.0
  0
LINE
  5
AA5
330
1A
100
AcDbEntity
  8
GUIDE
100
AcDbLine
 10
-924.0
 20
452.08
 30
0.0
 11
-924.0
 21
459.6
 31
0.0
  0
LINE
  5
AA6
330
1A
100
AcDbEntity
  8
GUIDE
100
AcDbLine
 10
-924.0
 20
478.4
 30
0.0
 11
-924.0
 21
485.92
 31
0.0
  0
LINE
  5
AA7
330
1A
100
AcDbEntity
  8
GUIDE
100
AcDbLine
 10
-937.5
 20
478.4
 30
0.0
 11
-937.5
 21
459.6
 31
0.0
  0
LINE
  5
AA8
330
1A
100
AcDbEntity
  8
GUIDE
100
AcDbLine
 10
-931.5
 20
478.4
 30
0.0
 11
-931.5
 21
459.6
 31
0.0
  0
LINE
  5
AA9
330
1A
100
AcDbEntity
  8
GUIDE
100
AcDbLine
 10
-931.5
 20
452.08
 30
0.0
 11
-931.5
 21
433.28
 31
0.0
  0
LINE
  5
AAA
330
1A
100
AcDbEntity
  8
GUIDE
100
AcDbLine
 10
-937.5
 20
452.08
 30
0.0
 11
-937.5
 21
433.28
 31
0.0
  0
LINE
  5
AAB
330
1A
100
AcDbEntity
  8
GUIDE
100
AcDbLine
 10
-937.5
 20
425.76
 30
0.0
 11
-937.5
 21
422.0
 31
0.0
  0
LINE
  5
AAC
330
1A
100
AcDbEntity
  8
GUIDE
100
AcDbLine
 10
-931.5
 20
425.76
 30
0.0
 11
-931.5
 21
422.0
 31
0.0
  0
LINE
  5
AAD
330
1A
100
AcDbEntity
  8
GUIDE
100
AcDbLine
 10
-914.0
 20
497.24
 30
0.0
 11
-914.0
 21
501.0
 31
0.0
  0
LINE
  5
AAE
330
1A
100
AcDbEntity
  8
GUIDE
100
AcDbLine
 10
-920.0
 20
497.24
 30
0.0
 11
-920.0
 21
501.0
 31
0.0
  0
LINE
  5
AAF
330
1A
100
AcDbEntity
  8
GUIDE
100
AcDbLine
 10
-920.0
 20
470.92
 30
0.0
 11
-920.0
 21
489.72
 31
0.0
  0
LINE
  5
AB0
330
1A
100
AcDbEntity
  8
GUIDE
100
AcDbLine
 10
-914.0
 20
470.92
 30
0.0
 11
-914.0
 21
489.72
 31
0.0
  0
LINE
  5
AB1
330
1A
100
AcDbEntity
  8
GUIDE
100
AcDbLine
 10
-914.0
 20
444.6
 30
0.0
 11
-914.0
 21
463.4
 31
0.0
  0
LINE
  5
AB2
330
1A
100
AcDbEntity
  8
GUIDE
100
AcDbLine
 10
-920.0
 20
444.6
 30
0.0
 11
-920.0
 21
463.4
 31
0.0
  0
LINE
  5
AB3
330
1A
100
AcDbEntity
  8
GUIDE
100
AcDbLine
 10
-906.5
 20
444.6
 30
0.0
 11
-906.5
 21
437.08
 31
0.0
  0
LINE
  5
AB4
330
1A
100
AcDbEntity
  8
GUIDE
100
AcDbLine
 10
-906.5
 20
470.92
 30
0.0
 11
-906.5
 21
463.4
 31
0.0
  0
LINE
  5
AB5
330
1A
100
AcDbEntity
  8
GUIDE
100
AcDbLine
 10
-927.5
 20
470.92
 30
0.0
 11
-927.5
 21
463.4
 31
0.0
  0
LINE
  5
AB6
330
1A
100
AcDbEntity
  8
GUIDE
100
AcDbLine
 10
-927.5
 20
444.6
 30
0.0
 11
-927.5
 21
437.08
 31
0.0
  0
LINE
  5
AB7
330
1A
100
AcDbEntity
  8
GUIDE
100
AcDbLine
 10
-906.5
 20
437.08
 30
0.0
 11
-927.5
 21
437.08
 31
0.0
  0
LINE
  5
AB8
330
1A
100
AcDbEntity
  8
GUIDE
100
AcDbLine
 10
-906.5
 20
444.6
 30
0.0
 11
-927.5
 21
444.6
 31
0.0
  0
LINE
  5
AB9
330
1A
100
AcDbEntity
  8
GUIDE
100
AcDbLine
 10
-906.5
 20
470.92
 30
0.0
 11
-927.5
 21
470.92
 31
0.0
  0
LINE
  5
ABA
330
1A
100
AcDbEntity
  8
GUIDE
100
AcDbLine
 10
-906.5
 20
463.4
 30
0.0
 11
-927.5
 21
463.4
 31
0.0
  0
LINE
  5
ABB
330
1A
100
AcDbEntity
  8
GUIDE
100
AcDbLine
 10
-914.0
 20
448.36
 30
0.0
 11
-920.0
 21
448.36
 31
0.0
  0
LINE
  5
ABC
330
1A
100
AcDbEntity
  8
GUIDE
100
AcDbLine
 10
-914.0
 20
474.68
 30
0.0
 11
-920.0
 21
474.68
 31
0.0
  0
LINE
  5
ABD
330
1A
100
AcDbEntity
  8
GUIDE
100
AcDbLine
 10
-906.5
 20
489.72
 30
0.0
 11
-927.5
 21
489.72
 31
0.0
  0
LINE
  5
ABE
330
1A
100
AcDbEntity
  8
GUIDE
100
AcDbLine
 10
-906.5
 20
497.24
 30
0.0
 11
-927.5
 21
497.24
 31
0.0
  0
LINE
  5
ABF
330
1A
100
AcDbEntity
  8
GUIDE
100
AcDbLine
 10
-927.5
 20
497.24
 30
0.0
 11
-927.5
 21
489.72
 31
0.0
  0
LINE
  5
AC0
330
1A
100
AcDbEntity
  8
GUIDE
100
AcDbLine
 10
-906.5
 20
497.24
 30
0.0
 11
-906.5
 21
489.72
 31
0.0
  0
LINE
  5
AC1
330
1A
100
AcDbEntity
  8
GUIDE
100
AcDbLine
 10
-920.0
 20
422.0
 30
0.0
 11
-920.0
 21
437.08
 31
0.0
  0
LINE
  5
AC2
330
1A
100
AcDbEntity
  8
GUIDE
100
AcDbLine
 10
-914.0
 20
422.0
 30
0.0
 11
-914.0
 21
437.08
 31
0.0
  0
LINE
  5
AC3
330
1A
100
AcDbEntity
  8
GUIDE
100
AcDbLine
 10
-966.5
 20
501.0
 30
0.0
 11
-966.5
 21
485.92
 31
0.0
  0
LINE
  5
AC4
330
1A
100
AcDbEntity
  8
GUIDE
100
AcDbLine
 10
-972.5
 20
501.0
 30
0.0
 11
-972.5
 21
485.92
 31
0.0
  0
LINE
  5
AC5
330
1A
100
AcDbEntity
  8
GUIDE
100
AcDbLine
 10
-959.0
 20
425.76
 30
0.0
 11
-959.0
 21
433.28
 31
0.0
  0
LINE
  5
AC6
330
1A
100
AcDbEntity
  8
GUIDE
100
AcDbLine
 10
-980.0
 20
425.76
 30
0.0
 11
-980.0
 21
433.28
 31
0.0
  0
LINE
  5
AC7
330
1A
100
AcDbEntity
  8
GUIDE
100
AcDbLine
 10
-959.0
 20
425.76
 30
0.0
 11
-980.0
 21
425.76
 31
0.0
  0
LINE
  5
AC8
330
1A
100
AcDbEntity
  8
GUIDE
100
AcDbLine
 10
-959.0
 20
433.28
 30
0.0
 11
-980.0
 21
433.28
 31
0.0
  0
LINE
  5
AC9
330
1A
100
AcDbEntity
  8
GUIDE
100
AcDbLine
 10
-966.5
 20
448.32
 30
0.0
 11
-972.5
 21
448.32
 31
0.0
  0
LINE
  5
ACA
330
1A
100
AcDbEntity
  8
GUIDE
100
AcDbLine
 10
-966.5
 20
474.64
 30
0.0
 11
-972.5
 21
474.64
 31
0.0
  0
LINE
  5
ACB
330
1A
100
AcDbEntity
  8
GUIDE
100
AcDbLine
 10
-959.0
 20
459.6
 30
0.0
 11
-980.0
 21
459.6
 31
0.0
  0
LINE
  5
ACC
330
1A
100
AcDbEntity
  8
GUIDE
100
AcDbLine
 10
-959.0
 20
452.08
 30
0.0
 11
-980.0
 21
452.08
 31
0.0
  0
LINE
  5
ACD
330
1A
100
AcDbEntity
  8
GUIDE
100
AcDbLine
 10
-959.0
 20
478.4
 30
0.0
 11
-980.0
 21
478.4
 31
0.0
  0
LINE
  5
ACE
330
1A
100
AcDbEntity
  8
GUIDE
100
AcDbLine
 10
-959.0
 20
485.92
 30
0.0
 11
-980.0
 21
485.92
 31
0.0
  0
LINE
  5
ACF
330
1A
100
AcDbEntity
  8
GUIDE
100
AcDbLine
 10
-980.0
 20
478.4
 30
0.0
 11
-980.0
 21
485.92
 31
0.0
  0
LINE
  5
AD0
330
1A
100
AcDbEntity
  8
GUIDE
100
AcDbLine
 10
-980.0
 20
452.08
 30
0.0
 11
-980.0
 21
459.6
 31
0.0
  0
LINE
  5
AD1
330
1A
100
AcDbEntity
  8
GUIDE
100
AcDbLine
 10
-959.0
 20
452.08
 30
0.0
 11
-959.0
 21
459.6
 31
0.0
  0
LINE
  5
AD2
330
1A
100
AcDbEntity
  8
GUIDE
100
AcDbLine
 10
-959.0
 20
478.4
 30
0.0
 11
-959.0
 21
485.92
 31
0.0
  0
LINE
  5
AD3
330
1A
100
AcDbEntity
  8
GUIDE
100
AcDbLine
 10
-972.5
 20
478.4
 30
0.0
 11
-972.5
 21
459.6
 31
0.0
  0
LINE
  5
AD4
330
1A
100
AcDbEntity
  8
GUIDE
100
AcDbLine
 10
-966.5
 20
478.4
 30
0.0
 11
-966.5
 21
459.6
 31
0.0
  0
LINE
  5
AD5
330
1A
100
AcDbEntity
  8
GUIDE
100
AcDbLine
 10
-966.5
 20
452.08
 30
0.0
 11
-966.5
 21
433.28
 31
0.0
  0
LINE
  5
AD6
330
1A
100
AcDbEntity
  8
GUIDE
100
AcDbLine
 10
-972.5
 20
452.08
 30
0.0
 11
-972.5
 21
433.28
 31
0.0
  0
LINE
  5
AD7
330
1A
100
AcDbEntity
  8
GUIDE
100
AcDbLine
 10
-972.5
 20
425.76
 30
0.0
 11
-972.5
 21
422.0
 31
0.0
  0
LINE
  5
AD8
330
1A
100
AcDbEntity
  8
GUIDE
100
AcDbLine
 10
-966.5
 20
425.76
 30
0.0
 11
-966.5
 21
422.0
 31
0.0
  0
LINE
  5
AD9
330
1A
100
AcDbEntity
  8
GUIDE
100
AcDbLine
 10
-949.0
 20
497.24
 30
0.0
 11
-949.0
 21
501.0
 31
0.0
  0
LINE
  5
ADA
330
1A
100
AcDbEntity
  8
GUIDE
100
AcDbLine
 10
-955.0
 20
497.24
 30
0.0
 11
-955.0
 21
501.0
 31
0.0
  0
LINE
  5
ADB
330
1A
100
AcDbEntity
  8
GUIDE
100
AcDbLine
 10
-955.0
 20
470.92
 30
0.0
 11
-955.0
 21
489.72
 31
0.0
  0
LINE
  5
ADC
330
1A
100
AcDbEntity
  8
GUIDE
100
AcDbLine
 10
-949.0
 20
470.92
 30
0.0
 11
-949.0
 21
489.72
 31
0.0
  0
LINE
  5
ADD
330
1A
100
AcDbEntity
  8
GUIDE
100
AcDbLine
 10
-949.0
 20
444.6
 30
0.0
 11
-949.0
 21
463.4
 31
0.0
  0
LINE
  5
ADE
330
1A
100
AcDbEntity
  8
GUIDE
100
AcDbLine
 10
-955.0
 20
444.6
 30
0.0
 11
-955.0
 21
463.4
 31
0.0
  0
LINE
  5
ADF
330
1A
100
AcDbEntity
  8
GUIDE
100
AcDbLine
 10
-941.5
 20
444.6
 30
0.0
 11
-941.5
 21
437.08
 31
0.0
  0
LINE
  5
AE0
330
1A
100
AcDbEntity
  8
GUIDE
100
AcDbLine
 10
-941.5
 20
470.92
 30
0.0
 11
-941.5
 21
463.4
 31
0.0
  0
LINE
  5
AE1
330
1A
100
AcDbEntity
  8
GUIDE
100
AcDbLine
 10
-962.5
 20
470.92
 30
0.0
 11
-962.5
 21
463.4
 31
0.0
  0
LINE
  5
AE2
330
1A
100
AcDbEntity
  8
GUIDE
100
AcDbLine
 10
-962.5
 20
444.6
 30
0.0
 11
-962.5
 21
437.08
 31
0.0
  0
LINE
  5
AE3
330
1A
100
AcDbEntity
  8
GUIDE
100
AcDbLine
 10
-941.5
 20
437.08
 30
0.0
 11
-962.5
 21
437.08
 31
0.0
  0
LINE
  5
AE4
330
1A
100
AcDbEntity
  8
GUIDE
100
AcDbLine
 10
-941.5
 20
444.6
 30
0.0
 11
-962.5
 21
444.6
 31
0.0
  0
LINE
  5
AE5
330
1A
100
AcDbEntity
  8
GUIDE
100
AcDbLine
 10
-941.5
 20
470.92
 30
0.0
 11
-962.5
 21
470.92
 31
0.0
  0
LINE
  5
AE6
330
1A
100
AcDbEntity
  8
GUIDE
100
AcDbLine
 10
-941.5
 20
463.4
 30
0.0
 11
-962.5
 21
463.4
 31
0.0
  0
LINE
  5
AE7
330
1A
100
AcDbEntity
  8
GUIDE
100
AcDbLine
 10
-949.0
 20
448.36
 30
0.0
 11
-955.0
 21
448.36
 31
0.0
  0
LINE
  5
AE8
330
1A
100
AcDbEntity
  8
GUIDE
100
AcDbLine
 10
-949.0
 20
474.68
 30
0.0
 11
-955.0
 21
474.68
 31
0.0
  0
LINE
  5
AE9
330
1A
100
AcDbEntity
  8
GUIDE
100
AcDbLine
 10
-941.5
 20
489.72
 30
0.0
 11
-962.5
 21
489.72
 31
0.0
  0
LINE
  5
AEA
330
1A
100
AcDbEntity
  8
GUIDE
100
AcDbLine
 10
-941.5
 20
497.24
 30
0.0
 11
-962.5
 21
497.24
 31
0.0
  0
LINE
  5
AEB
330
1A
100
AcDbEntity
  8
GUIDE
100
AcDbLine
 10
-962.5
 20
497.24
 30
0.0
 11
-962.5
 21
489.72
 31
0.0
  0
LINE
  5
AEC
330
1A
100
AcDbEntity
  8
GUIDE
100
AcDbLine
 10
-941.5
 20
497.24
 30
0.0
 11
-941.5
 21
489.72
 31
0.0
  0
LINE
  5
AED
330
1A
100
AcDbEntity
  8
GUIDE
100
AcDbLine
 10
-955.0
 20
422.0
 30
0.0
 11
-955.0
 21
437.08
 31
0.0
  0
LINE
  5
AEE
330
1A
100
AcDbEntity
  8
GUIDE
100
AcDbLine
 10
-949.0
 20
422.0
 30
0.0
 11
-949.0
 21
437.08
 31
0.0
  0
LINE
  5
AEF
330
1A
100
AcDbEntity
  8
GUIDE
100
AcDbLine
 10
-1001.5
 20
501.0
 30
0.0
 11
-1001.5
 21
485.92
 31
0.0
  0
LINE
  5
AF0
330
1A
100
AcDbEntity
  8
GUIDE
100
AcDbLine
 10
-1007.5
 20
501.0
 30
0.0
 11
-1007.5
 21
485.92
 31
0.0
  0
LINE
  5
AF1
330
1A
100
AcDbEntity
  8
GUIDE
100
AcDbLine
 10
-994.0
 20
425.76
 30
0.0
 11
-994.0
 21
433.28
 31
0.0
  0
LINE
  5
AF2
330
1A
100
AcDbEntity
  8
GUIDE
100
AcDbLine
 10
-1015.0
 20
425.76
 30
0.0
 11
-1015.0
 21
433.28
 31
0.0
  0
LINE
  5
AF3
330
1A
100
AcDbEntity
  8
GUIDE
100
AcDbLine
 10
-994.0
 20
425.76
 30
0.0
 11
-1015.0
 21
425.76
 31
0.0
  0
LINE
  5
AF4
330
1A
100
AcDbEntity
  8
GUIDE
100
AcDbLine
 10
-994.0
 20
433.28
 30
0.0
 11
-1015.0
 21
433.28
 31
0.0
  0
LINE
  5
AF5
330
1A
100
AcDbEntity
  8
GUIDE
100
AcDbLine
 10
-1001.5
 20
448.32
 30
0.0
 11
-1007.5
 21
448.32
 31
0.0
  0
LINE
  5
AF6
330
1A
100
AcDbEntity
  8
GUIDE
100
AcDbLine
 10
-1001.5
 20
474.64
 30
0.0
 11
-1007.5
 21
474.64
 31
0.0
  0
LINE
  5
AF7
330
1A
100
AcDbEntity
  8
GUIDE
100
AcDbLine
 10
-994.0
 20
459.6
 30
0.0
 11
-1015.0
 21
459.6
 31
0.0
  0
LINE
  5
AF8
330
1A
100
AcDbEntity
  8
GUIDE
100
AcDbLine
 10
-994.0
 20
452.08
 30
0.0
 11
-1015.0
 21
452.08
 31
0.0
  0
LINE
  5
AF9
330
1A
100
AcDbEntity
  8
GUIDE
100
AcDbLine
 10
-994.0
 20
478.4
 30
0.0
 11
-1015.0
 21
478.4
 31
0.0
  0
LINE
  5
AFA
330
1A
100
AcDbEntity
  8
GUIDE
100
AcDbLine
 10
-994.0
 20
485.92
 30
0.0
 11
-1015.0
 21
485.92
 31
0.0
  0
LINE
  5
AFB
330
1A
100
AcDbEntity
  8
GUIDE
100
AcDbLine
 10
-1015.0
 20
478.4
 30
0.0
 11
-1015.0
 21
485.92
 31
0.0
  0
LINE
  5
AFC
330
1A
100
AcDbEntity
  8
GUIDE
100
AcDbLine
 10
-1015.0
 20
452.08
 30
0.0
 11
-1015.0
 21
459.6
 31
0.0
  0
LINE
  5
AFD
330
1A
100
AcDbEntity
  8
GUIDE
100
AcDbLine
 10
-994.0
 20
452.08
 30
0.0
 11
-994.0
 21
459.6
 31
0.0
  0
LINE
  5
AFE
330
1A
100
AcDbEntity
  8
GUIDE
100
AcDbLine
 10
-994.0
 20
478.4
 30
0.0
 11
-994.0
 21
485.92
 31
0.0
  0
LINE
  5
AFF
330
1A
100
AcDbEntity
  8
GUIDE
100
AcDbLine
 10
-1007.5
 20
478.4
 30
0.0
 11
-1007.5
 21
459.6
 31
0.0
  0
LINE
  5
B00
330
1A
100
AcDbEntity
  8
GUIDE
100
AcDbLine
 10
-1001.5
 20
478.4
 30
0.0
 11
-1001.5
 21
459.6
 31
0.0
  0
LINE
  5
B01
330
1A
100
AcDbEntity
  8
GUIDE
100
AcDbLine
 10
-1001.5
 20
452.08
 30
0.0
 11
-1001.5
 21
433.28
 31
0.0
  0
LINE
  5
B02
330
1A
100
AcDbEntity
  8
GUIDE
100
AcDbLine
 10
-1007.5
 20
452.08
 30
0.0
 11
-1007.5
 21
433.28
 31
0.0
  0
LINE
  5
B03
330
1A
100
AcDbEntity
  8
GUIDE
100
AcDbLine
 10
-1007.5
 20
425.76
 30
0.0
 11
-1007.5
 21
422.0
 31
0.0
  0
LINE
  5
B04
330
1A
100
AcDbEntity
  8
GUIDE
100
AcDbLine
 10
-1001.5
 20
425.76
 30
0.0
 11
-1001.5
 21
422.0
 31
0.0
  0
LINE
  5
B05
330
1A
100
AcDbEntity
  8
GUIDE
100
AcDbLine
 10
-984.0
 20
497.24
 30
0.0
 11
-984.0
 21
501.0
 31
0.0
  0
LINE
  5
B06
330
1A
100
AcDbEntity
  8
GUIDE
100
AcDbLine
 10
-990.0
 20
497.24
 30
0.0
 11
-990.0
 21
501.0
 31
0.0
  0
LINE
  5
B07
330
1A
100
AcDbEntity
  8
GUIDE
100
AcDbLine
 10
-990.0
 20
470.92
 30
0.0
 11
-990.0
 21
489.72
 31
0.0
  0
LINE
  5
B08
330
1A
100
AcDbEntity
  8
GUIDE
100
AcDbLine
 10
-984.0
 20
470.92
 30
0.0
 11
-984.0
 21
489.72
 31
0.0
  0
LINE
  5
B09
330
1A
100
AcDbEntity
  8
GUIDE
100
AcDbLine
 10
-984.0
 20
444.6
 30
0.0
 11
-984.0
 21
463.4
 31
0.0
  0
LINE
  5
B0A
330
1A
100
AcDbEntity
  8
GUIDE
100
AcDbLine
 10
-990.0
 20
444.6
 30
0.0
 11
-990.0
 21
463.4
 31
0.0
  0
LINE
  5
B0B
330
1A
100
AcDbEntity
  8
GUIDE
100
AcDbLine
 10
-976.5
 20
444.6
 30
0.0
 11
-976.5
 21
437.08
 31
0.0
  0
LINE
  5
B0C
330
1A
100
AcDbEntity
  8
GUIDE
100
AcDbLine
 10
-976.5
 20
470.92
 30
0.0
 11
-976.5
 21
463.4
 31
0.0
  0
LINE
  5
B0D
330
1A
100
AcDbEntity
  8
GUIDE
100
AcDbLine
 10
-997.5
 20
470.92
 30
0.0
 11
-997.5
 21
463.4
 31
0.0
  0
LINE
  5
B0E
330
1A
100
AcDbEntity
  8
GUIDE
100
AcDbLine
 10
-997.5
 20
444.6
 30
0.0
 11
-997.5
 21
437.08
 31
0.0
  0
LINE
  5
B0F
330
1A
100
AcDbEntity
  8
GUIDE
100
AcDbLine
 10
-976.5
 20
437.08
 30
0.0
 11
-997.5
 21
437.08
 31
0.0
  0
LINE
  5
B10
330
1A
100
AcDbEntity
  8
GUIDE
100
AcDbLine
 10
-976.5
 20
444.6
 30
0.0
 11
-997.5
 21
444.6
 31
0.0
  0
LINE
  5
B11
330
1A
100
AcDbEntity
  8
GUIDE
100
AcDbLine
 10
-976.5
 20
470.92
 30
0.0
 11
-997.5
 21
470.92
 31
0.0
  0
LINE
  5
B12
330
1A
100
AcDbEntity
  8
GUIDE
100
AcDbLine
 10
-976.5
 20
463.4
 30
0.0
 11
-997.5
 21
463.4
 31
0.0
  0
LINE
  5
B13
330
1A
100
AcDbEntity
  8
GUIDE
100
AcDbLine
 10
-984.0
 20
448.36
 30
0.0
 11
-990.0
 21
448.36
 31
0.0
  0
LINE
  5
B14
330
1A
100
AcDbEntity
  8
GUIDE
100
AcDbLine
 10
-984.0
 20
474.68
 30
0.0
 11
-990.0
 21
474.68
 31
0.0
  0
LINE
  5
B15
330
1A
100
AcDbEntity
  8
GUIDE
100
AcDbLine
 10
-976.5
 20
489.72
 30
0.0
 11
-997.5
 21
489.72
 31
0.0
  0
LINE
  5
B16
330
1A
100
AcDbEntity
  8
GUIDE
100
AcDbLine
 10
-976.5
 20
497.24
 30
0.0
 11
-997.5
 21
497.24
 31
0.0
  0
LINE
  5
B17
330
1A
100
AcDbEntity
  8
GUIDE
100
AcDbLine
 10
-997.5
 20
497.24
 30
0.0
 11
-997.5
 21
489.72
 31
0.0
  0
LINE
  5
B18
330
1A
100
AcDbEntity
  8
GUIDE
100
AcDbLine
 10
-976.5
 20
497.24
 30
0.0
 11
-976.5
 21
489.72
 31
0.0
  0
LINE
  5
B19
330
1A
100
AcDbEntity
  8
GUIDE
100
AcDbLine
 10
-990.0
 20
422.0
 30
0.0
 11
-990.0
 21
437.08
 31
0.0
  0
LINE
  5
B1A
330
1A
100
AcDbEntity
  8
GUIDE
100
AcDbLine
 10
-984.0
 20
422.0
 30
0.0
 11
-984.0
 21
437.08
 31
0.0
  0
LINE
  5
B1B
330
1A
100
AcDbEntity
  8
GUIDE
100
AcDbLine
 10
-1036.5
 20
501.0
 30
0.0
 11
-1036.5
 21
485.92
 31
0.0
  0
LINE
  5
B1C
330
1A
100
AcDbEntity
  8
GUIDE
100
AcDbLine
 10
-1042.5
 20
501.0
 30
0.0
 11
-1042.5
 21
485.92
 31
0.0
  0
LINE
  5
B1D
330
1A
100
AcDbEntity
  8
GUIDE
100
AcDbLine
 10
-1029.0
 20
425.76
 30
0.0
 11
-1029.0
 21
433.28
 31
0.0
  0
LINE
  5
B1E
330
1A
100
AcDbEntity
  8
GUIDE
100
AcDbLine
 10
-1050.0
 20
425.76
 30
0.0
 11
-1050.0
 21
433.28
 31
0.0
  0
LINE
  5
B1F
330
1A
100
AcDbEntity
  8
GUIDE
100
AcDbLine
 10
-1029.0
 20
425.76
 30
0.0
 11
-1050.0
 21
425.76
 31
0.0
  0
LINE
  5
B20
330
1A
100
AcDbEntity
  8
GUIDE
100
AcDbLine
 10
-1029.0
 20
433.28
 30
0.0
 11
-1050.0
 21
433.28
 31
0.0
  0
LINE
  5
B21
330
1A
100
AcDbEntity
  8
GUIDE
100
AcDbLine
 10
-1036.5
 20
448.32
 30
0.0
 11
-1042.5
 21
448.32
 31
0.0
  0
LINE
  5
B22
330
1A
100
AcDbEntity
  8
GUIDE
100
AcDbLine
 10
-1036.5
 20
474.64
 30
0.0
 11
-1042.5
 21
474.64
 31
0.0
  0
LINE
  5
B23
330
1A
100
AcDbEntity
  8
GUIDE
100
AcDbLine
 10
-1029.0
 20
459.6
 30
0.0
 11
-1050.0
 21
459.6
 31
0.0
  0
LINE
  5
B24
330
1A
100
AcDbEntity
  8
GUIDE
100
AcDbLine
 10
-1029.0
 20
452.08
 30
0.0
 11
-1050.0
 21
452.08
 31
0.0
  0
LINE
  5
B25
330
1A
100
AcDbEntity
  8
GUIDE
100
AcDbLine
 10
-1029.0
 20
478.4
 30
0.0
 11
-1050.0
 21
478.4
 31
0.0
  0
LINE
  5
B26
330
1A
100
AcDbEntity
  8
GUIDE
100
AcDbLine
 10
-1029.0
 20
485.92
 30
0.0
 11
-1050.0
 21
485.92
 31
0.0
  0
LINE
  5
B27
330
1A
100
AcDbEntity
  8
GUIDE
100
AcDbLine
 10
-1050.0
 20
478.4
 30
0.0
 11
-1050.0
 21
485.92
 31
0.0
  0
LINE
  5
B28
330
1A
100
AcDbEntity
  8
GUIDE
100
AcDbLine
 10
-1050.0
 20
452.08
 30
0.0
 11
-1050.0
 21
459.6
 31
0.0
  0
LINE
  5
B29
330
1A
100
AcDbEntity
  8
GUIDE
100
AcDbLine
 10
-1029.0
 20
452.08
 30
0.0
 11
-1029.0
 21
459.6
 31
0.0
  0
LINE
  5
B2A
330
1A
100
AcDbEntity
  8
GUIDE
100
AcDbLine
 10
-1029.0
 20
478.4
 30
0.0
 11
-1029.0
 21
485.92
 31
0.0
  0
LINE
  5
B2B
330
1A
100
AcDbEntity
  8
GUIDE
100
AcDbLine
 10
-1042.5
 20
478.4
 30
0.0
 11
-1042.5
 21
459.6
 31
0.0
  0
LINE
  5
B2C
330
1A
100
AcDbEntity
  8
GUIDE
100
AcDbLine
 10
-1036.5
 20
478.4
 30
0.0
 11
-1036.5
 21
459.6
 31
0.0
  0
LINE
  5
B2D
330
1A
100
AcDbEntity
  8
GUIDE
100
AcDbLine
 10
-1036.5
 20
452.08
 30
0.0
 11
-1036.5
 21
433.28
 31
0.0
  0
LINE
  5
B2E
330
1A
100
AcDbEntity
  8
GUIDE
100
AcDbLine
 10
-1042.5
 20
452.08
 30
0.0
 11
-1042.5
 21
433.28
 31
0.0
  0
LINE
  5
B2F
330
1A
100
AcDbEntity
  8
GUIDE
100
AcDbLine
 10
-1042.5
 20
425.76
 30
0.0
 11
-1042.5
 21
422.0
 31
0.0
  0
LINE
  5
B30
330
1A
100
AcDbEntity
  8
GUIDE
100
AcDbLine
 10
-1036.5
 20
425.76
 30
0.0
 11
-1036.5
 21
422.0
 31
0.0
  0
LINE
  5
B31
330
1A
100
AcDbEntity
  8
GUIDE
100
AcDbLine
 10
-1019.0
 20
497.24
 30
0.0
 11
-1019.0
 21
501.0
 31
0.0
  0
LINE
  5
B32
330
1A
100
AcDbEntity
  8
GUIDE
100
AcDbLine
 10
-1025.0
 20
497.24
 30
0.0
 11
-1025.0
 21
501.0
 31
0.0
  0
LINE
  5
B33
330
1A
100
AcDbEntity
  8
GUIDE
100
AcDbLine
 10
-1025.0
 20
470.92
 30
0.0
 11
-1025.0
 21
489.72
 31
0.0
  0
LINE
  5
B34
330
1A
100
AcDbEntity
  8
GUIDE
100
AcDbLine
 10
-1019.0
 20
470.92
 30
0.0
 11
-1019.0
 21
489.72
 31
0.0
  0
LINE
  5
B35
330
1A
100
AcDbEntity
  8
GUIDE
100
AcDbLine
 10
-1019.0
 20
444.6
 30
0.0
 11
-1019.0
 21
463.4
 31
0.0
  0
LINE
  5
B36
330
1A
100
AcDbEntity
  8
GUIDE
100
AcDbLine
 10
-1025.0
 20
444.6
 30
0.0
 11
-1025.0
 21
463.4
 31
0.0
  0
LINE
  5
B37
330
1A
100
AcDbEntity
  8
GUIDE
100
AcDbLine
 10
-1011.5
 20
444.6
 30
0.0
 11
-1011.5
 21
437.08
 31
0.0
  0
LINE
  5
B38
330
1A
100
AcDbEntity
  8
GUIDE
100
AcDbLine
 10
-1011.5
 20
470.92
 30
0.0
 11
-1011.5
 21
463.4
 31
0.0
  0
LINE
  5
B39
330
1A
100
AcDbEntity
  8
GUIDE
100
AcDbLine
 10
-1032.5
 20
470.92
 30
0.0
 11
-1032.5
 21
463.4
 31
0.0
  0
LINE
  5
B3A
330
1A
100
AcDbEntity
  8
GUIDE
100
AcDbLine
 10
-1032.5
 20
444.6
 30
0.0
 11
-1032.5
 21
437.08
 31
0.0
  0
LINE
  5
B3B
330
1A
100
AcDbEntity
  8
GUIDE
100
AcDbLine
 10
-1011.5
 20
437.08
 30
0.0
 11
-1032.5
 21
437.08
 31
0.0
  0
LINE
  5
B3C
330
1A
100
AcDbEntity
  8
GUIDE
100
AcDbLine
 10
-1011.5
 20
444.6
 30
0.0
 11
-1032.5
 21
444.6
 31
0.0
  0
LINE
  5
B3D
330
1A
100
AcDbEntity
  8
GUIDE
100
AcDbLine
 10
-1011.5
 20
470.92
 30
0.0
 11
-1032.5
 21
470.92
 31
0.0
  0
LINE
  5
B3E
330
1A
100
AcDbEntity
  8
GUIDE
100
AcDbLine
 10
-1011.5
 20
463.4
 30
0.0
 11
-1032.5
 21
463.4
 31
0.0
  0
LINE
  5
B3F
330
1A
100
AcDbEntity
  8
GUIDE
100
AcDbLine
 10
-1019.0
 20
448.36
 30
0.0
 11
-1025.0
 21
448.36
 31
0.0
  0
LINE
  5
B40
330
1A
100
AcDbEntity
  8
GUIDE
100
AcDbLine
 10
-1019.0
 20
474.68
 30
0.0
 11
-1025.0
 21
474.68
 31
0.0
  0
LINE
  5
B41
330
1A
100
AcDbEntity
  8
GUIDE
100
AcDbLine
 10
-1011.5
 20
489.72
 30
0.0
 11
-1032.5
 21
489.72
 31
0.0
  0
LINE
  5
B42
330
1A
100
AcDbEntity
  8
GUIDE
100
AcDbLine
 10
-1011.5
 20
497.24
 30
0.0
 11
-1032.5
 21
497.24
 31
0.0
  0
LINE
  5
B43
330
1A
100
AcDbEntity
  8
GUIDE
100
AcDbLine
 10
-1032.5
 20
497.24
 30
0.0
 11
-1032.5
 21
489.72
 31
0.0
  0
LINE
  5
B44
330
1A
100
AcDbEntity
  8
GUIDE
100
AcDbLine
 10
-1011.5
 20
497.24
 30
0.0
 11
-1011.5
 21
489.72
 31
0.0
  0
LINE
  5
B45
330
1A
100
AcDbEntity
  8
GUIDE
100
AcDbLine
 10
-1025.0
 20
422.0
 30
0.0
 11
-1025.0
 21
437.08
 31
0.0
  0
LINE
  5
B46
330
1A
100
AcDbEntity
  8
GUIDE
100
AcDbLine
 10
-1019.0
 20
422.0
 30
0.0
 11
-1019.0
 21
437.08
 31
0.0
  0
LINE
  5
B47
330
1A
100
AcDbEntity
  8
GUIDE
100
AcDbLine
 10
-1054.0
 20
422.0
 30
0.0
 11
-1054.0
 21
437.08
 31
0.0
  0
LINE
  5
B48
330
1A
100
AcDbEntity
  8
GUIDE
100
AcDbLine
 10
-1060.0
 20
422.0
 30
0.0
 11
-1060.0
 21
437.08
 31
0.0
  0
LINE
  5
B49
330
1A
100
AcDbEntity
  8
GUIDE
100
AcDbLine
 10
-1046.5
 20
497.24
 30
0.0
 11
-1046.5
 21
489.72
 31
0.0
  0
LINE
  5
B4A
330
1A
100
AcDbEntity
  8
GUIDE
100
AcDbLine
 10
-1067.5
 20
497.24
 30
0.0
 11
-1067.5
 21
489.72
 31
0.0
  0
LINE
  5
B4B
330
1A
100
AcDbEntity
  8
GUIDE
100
AcDbLine
 10
-1046.5
 20
497.24
 30
0.0
 11
-1067.5
 21
497.24
 31
0.0
  0
LINE
  5
B4C
330
1A
100
AcDbEntity
  8
GUIDE
100
AcDbLine
 10
-1046.5
 20
489.72
 30
0.0
 11
-1067.5
 21
489.72
 31
0.0
  0
LINE
  5
B4D
330
1A
100
AcDbEntity
  8
GUIDE
100
AcDbLine
 10
-1054.0
 20
474.68
 30
0.0
 11
-1060.0
 21
474.68
 31
0.0
  0
LINE
  5
B4E
330
1A
100
AcDbEntity
  8
GUIDE
100
AcDbLine
 10
-1054.0
 20
448.36
 30
0.0
 11
-1060.0
 21
448.36
 31
0.0
  0
LINE
  5
B4F
330
1A
100
AcDbEntity
  8
GUIDE
100
AcDbLine
 10
-1046.5
 20
463.4
 30
0.0
 11
-1067.5
 21
463.4
 31
0.0
  0
LINE
  5
B50
330
1A
100
AcDbEntity
  8
GUIDE
100
AcDbLine
 10
-1046.5
 20
470.92
 30
0.0
 11
-1067.5
 21
470.92
 31
0.0
  0
LINE
  5
B51
330
1A
100
AcDbEntity
  8
GUIDE
100
AcDbLine
 10
-1046.5
 20
444.6
 30
0.0
 11
-1067.5
 21
444.6
 31
0.0
  0
LINE
  5
B52
330
1A
100
AcDbEntity
  8
GUIDE
100
AcDbLine
 10
-1046.5
 20
437.08
 30
0.0
 11
-1067.5
 21
437.08
 31
0.0
  0
LINE
  5
B53
330
1A
100
AcDbEntity
  8
GUIDE
100
AcDbLine
 10
-1067.5
 20
444.6
 30
0.0
 11
-1067.5
 21
437.08
 31
0.0
  0
LINE
  5
B54
330
1A
100
AcDbEntity
  8
GUIDE
100
AcDbLine
 10
-1067.5
 20
470.92
 30
0.0
 11
-1067.5
 21
463.4
 31
0.0
  0
LINE
  5
B55
330
1A
100
AcDbEntity
  8
GUIDE
100
AcDbLine
 10
-1046.5
 20
470.92
 30
0.0
 11
-1046.5
 21
463.4
 31
0.0
  0
LINE
  5
B56
330
1A
100
AcDbEntity
  8
GUIDE
100
AcDbLine
 10
-1046.5
 20
444.6
 30
0.0
 11
-1046.5
 21
437.08
 31
0.0
  0
LINE
  5
B57
330
1A
100
AcDbEntity
  8
GUIDE
100
AcDbLine
 10
-1060.0
 20
444.6
 30
0.0
 11
-1060.0
 21
463.4
 31
0.0
  0
LINE
  5
B58
330
1A
100
AcDbEntity
  8
GUIDE
100
AcDbLine
 10
-1054.0
 20
444.6
 30
0.0
 11
-1054.0
 21
463.4
 31
0.0
  0
LINE
  5
B59
330
1A
100
AcDbEntity
  8
GUIDE
100
AcDbLine
 10
-1054.0
 20
470.92
 30
0.0
 11
-1054.0
 21
489.72
 31
0.0
  0
LINE
  5
B5A
330
1A
100
AcDbEntity
  8
GUIDE
100
AcDbLine
 10
-1060.0
 20
470.92
 30
0.0
 11
-1060.0
 21
489.72
 31
0.0
  0
LINE
  5
B5B
330
1A
100
AcDbEntity
  8
GUIDE
100
AcDbLine
 10
-1060.0
 20
497.24
 30
0.0
 11
-1060.0
 21
501.0
 31
0.0
  0
LINE
  5
B5C
330
1A
100
AcDbEntity
  8
GUIDE
100
AcDbLine
 10
-1054.0
 20
497.24
 30
0.0
 11
-1054.0
 21
501.0
 31
0.0
  0
LINE
  5
B5D
330
1A
100
AcDbEntity
  8
GUIDE
100
AcDbLine
 10
-1081.0
 20
478.4
 30
0.0
 11
-1081.0
 21
459.6
 31
0.0
  0
LINE
  5
B5E
330
1A
100
AcDbEntity
  8
GUIDE
100
AcDbLine
 10
-1081.0
 20
452.08
 30
0.0
 11
-1081.0
 21
433.28
 31
0.0
  0
LINE
  5
B5F
330
1A
100
AcDbEntity
  8
GUIDE
100
AcDbLine
 10
-1081.0
 20
425.76
 30
0.0
 11
-1081.0
 21
412.0
 31
0.0
  0
LINE
  5
B60
330
1A
100
AcDbEntity
  8
GUIDE
100
AcDbLine
 10
-1071.5
 20
425.76
 30
0.0
 11
-1071.5
 21
422.0
 31
0.0
  0
LINE
  5
B61
330
1A
100
AcDbEntity
  8
GUIDE
100
AcDbLine
 10
-1077.5
 20
425.76
 30
0.0
 11
-1077.5
 21
422.0
 31
0.0
  0
LINE
  5
B62
330
1A
100
AcDbEntity
  8
GUIDE
100
AcDbLine
 10
-1077.5
 20
452.08
 30
0.0
 11
-1077.5
 21
433.28
 31
0.0
  0
LINE
  5
B63
330
1A
100
AcDbEntity
  8
GUIDE
100
AcDbLine
 10
-1071.5
 20
452.08
 30
0.0
 11
-1071.5
 21
433.28
 31
0.0
  0
LINE
  5
B64
330
1A
100
AcDbEntity
  8
GUIDE
100
AcDbLine
 10
-1071.5
 20
478.4
 30
0.0
 11
-1071.5
 21
459.6
 31
0.0
  0
LINE
  5
B65
330
1A
100
AcDbEntity
  8
GUIDE
100
AcDbLine
 10
-1077.5
 20
478.4
 30
0.0
 11
-1077.5
 21
459.6
 31
0.0
  0
LINE
  5
B66
330
1A
100
AcDbEntity
  8
GUIDE
100
AcDbLine
 10
-1064.0
 20
478.4
 30
0.0
 11
-1064.0
 21
485.92
 31
0.0
  0
LINE
  5
B67
330
1A
100
AcDbEntity
  8
GUIDE
100
AcDbLine
 10
-1064.0
 20
452.08
 30
0.0
 11
-1064.0
 21
459.6
 31
0.0
  0
LINE
  5
B68
330
1A
100
AcDbEntity
  8
GUIDE
100
AcDbLine
 10
-1085.0
 20
452.08
 30
0.0
 11
-1085.0
 21
459.6
 31
0.0
  0
LINE
  5
B69
330
1A
100
AcDbEntity
  8
GUIDE
100
AcDbLine
 10
-1085.0
 20
478.4
 30
0.0
 11
-1085.0
 21
485.92
 31
0.0
  0
LINE
  5
B6A
330
1A
100
AcDbEntity
  8
GUIDE
100
AcDbLine
 10
-1064.0
 20
485.92
 30
0.0
 11
-1085.0
 21
485.92
 31
0.0
  0
LINE
  5
B6B
330
1A
100
AcDbEntity
  8
GUIDE
100
AcDbLine
 10
-1064.0
 20
478.4
 30
0.0
 11
-1085.0
 21
478.4
 31
0.0
  0
LINE
  5
B6C
330
1A
100
AcDbEntity
  8
GUIDE
100
AcDbLine
 10
-1064.0
 20
452.08
 30
0.0
 11
-1085.0
 21
452.08
 31
0.0
  0
LINE
  5
B6D
330
1A
100
AcDbEntity
  8
GUIDE
100
AcDbLine
 10
-1064.0
 20
459.6
 30
0.0
 11
-1085.0
 21
459.6
 31
0.0
  0
LINE
  5
B6E
330
1A
100
AcDbEntity
  8
GUIDE
100
AcDbLine
 10
-1071.5
 20
474.64
 30
0.0
 11
-1077.5
 21
474.64
 31
0.0
  0
LINE
  5
B6F
330
1A
100
AcDbEntity
  8
GUIDE
100
AcDbLine
 10
-1071.5
 20
448.32
 30
0.0
 11
-1077.5
 21
448.32
 31
0.0
  0
LINE
  5
B70
330
1A
100
AcDbEntity
  8
GUIDE
100
AcDbLine
 10
-1064.0
 20
433.28
 30
0.0
 11
-1085.0
 21
433.28
 31
0.0
  0
LINE
  5
B71
330
1A
100
AcDbEntity
  8
GUIDE
100
AcDbLine
 10
-1064.0
 20
425.76
 30
0.0
 11
-1085.0
 21
425.76
 31
0.0
  0
LINE
  5
B72
330
1A
100
AcDbEntity
  8
GUIDE
100
AcDbLine
 10
-1081.0
 20
422.0
 30
0.0
 11
-32.0
 21
422.0
 31
0.0
  0
LINE
  5
B73
330
1A
100
AcDbEntity
  8
GUIDE
100
AcDbLine
 10
-1081.0
 20
501.0
 30
0.0
 11
-32.0
 21
501.0
 31
0.0
  0
LINE
  5
B74
330
1A
100
AcDbEntity
  8
GUIDE
100
AcDbLine
 10
-1085.0
 20
425.76
 30
0.0
 11
-1085.0
 21
433.28
 31
0.0
  0
LINE
  5
B75
330
1A
100
AcDbEntity
  8
GUIDE
100
AcDbLine
 10
-1064.0
 20
425.76
 30
0.0
 11
-1064.0
 21
433.28
 31
0.0
  0
LINE
  5
B76
330
1A
100
AcDbEntity
  8
GUIDE
100
AcDbLine
 10
-1077.5
 20
501.0
 30
0.0
 11
-1077.5
 21
485.92
 31
0.0
  0
LINE
  5
B77
330
1A
100
AcDbEntity
  8
GUIDE
100
AcDbLine
 10
-1071.5
 20
501.0
 30
0.0
 11
-1071.5
 21
485.92
 31
0.0
  0
LINE
  5
B78
330
1A
100
AcDbEntity
  8
GUIDE
100
AcDbLine
 10
-1081.0
 20
511.0
 30
0.0
 11
-32.0
 21
511.0
 31
0.0
  0
LINE
  5
B79
330
1A
100
AcDbEntity
  8
GUIDE
100
AcDbLine
 10
-1081.0
 20
412.0
 30
0.0
 11
-32.0
 21
412.0
 31
0.0
  0
LINE
  5
B7A
330
1A
100
AcDbEntity
  8
GUIDE
100
AcDbLine
 10
-32.0
 20
511.0
 30
0.0
 11
-32.0
 21
497.24
 31
0.0
  0
LINE
  5
B7B
330
1A
100
AcDbEntity
  8
GUIDE
100
AcDbLine
 10
-1081.0
 20
511.0
 30
0.0
 11
-1081.0
 21
485.92
 31
0.0
  0
LINE
  5
B7C
330
1A
100
AcDbEntity
  8
GUIDE
100
AcDbLine
 10
-1081.0
 20
508.6
 30
0.0
 11
-32.0
 21
508.6
 31
0.0
  0
LINE
  5
B7D
330
1A
100
AcDbEntity
  8
GUIDE
100
AcDbLine
 10
-1081.0
 20
414.4
 30
0.0
 11
-32.0
 21
414.4
 31
0.0
  0
LINE
  5
B7E
330
1A
100
AcDbEntity
  8
GUIDE
100
AcDbLine
 10
24.723417
 20
501.0
 30
0.0
 11
27.723417
 21
504.0
 31
0.0
  0
LINE
  5
B7F
330
1A
100
AcDbEntity
  8
GUIDE
100
AcDbLine
 10
27.723417
 20
498.0
 30
0.0
 11
30.723417
 21
501.0
 31
0.0
  0
LINE
  5
B80
330
1A
100
AcDbEntity
  8
GUIDE
100
AcDbLine
 10
30.723417
 20
422.0
 30
0.0
 11
27.723417
 21
425.0
 31
0.0
  0
LINE
  5
B81
330
1A
100
AcDbEntity
  8
GUIDE
100
AcDbLine
 10
24.723417
 20
422.0
 30
0.0
 11
27.723417
 21
419.0
 31
0.0
  0
LINE
  5
B82
330
1A
100
AcDbEntity
  8
GUIDE
100
AcDbLine
 10
51.723417
 20
425.76
 30
0.0
 11
59.223417
 21
425.76
 31
0.0
  0
LINE
  5
B83
330
1A
100
AcDbEntity
  8
GUIDE
100
AcDbLine
 10
51.723417
 20
433.28
 30
0.0
 11
59.223417
 21
433.28
 31
0.0
  0
LINE
  5
B84
330
1A
100
AcDbEntity
  8
GUIDE
100
AcDbLine
 10
51.723417
 20
452.08
 30
0.0
 11
59.223417
 21
452.08
 31
0.0
  0
LINE
  5
B85
330
1A
100
AcDbEntity
  8
GUIDE
100
AcDbLine
 10
51.723417
 20
459.6
 30
0.0
 11
59.223417
 21
459.6
 31
0.0
  0
LINE
  5
B86
330
1A
100
AcDbEntity
  8
GUIDE
100
AcDbLine
 10
51.723417
 20
478.4
 30
0.0
 11
59.223417
 21
478.4
 31
0.0
  0
LINE
  5
B87
330
1A
100
AcDbEntity
  8
GUIDE
100
AcDbLine
 10
51.723417
 20
485.92
 30
0.0
 11
59.223417
 21
485.92
 31
0.0
  0
LINE
  5
B88
330
1A
100
AcDbEntity
  8
GUIDE
100
AcDbLine
 10
59.223417
 20
459.6
 30
0.0
 11
59.223417
 21
452.08
 31
0.0
  0
LINE
  5
B89
330
1A
100
AcDbEntity
  8
GUIDE
100
AcDbLine
 10
59.223417
 20
433.28
 30
0.0
 11
59.223417
 21
425.76
 31
0.0
  0
LINE
  5
B8A
330
1A
100
AcDbEntity
  8
GUIDE
100
AcDbLine
 10
38.223417
 20
425.76
 30
0.0
 11
45.723417
 21
425.76
 31
0.0
  0
LINE
  5
B8B
330
1A
100
AcDbEntity
  8
GUIDE
100
AcDbLine
 10
38.223417
 20
433.28
 30
0.0
 11
45.723417
 21
433.28
 31
0.0
  0
LINE
  5
B8C
330
1A
100
AcDbEntity
  8
GUIDE
100
AcDbLine
 10
38.223417
 20
452.08
 30
0.0
 11
45.723417
 21
452.08
 31
0.0
  0
LINE
  5
B8D
330
1A
100
AcDbEntity
  8
GUIDE
100
AcDbLine
 10
38.223417
 20
459.6
 30
0.0
 11
45.723417
 21
459.6
 31
0.0
  0
LINE
  5
B8E
330
1A
100
AcDbEntity
  8
GUIDE
100
AcDbLine
 10
38.223417
 20
485.92
 30
0.0
 11
45.723417
 21
485.92
 31
0.0
  0
LINE
  5
B8F
330
1A
100
AcDbEntity
  8
GUIDE
100
AcDbLine
 10
38.223417
 20
478.4
 30
0.0
 11
45.723417
 21
478.4
 31
0.0
  0
LINE
  5
B90
330
1A
100
AcDbEntity
  8
GUIDE
100
AcDbLine
 10
51.723417
 20
422.0
 30
0.0
 11
51.723417
 21
437.08
 31
0.0
  0
LINE
  5
B91
330
1A
100
AcDbEntity
  8
GUIDE
100
AcDbLine
 10
45.723417
 20
422.0
 30
0.0
 11
45.723417
 21
437.08
 31
0.0
  0
LINE
  5
B92
330
1A
100
AcDbEntity
  8
GUIDE
100
AcDbLine
 10
59.223417
 20
497.24
 30
0.0
 11
59.223417
 21
489.72
 31
0.0
  0
LINE
  5
B93
330
1A
100
AcDbEntity
  8
GUIDE
100
AcDbLine
 10
38.223417
 20
497.24
 30
0.0
 11
38.223417
 21
489.72
 31
0.0
  0
LINE
  5
B94
330
1A
100
AcDbEntity
  8
GUIDE
100
AcDbLine
 10
59.223417
 20
497.24
 30
0.0
 11
38.223417
 21
497.24
 31
0.0
  0
LINE
  5
B95
330
1A
100
AcDbEntity
  8
GUIDE
100
AcDbLine
 10
59.223417
 20
489.72
 30
0.0
 11
38.223417
 21
489.72
 31
0.0
  0
LINE
  5
B96
330
1A
100
AcDbEntity
  8
GUIDE
100
AcDbLine
 10
51.723417
 20
474.68
 30
0.0
 11
45.723417
 21
474.68
 31
0.0
  0
LINE
  5
B97
330
1A
100
AcDbEntity
  8
GUIDE
100
AcDbLine
 10
51.723417
 20
448.36
 30
0.0
 11
45.723417
 21
448.36
 31
0.0
  0
LINE
  5
B98
330
1A
100
AcDbEntity
  8
GUIDE
100
AcDbLine
 10
59.223417
 20
463.4
 30
0.0
 11
38.223417
 21
463.4
 31
0.0
  0
LINE
  5
B99
330
1A
100
AcDbEntity
  8
GUIDE
100
AcDbLine
 10
59.223417
 20
470.92
 30
0.0
 11
38.223417
 21
470.92
 31
0.0
  0
LINE
  5
B9A
330
1A
100
AcDbEntity
  8
GUIDE
100
AcDbLine
 10
59.223417
 20
444.6
 30
0.0
 11
38.223417
 21
444.6
 31
0.0
  0
LINE
  5
B9B
330
1A
100
AcDbEntity
  8
GUIDE
100
AcDbLine
 10
59.223417
 20
437.08
 30
0.0
 11
38.223417
 21
437.08
 31
0.0
  0
LINE
  5
B9C
330
1A
100
AcDbEntity
  8
GUIDE
100
AcDbLine
 10
38.223417
 20
444.6
 30
0.0
 11
38.223417
 21
437.08
 31
0.0
  0
LINE
  5
B9D
330
1A
100
AcDbEntity
  8
GUIDE
100
AcDbLine
 10
38.223417
 20
470.92
 30
0.0
 11
38.223417
 21
463.4
 31
0.0
  0
LINE
  5
B9E
330
1A
100
AcDbEntity
  8
GUIDE
100
AcDbLine
 10
59.223417
 20
470.92
 30
0.0
 11
59.223417
 21
463.4
 31
0.0
  0
LINE
  5
B9F
330
1A
100
AcDbEntity
  8
GUIDE
100
AcDbLine
 10
59.223417
 20
444.6
 30
0.0
 11
59.223417
 21
437.08
 31
0.0
  0
LINE
  5
BA0
330
1A
100
AcDbEntity
  8
GUIDE
100
AcDbLine
 10
45.723417
 20
444.6
 30
0.0
 11
45.723417
 21
463.4
 31
0.0
  0
LINE
  5
BA1
330
1A
100
AcDbEntity
  8
GUIDE
100
AcDbLine
 10
51.723417
 20
444.6
 30
0.0
 11
51.723417
 21
463.4
 31
0.0
  0
LINE
  5
BA2
330
1A
100
AcDbEntity
  8
GUIDE
100
AcDbLine
 10
51.723417
 20
470.92
 30
0.0
 11
51.723417
 21
489.72
 31
0.0
  0
LINE
  5
BA3
330
1A
100
AcDbEntity
  8
GUIDE
100
AcDbLine
 10
45.723417
 20
470.92
 30
0.0
 11
45.723417
 21
489.72
 31
0.0
  0
LINE
  5
BA4
330
1A
100
AcDbEntity
  8
GUIDE
100
AcDbLine
 10
45.723417
 20
497.24
 30
0.0
 11
45.723417
 21
501.0
 31
0.0
  0
LINE
  5
BA5
330
1A
100
AcDbEntity
  8
GUIDE
100
AcDbLine
 10
51.723417
 20
497.24
 30
0.0
 11
51.723417
 21
501.0
 31
0.0
  0
LINE
  5
BA6
330
1A
100
AcDbEntity
  8
GUIDE
100
AcDbLine
 10
38.223417
 20
478.4
 30
0.0
 11
38.223417
 21
485.92
 31
0.0
  0
LINE
  5
BA7
330
1A
100
AcDbEntity
  8
GUIDE
100
AcDbLine
 10
38.223417
 20
452.08
 30
0.0
 11
38.223417
 21
459.6
 31
0.0
  0
LINE
  5
BA8
330
1A
100
AcDbEntity
  8
GUIDE
100
AcDbLine
 10
38.223417
 20
425.76
 30
0.0
 11
38.223417
 21
433.28
 31
0.0
  0
LINE
  5
BA9
330
1A
100
AcDbEntity
  8
GUIDE
100
AcDbLine
 10
59.223417
 20
485.92
 30
0.0
 11
59.223417
 21
478.4
 31
0.0
  0
LINE
  5
BAA
330
1A
100
AcDbEntity
  8
GUIDE
100
AcDbLine
 10
34.723417
 20
419.0
 30
0.0
 11
34.723417
 21
412.0
 31
0.0
  0
LINE
  5
BAB
330
1A
100
AcDbEntity
  8
GUIDE
100
AcDbLine
 10
45.723417
 20
422.0
 30
0.0
 11
45.723417
 21
419.0
 31
0.0
  0
LINE
  5
BAC
330
1A
100
AcDbEntity
  8
GUIDE
100
AcDbLine
 10
45.723417
 20
504.0
 30
0.0
 11
45.723417
 21
501.0
 31
0.0
  0
LINE
  5
BAD
330
1A
100
AcDbEntity
  8
GUIDE
100
AcDbLine
 10
45.723417
 20
419.0
 30
0.0
 11
27.723417
 21
419.0
 31
0.0
  0
LINE
  5
BAE
330
1A
100
AcDbEntity
  8
GUIDE
100
AcDbLine
 10
27.723417
 20
498.0
 30
0.0
 11
27.723417
 21
425.0
 31
0.0
  0
LINE
  5
BAF
330
1A
100
AcDbEntity
  8
GUIDE
100
AcDbLine
 10
45.723417
 20
504.0
 30
0.0
 11
27.723417
 21
504.0
 31
0.0
  0
LINE
  5
BB0
330
1A
100
AcDbEntity
  8
GUIDE
100
AcDbLine
 10
55.223417
 20
422.0
 30
0.0
 11
55.223417
 21
414.4
 31
0.0
  0
LINE
  5
BB1
330
1A
100
AcDbEntity
  8
GUIDE
100
AcDbLine
 10
55.223417
 20
508.6
 30
0.0
 11
55.223417
 21
501.0
 31
0.0
  0
LINE
  5
BB2
330
1A
100
AcDbEntity
  8
GUIDE
100
AcDbLine
 10
55.223417
 20
422.0
 30
0.0
 11
30.723417
 21
422.0
 31
0.0
  0
LINE
  5
BB3
330
1A
100
AcDbEntity
  8
GUIDE
100
AcDbLine
 10
55.223417
 20
501.0
 30
0.0
 11
30.723417
 21
501.0
 31
0.0
  0
LINE
  5
BB4
330
1A
100
AcDbEntity
  8
GUIDE
100
AcDbLine
 10
51.223417
 20
412.0
 30
0.0
 11
34.723417
 21
412.0
 31
0.0
  0
LINE
  5
BB5
330
1A
100
AcDbEntity
  8
GUIDE
100
AcDbLine
 10
51.223417
 20
511.0
 30
0.0
 11
34.723417
 21
511.0
 31
0.0
  0
LINE
  5
BB6
330
1A
100
AcDbEntity
  8
GUIDE
100
AcDbLine
 10
34.723417
 20
511.0
 30
0.0
 11
34.723417
 21
504.0
 31
0.0
  0
LINE
  5
BB7
330
1A
100
AcDbEntity
  8
GUIDE
100
AcDbLine
 10
24.723417
 20
501.0
 30
0.0
 11
24.723417
 21
422.0
 31
0.0
  0
POLYLINE
  5
BB8
330
1A
100
AcDbEntity
  8
GUIDE
100
AcDb2dPolyline
 66
     1
 10
0.0
 20
0.0
 30
0.0
  0
VERTEX
  5
C07
330
BB8
100
AcDbEntity
  8
GUIDE
100
AcDbVertex
100
AcDb2dVertex
 10
51.223417
 20
412.0
 30
0.0
  0
VERTEX
  5
C08
330
BB8
100
AcDbEntity
  8
GUIDE
100
AcDbVertex
100
AcDb2dVertex
 10
51.223417
 20
414.4
 30
0.0
  0
SEQEND
  5
C06
330
BB8
100
AcDbEntity
  8
GUIDE
  0
POLYLINE
  5
BBC
330
1A
100
AcDbEntity
  8
GUIDE
100
AcDb2dPolyline
 66
     1
 10
0.0
 20
0.0
 30
0.0
  0
VERTEX
  5
C0A
330
BBC
100
AcDbEntity
  8
GUIDE
100
AcDbVertex
100
AcDb2dVertex
 10
51.223417
 20
414.4
 30
0.0
  0
VERTEX
  5
C0B
330
BBC
100
AcDbEntity
  8
GUIDE
100
AcDbVertex
100
AcDb2dVertex
 10
55.223417
 20
414.4
 30
0.0
  0
SEQEND
  5
C09
330
BBC
100
AcDbEntity
  8
GUIDE
  0
POLYLINE
  5
BC0
330
1A
100
AcDbEntity
  8
GUIDE
100
AcDb2dPolyline
 66
     1
 10
0.0
 20
0.0
 30
0.0
  0
VERTEX
  5
C0D
330
BC0
100
AcDbEntity
  8
GUIDE
100
AcDbVertex
100
AcDb2dVertex
 10
55.223417
 20
508.6
 30
0.0
  0
VERTEX
  5
C0E
330
BC0
100
AcDbEntity
  8
GUIDE
100
AcDbVertex
100
AcDb2dVertex
 10
51.223417
 20
508.6
 30
0.0
  0
VERTEX
  5
C0F
330
BC0
100
AcDbEntity
  8
GUIDE
100
AcDbVertex
100
AcDb2dVertex
 10
51.223417
 20
511.0
 30
0.0
  0
SEQEND
  5
C0C
330
BC0
100
AcDbEntity
  8
GUIDE
  0
ENDSEC
  0
SECTION
  2
OBJECTS
  0
DICTIONARY
  5
C
330
0
100
AcDbDictionary
  3
ACAD_GROUP
350
D
  3
ACAD_LAYOUT
350
BC6
  3
ACAD_MLINESTYLE
350
E
1001
ACAD
1000
TREAT_AS_HARD
1070
     0
  0
DICTIONARY
  5
C10
330
BC5
100
AcDbDictionary
  3
ACAD_XREC_ROUNDTRIP
360
C11
  0
DICTIONARY
  5
D
102
{ACAD_REACTORS
330
C
102
}
330
C
100
AcDbDictionary
1001
ACAD
1000
TREAT_AS_HARD
1070
     0
  0
DICTIONARY
  5
BC6
102
{ACAD_REACTORS
330
C
102
}
330
C
100
AcDbDictionary
1001
ACAD
1000
TREAT_AS_HARD
1070
     0
  0
DICTIONARY
  5
E
102
{ACAD_REACTORS
330
C
102
}
330
C
100
AcDbDictionary
  3
STANDARD
350
13
1001
ACAD
1000
TREAT_AS_HARD
1070
     0
  0
XRECORD
  5
C11
102
{ACAD_REACTORS
330
C10
102
}
330
C10
100
AcDbXrecord
102
UCS
 74
     0
 71
     1
 10
0.0
 20
0.0
 30
0.0
 10
1.0
 20
0.0
 30
0.0
 10
0.0
 20
1.0
 30
0.0
146
0.0
 79
     0
102
VIEW
281
     0
  0
MLINESTYLE
  5
13
102
{ACAD_REACTORS
330
E
102
}
330
E
100
AcDbMlineStyle
  2
STANDARD
 70
     0
  3

 62
     0
 51
90.0
 52
90.0
 71
     2
 49
0.5
 62
   256
  6
BYLAYER
 49
-0.5
 62
   256
  6
BYLAYER
  0
ENDSEC
  0
EOF
