  0
SECTION
  2
HEADER
  9
$ACADVER
  1
AC1014
  9
$ACADMAINTVER
 70
     9
  9
$DWGCODEPAGE
  3
ANSI_1252
  9
$INSBASE
 10
0.0
 20
0.0
 30
0.0
  9
$EXTMIN
 10
-2658.0
 20
-80.5
 30
0.0
  9
$EXTMAX
 10
557.384945
 20
50.0
 30
0.0
  9
$LIMMIN
 10
0.0
 20
0.0
  9
$LIMMAX
 10
12.0
 20
9.0
  9
$ORTHOMODE
 70
     1
  9
$REGENMODE
 70
     1
  9
$FILLMODE
 70
     1
  9
$QTEXTMODE
 70
     0
  9
$MIRRTEXT
 70
     1
  9
$DRAGMODE
 70
     2
  9
$LTSCALE
 40
1.0
  9
$OSMODE
 70
    37
  9
$ATTMODE
 70
     1
  9
$TEXTSIZE
 40
0.2
  9
$TRACEWID
 40
0.05
  9
$TEXTSTYLE
  7
STANDARD
  9
$CLAYER
  8
0
  9
$CELTYPE
  6
BYLAYER
  9
$CECOLOR
 62
   256
  9
$CELTSCALE
 40
1.0
  9
$DELOBJ
 70
     1
  9
$DISPSILH
 70
     0
  9
$DIMSCALE
 40
1.0
  9
$DIMASZ
 40
0.18
  9
$DIMEXO
 40
0.0625
  9
$DIMDLI
 40
0.38
  9
$DIMRND
 40
0.0
  9
$DIMDLE
 40
0.0
  9
$DIMEXE
 40
0.18
  9
$DIMTP
 40
0.0
  9
$DIMTM
 40
0.0
  9
$DIMTXT
 40
0.18
  9
$DIMCEN
 40
0.09
  9
$DIMTSZ
 40
0.0
  9
$DIMTOL
 70
     0
  9
$DIMLIM
 70
     0
  9
$DIMTIH
 70
     1
  9
$DIMTOH
 70
     1
  9
$DIMSE1
 70
     0
  9
$DIMSE2
 70
     0
  9
$DIMTAD
 70
     0
  9
$DIMZIN
 70
     0
  9
$DIMBLK
  1

  9
$DIMASO
 70
     1
  9
$DIMSHO
 70
     1
  9
$DIMPOST
  1

  9
$DIMAPOST
  1

  9
$DIMALT
 70
     0
  9
$DIMALTD
 70
     2
  9
$DIMALTF
 40
25.4
  9
$DIMLFAC
 40
1.0
  9
$DIMTOFL
 70
     0
  9
$DIMTVP
 40
0.0
  9
$DIMTIX
 70
     0
  9
$DIMSOXD
 70
     0
  9
$DIMSAH
 70
     0
  9
$DIMBLK1
  1

  9
$DIMBLK2
  1

  9
$DIMSTYLE
  2
STANDARD
  9
$DIMCLRD
 70
     0
  9
$DIMCLRE
 70
     0
  9
$DIMCLRT
 70
     0
  9
$DIMTFAC
 40
1.0
  9
$DIMGAP
 40
0.09
  9
$DIMJUST
 70
     0
  9
$DIMSD1
 70
     0
  9
$DIMSD2
 70
     0
  9
$DIMTOLJ
 70
     1
  9
$DIMTZIN
 70
     0
  9
$DIMALTZ
 70
     0
  9
$DIMALTTZ
 70
     0
  9
$DIMFIT
 70
     3
  9
$DIMUPT
 70
     0
  9
$DIMUNIT
 70
     2
  9
$DIMDEC
 70
     4
  9
$DIMTDEC
 70
     4
  9
$DIMALTU
 70
     2
  9
$DIMALTTD
 70
     2
  9
$DIMTXSTY
  7
STANDARD
  9
$DIMAUNIT
 70
     0
  9
$LUNITS
 70
     2
  9
$LUPREC
 70
     4
  9
$SKETCHINC
 40
0.1
  9
$FILLETRAD
 40
0.0
  9
$AUNITS
 70
     0
  9
$AUPREC
 70
     0
  9
$MENU
  1
acad
  9
$ELEVATION
 40
0.0
  9
$PELEVATION
 40
0.0
  9
$THICKNESS
 40
0.0
  9
$LIMCHECK
 70
     0
  9
$CHAMFERA
 40
0.0
  9
$CHAMFERB
 40
0.0
  9
$CHAMFERC
 40
0.0
  9
$CHAMFERD
 40
0.0
  9
$SKPOLY
 70
     0
  9
$TDCREATE
 40
2453594.773146088
  9
$TDUPDATE
 40
2453594.773254236
  9
$TDINDWG
 40
0.0022745833
  9
$TDUSRTIMER
 40
0.0022745833
  9
$USRTIMER
 70
     1
  9
$ANGBASE
 50
0.0
  9
$ANGDIR
 70
     0
  9
$PDMODE
 70
     0
  9
$PDSIZE
 40
0.0
  9
$PLINEWID
 40
0.0
  9
$COORDS
 70
     1
  9
$SPLFRAME
 70
     0
  9
$SPLINETYPE
 70
     6
  9
$SPLINESEGS
 70
     8
  9
$ATTDIA
 70
     0
  9
$ATTREQ
 70
     1
  9
$HANDLING
 70
     1
  9
$HANDSEED
  5
DAB
  9
$SURFTAB1
 70
     6
  9
$SURFTAB2
 70
     6
  9
$SURFTYPE
 70
     6
  9
$SURFU
 70
     6
  9
$SURFV
 70
     6
  9
$UCSNAME
  2

  9
$UCSORG
 10
0.0
 20
0.0
 30
0.0
  9
$UCSXDIR
 10
1.0
 20
0.0
 30
0.0
  9
$UCSYDIR
 10
0.0
 20
1.0
 30
0.0
  9
$PUCSNAME
  2

  9
$PUCSORG
 10
0.0
 20
0.0
 30
0.0
  9
$PUCSXDIR
 10
1.0
 20
0.0
 30
0.0
  9
$PUCSYDIR
 10
0.0
 20
1.0
 30
0.0
  9
$USERI1
 70
     0
  9
$USERI2
 70
     0
  9
$USERI3
 70
     0
  9
$USERI4
 70
     0
  9
$USERI5
 70
     0
  9
$USERR1
 40
0.0
  9
$USERR2
 40
0.0
  9
$USERR3
 40
0.0
  9
$USERR4
 40
0.0
  9
$USERR5
 40
0.0
  9
$WORLDVIEW
 70
     1
  9
$SHADEDGE
 70
     3
  9
$SHADEDIF
 70
    70
  9
$TILEMODE
 70
     1
  9
$MAXACTVP
 70
    16
  9
$PINSBASE
 10
0.0
 20
0.0
 30
0.0
  9
$PLIMCHECK
 70
     0
  9
$PEXTMIN
 10
1.000000000000000E+20
 20
1.000000000000000E+20
 30
1.000000000000000E+20
  9
$PEXTMAX
 10
-1.000000000000000E+20
 20
-1.000000000000000E+20
 30
-1.000000000000000E+20
  9
$PLIMMIN
 10
0.0
 20
0.0
  9
$PLIMMAX
 10
12.0
 20
9.0
  9
$UNITMODE
 70
     0
  9
$VISRETAIN
 70
     0
  9
$PLINEGEN
 70
     0
  9
$PSLTSCALE
 70
     1
  9
$TREEDEPTH
 70
  3020
  9
$PICKSTYLE
 70
     1
  9
$CMLSTYLE
  2
STANDARD
  9
$CMLJUST
 70
     0
  9
$CMLSCALE
 40
1.0
  9
$PROXYGRAPHICS
 70
     1
  9
$MEASUREMENT
 70
     0
  0
ENDSEC
  0
SECTION
  2
CLASSES
  0
CLASS
  1
XRECORD
  2
AcDbXrecord
  3
AutoCAD 2000
 90
        0
280
     0
281
     0
  0
CLASS
  1
LWPOLYLINE
  2
AcDbPolyline
  3
AutoCAD 2000
 90
        0
280
     0
281
     1
  0
CLASS
  1
HATCH
  2
AcDbHatch
  3
AutoCAD 2000
 90
        0
280
     0
281
     1
  0
CLASS
  1
ACDBPLACEHOLDER
  2
AcDbPlaceHolder
  3
ObjectDBX Classes
 90
        0
280
     0
281
     0
  0
CLASS
  1
LAYOUT
  2
AcDbLayout
  3
ObjectDBX Classes
 90
        0
280
     0
281
     0
  0
ENDSEC
  0
SECTION
  2
TABLES
  0
TABLE
  2
VPORT
  5
8
330
0
100
AcDbSymbolTable
 70
     2
  0
VPORT
  5
D89
102
{ACAD_XDICTIONARY
360
DA9
102
}
330
8
100
AcDbSymbolTableRecord
100
AcDbViewportTableRecord
  2
*ACTIVE
 70
     0
 10
0.0
 20
0.0
 11
1.0
 21
1.0
 12
-1050.307528000001
 22
838.9261306144251
 13
0.0
 23
0.0
 14
1.0
 24
1.0
 15
0.0
 25
0.0
 16
0.0
 26
0.0
 36
1.0
 17
0.0
 27
0.0
 37
0.0
 40
1838.85226122885
 41
1.748582230623819
 42
50.0
 43
0.0
 44
0.0
 50
0.0
 51
0.0
 71
     0
 72
   100
 73
     1
 74
     1
 75
     0
 76
     0
 77
     0
 78
     0
  0
ENDTAB
  0
TABLE
  2
LTYPE
  5
5
330
0
100
AcDbSymbolTable
 70
     1
  0
LTYPE
  5
14
330
5
100
AcDbSymbolTableRecord
100
AcDbLinetypeTableRecord
  2
BYBLOCK
 70
     0
  3

 72
    65
 73
     0
 40
0.0
  0
LTYPE
  5
15
330
5
100
AcDbSymbolTableRecord
100
AcDbLinetypeTableRecord
  2
BYLAYER
 70
     0
  3

 72
    65
 73
     0
 40
0.0
  0
LTYPE
  5
16
330
5
100
AcDbSymbolTableRecord
100
AcDbLinetypeTableRecord
  2
CONTINUOUS
 70
     0
  3
Solid line
 72
    65
 73
     0
 40
0.0
  0
ENDTAB
  0
TABLE
  2
LAYER
  5
2
330
0
100
AcDbSymbolTable
 70
     2
  0
LAYER
  5
F
330
2
100
AcDbSymbolTableRecord
100
AcDbLayerTableRecord
  2
0
 70
     0
 62
     7
  6
CONTINUOUS
  0
LAYER
  5
28
330
2
100
AcDbSymbolTableRecord
100
AcDbLayerTableRecord
  2
GUIDE
 70
     0
 62
     7
  6
CONTINUOUS
  0
ENDTAB
  0
TABLE
  2
STYLE
  5
3
330
0
100
AcDbSymbolTable
 70
     1
  0
STYLE
  5
10
330
3
100
AcDbSymbolTableRecord
100
AcDbTextStyleTableRecord
  2
STANDARD
 70
     0
 40
0.0
 41
1.0
 50
0.0
 71
     0
 42
0.2
  3
txt
  4

  0
ENDTAB
  0
TABLE
  2
VIEW
  5
6
330
0
100
AcDbSymbolTable
 70
     0
  0
ENDTAB
  0
TABLE
  2
UCS
  5
7
330
0
100
AcDbSymbolTable
 70
     0
  0
ENDTAB
  0
TABLE
  2
APPID
  5
9
330
0
100
AcDbSymbolTable
 70
     1
  0
APPID
  5
11
330
9
100
AcDbSymbolTableRecord
100
AcDbRegAppTableRecord
  2
ACAD
 70
     0
  0
ENDTAB
  0
TABLE
  2
DIMSTYLE
  5
A
330
0
100
AcDbSymbolTable
 70
     1
  0
DIMSTYLE
105
1D
330
A
100
AcDbSymbolTableRecord
100
AcDbDimStyleTableRecord
  2
STANDARD
 70
     0
  3

  4

  5

  6

  7

 40
1.0
 41
0.18
 42
0.0625
 43
0.38
 44
0.18
 45
0.0
 46
0.0
 47
0.0
 48
0.0
140
0.18
141
0.09
142
0.0
143
25.4
144
1.0
145
0.0
146
1.0
147
0.09
 71
     0
 72
     0
 73
     1
 74
     1
 75
     0
 76
     0
 77
     0
 78
     0
170
     0
171
     2
172
     0
173
     0
174
     0
175
     0
176
     0
177
     0
178
     0
270
     2
271
     4
272
     4
273
     2
274
     2
340
10
275
     0
280
     0
281
     0
282
     0
283
     1
284
     0
285
     0
286
     0
287
     3
288
     0
  0
ENDTAB
  0
TABLE
  2
BLOCK_RECORD
  5
1
330
0
100
AcDbSymbolTable
 70
     0
  0
BLOCK_RECORD
  5
1A
330
1
100
AcDbSymbolTableRecord
100
AcDbBlockTableRecord
  2
*MODEL_SPACE
  0
BLOCK_RECORD
  5
17
330
1
100
AcDbSymbolTableRecord
100
AcDbBlockTableRecord
  2
*PAPER_SPACE
  0
ENDTAB
  0
ENDSEC
  0
SECTION
  2
BLOCKS
  0
BLOCK
  5
1B
330
1A
100
AcDbEntity
  8
0
100
AcDbBlockBegin
  2
*MODEL_SPACE
 70
     0
 71
     0
 10
0.0
 20
0.0
 30
0.0
  3
*MODEL_SPACE
  1

  0
ENDBLK
  5
1C
330
1A
100
AcDbEntity
  8
0
100
AcDbBlockEnd
  0
BLOCK
  5
18
330
17
100
AcDbEntity
 67
     1
  8
0
100
AcDbBlockBegin
  2
*PAPER_SPACE
 70
     0
 71
     0
 10
0.0
 20
0.0
 30
0.0
  3
*PAPER_SPACE
  1

  0
ENDBLK
  5
19
330
17
100
AcDbEntity
 67
     1
  8
0
100
AcDbBlockEnd
  0
ENDSEC
  0
SECTION
  2
ENTITIES
  0
ARC
  5
6C5
330
1A
100
AcDbEntity
  8
GUIDE
100
AcDbCircle
 10
467.5
 20
39.5
 30
0.0
 40
10.5
100
AcDbArc
 50
38.24662
 51
141.75338
  0
ARC
  5
6C6
330
1A
100
AcDbEntity
  8
GUIDE
100
AcDbCircle
 10
450.0
 20
39.5
 30
0.0
 40
10.5
100
AcDbArc
 50
38.24662
 51
141.75338
  0
ARC
  5
6C7
330
1A
100
AcDbEntity
  8
GUIDE
100
AcDbCircle
 10
432.5
 20
39.5
 30
0.0
 40
10.5
100
AcDbArc
 50
38.24662
 51
141.75338
  0
ARC
  5
6C8
330
1A
100
AcDbEntity
  8
GUIDE
100
AcDbCircle
 10
415.0
 20
39.5
 30
0.0
 40
10.5
100
AcDbArc
 50
38.24662
 51
141.75338
  0
ARC
  5
6C9
330
1A
100
AcDbEntity
  8
GUIDE
100
AcDbCircle
 10
397.5
 20
39.5
 30
0.0
 40
10.5
100
AcDbArc
 50
38.24662
 51
141.75338
  0
ARC
  5
6CA
330
1A
100
AcDbEntity
  8
GUIDE
100
AcDbCircle
 10
380.0
 20
39.5
 30
0.0
 40
10.5
100
AcDbArc
 50
38.24662
 51
141.75338
  0
ARC
  5
6CB
330
1A
100
AcDbEntity
  8
GUIDE
100
AcDbCircle
 10
362.5
 20
39.5
 30
0.0
 40
10.5
100
AcDbArc
 50
38.24662
 51
141.75338
  0
ARC
  5
6CC
330
1A
100
AcDbEntity
  8
GUIDE
100
AcDbCircle
 10
345.0
 20
39.5
 30
0.0
 40
10.5
100
AcDbArc
 50
38.24662
 51
141.75338
  0
ARC
  5
6CD
330
1A
100
AcDbEntity
  8
GUIDE
100
AcDbCircle
 10
327.5
 20
39.5
 30
0.0
 40
10.5
100
AcDbArc
 50
38.24662
 51
141.75338
  0
ARC
  5
6CE
330
1A
100
AcDbEntity
  8
GUIDE
100
AcDbCircle
 10
310.0
 20
39.5
 30
0.0
 40
10.5
100
AcDbArc
 50
38.24662
 51
141.75338
  0
ARC
  5
6CF
330
1A
100
AcDbEntity
  8
GUIDE
100
AcDbCircle
 10
292.5
 20
39.5
 30
0.0
 40
10.5
100
AcDbArc
 50
38.24662
 51
141.75338
  0
ARC
  5
6D0
330
1A
100
AcDbEntity
  8
GUIDE
100
AcDbCircle
 10
275.0
 20
39.5
 30
0.0
 40
10.5
100
AcDbArc
 50
38.24662
 51
141.75338
  0
ARC
  5
6D1
330
1A
100
AcDbEntity
  8
GUIDE
100
AcDbCircle
 10
257.5
 20
39.5
 30
0.0
 40
10.5
100
AcDbArc
 50
38.24662
 51
141.75338
  0
ARC
  5
6D2
330
1A
100
AcDbEntity
  8
GUIDE
100
AcDbCircle
 10
240.0
 20
39.5
 30
0.0
 40
10.5
100
AcDbArc
 50
38.24662
 51
141.75338
  0
ARC
  5
6D3
330
1A
100
AcDbEntity
  8
GUIDE
100
AcDbCircle
 10
222.5
 20
39.5
 30
0.0
 40
10.5
100
AcDbArc
 50
38.24662
 51
141.75338
  0
ARC
  5
6D4
330
1A
100
AcDbEntity
  8
GUIDE
100
AcDbCircle
 10
205.0
 20
39.5
 30
0.0
 40
10.5
100
AcDbArc
 50
38.24662
 51
141.75338
  0
ARC
  5
6D5
330
1A
100
AcDbEntity
  8
GUIDE
100
AcDbCircle
 10
187.5
 20
39.5
 30
0.0
 40
10.5
100
AcDbArc
 50
38.24662
 51
141.75338
  0
ARC
  5
6D6
330
1A
100
AcDbEntity
  8
GUIDE
100
AcDbCircle
 10
170.0
 20
39.5
 30
0.0
 40
10.5
100
AcDbArc
 50
38.24662
 51
141.75338
  0
ARC
  5
6D7
330
1A
100
AcDbEntity
  8
GUIDE
100
AcDbCircle
 10
152.5
 20
39.5
 30
0.0
 40
10.5
100
AcDbArc
 50
38.24662
 51
141.75338
  0
ARC
  5
6D8
330
1A
100
AcDbEntity
  8
GUIDE
100
AcDbCircle
 10
135.0
 20
39.5
 30
0.0
 40
10.5
100
AcDbArc
 50
38.24662
 51
141.75338
  0
ARC
  5
6D9
330
1A
100
AcDbEntity
  8
GUIDE
100
AcDbCircle
 10
117.5
 20
39.5
 30
0.0
 40
10.5
100
AcDbArc
 50
38.24662
 51
141.75338
  0
ARC
  5
6DA
330
1A
100
AcDbEntity
  8
GUIDE
100
AcDbCircle
 10
100.0
 20
39.5
 30
0.0
 40
10.5
100
AcDbArc
 50
38.24662
 51
141.75338
  0
ARC
  5
6DB
330
1A
100
AcDbEntity
  8
GUIDE
100
AcDbCircle
 10
82.5
 20
39.5
 30
0.0
 40
10.5
100
AcDbArc
 50
38.24662
 51
141.75338
  0
ARC
  5
6DC
330
1A
100
AcDbEntity
  8
GUIDE
100
AcDbCircle
 10
65.0
 20
39.5
 30
0.0
 40
10.5
100
AcDbArc
 50
38.24662
 51
141.75338
  0
ARC
  5
6DD
330
1A
100
AcDbEntity
  8
GUIDE
100
AcDbCircle
 10
47.5
 20
39.5
 30
0.0
 40
10.5
100
AcDbArc
 50
38.24662
 51
141.75338
  0
ARC
  5
6DE
330
1A
100
AcDbEntity
  8
GUIDE
100
AcDbCircle
 10
30.0
 20
39.5
 30
0.0
 40
10.5
100
AcDbArc
 50
38.24662
 51
141.75338
  0
ARC
  5
6DF
330
1A
100
AcDbEntity
  8
GUIDE
100
AcDbCircle
 10
12.5
 20
39.5
 30
0.0
 40
10.5
100
AcDbArc
 50
38.24662
 51
141.75338
  0
ARC
  5
6E0
330
1A
100
AcDbEntity
  8
GUIDE
100
AcDbCircle
 10
-5.0
 20
39.5
 30
0.0
 40
10.5
100
AcDbArc
 50
38.24662
 51
141.75338
  0
ARC
  5
6E1
330
1A
100
AcDbEntity
  8
GUIDE
100
AcDbCircle
 10
-22.5
 20
39.5
 30
0.0
 40
10.5
100
AcDbArc
 50
38.24662
 51
141.75338
  0
ARC
  5
6E2
330
1A
100
AcDbEntity
  8
GUIDE
100
AcDbCircle
 10
-40.0
 20
39.5
 30
0.0
 40
10.5
100
AcDbArc
 50
38.24662
 51
141.75338
  0
ARC
  5
6E3
330
1A
100
AcDbEntity
  8
GUIDE
100
AcDbCircle
 10
-57.5
 20
39.5
 30
0.0
 40
10.5
100
AcDbArc
 50
38.24662
 51
141.75338
  0
ARC
  5
6E4
330
1A
100
AcDbEntity
  8
GUIDE
100
AcDbCircle
 10
-75.0
 20
39.5
 30
0.0
 40
10.5
100
AcDbArc
 50
38.24662
 51
141.75338
  0
ARC
  5
6E5
330
1A
100
AcDbEntity
  8
GUIDE
100
AcDbCircle
 10
-92.5
 20
39.5
 30
0.0
 40
10.5
100
AcDbArc
 50
38.24662
 51
141.75338
  0
ARC
  5
6E6
330
1A
100
AcDbEntity
  8
GUIDE
100
AcDbCircle
 10
-110.0
 20
39.5
 30
0.0
 40
10.5
100
AcDbArc
 50
38.24662
 51
141.75338
  0
ARC
  5
6E7
330
1A
100
AcDbEntity
  8
GUIDE
100
AcDbCircle
 10
-127.5
 20
39.5
 30
0.0
 40
10.5
100
AcDbArc
 50
38.24662
 51
141.75338
  0
ARC
  5
6E8
330
1A
100
AcDbEntity
  8
GUIDE
100
AcDbCircle
 10
-145.0
 20
39.5
 30
0.0
 40
10.5
100
AcDbArc
 50
38.24662
 51
141.75338
  0
ARC
  5
6E9
330
1A
100
AcDbEntity
  8
GUIDE
100
AcDbCircle
 10
-162.5
 20
39.5
 30
0.0
 40
10.5
100
AcDbArc
 50
38.24662
 51
141.75338
  0
ARC
  5
6EA
330
1A
100
AcDbEntity
  8
GUIDE
100
AcDbCircle
 10
-180.0
 20
39.5
 30
0.0
 40
10.5
100
AcDbArc
 50
38.24662
 51
141.75338
  0
ARC
  5
6EB
330
1A
100
AcDbEntity
  8
GUIDE
100
AcDbCircle
 10
-197.5
 20
39.5
 30
0.0
 40
10.5
100
AcDbArc
 50
38.24662
 51
141.75338
  0
ARC
  5
6EC
330
1A
100
AcDbEntity
  8
GUIDE
100
AcDbCircle
 10
-215.0
 20
39.5
 30
0.0
 40
10.5
100
AcDbArc
 50
38.24662
 51
141.75338
  0
ARC
  5
6ED
330
1A
100
AcDbEntity
  8
GUIDE
100
AcDbCircle
 10
-232.5
 20
39.5
 30
0.0
 40
10.5
100
AcDbArc
 50
38.24662
 51
141.75338
  0
ARC
  5
6EE
330
1A
100
AcDbEntity
  8
GUIDE
100
AcDbCircle
 10
-250.0
 20
39.5
 30
0.0
 40
10.5
100
AcDbArc
 50
38.24662
 51
141.75338
  0
ARC
  5
6EF
330
1A
100
AcDbEntity
  8
GUIDE
100
AcDbCircle
 10
-267.5
 20
39.5
 30
0.0
 40
10.5
100
AcDbArc
 50
38.24662
 51
141.75338
  0
ARC
  5
6F0
330
1A
100
AcDbEntity
  8
GUIDE
100
AcDbCircle
 10
-285.0
 20
39.5
 30
0.0
 40
10.5
100
AcDbArc
 50
38.24662
 51
141.75338
  0
ARC
  5
6F1
330
1A
100
AcDbEntity
  8
GUIDE
100
AcDbCircle
 10
-302.5
 20
39.5
 30
0.0
 40
10.5
100
AcDbArc
 50
38.24662
 51
141.75338
  0
ARC
  5
6F2
330
1A
100
AcDbEntity
  8
GUIDE
100
AcDbCircle
 10
-320.0
 20
39.5
 30
0.0
 40
10.5
100
AcDbArc
 50
38.24662
 51
141.75338
  0
ARC
  5
6F3
330
1A
100
AcDbEntity
  8
GUIDE
100
AcDbCircle
 10
-337.5
 20
39.5
 30
0.0
 40
10.5
100
AcDbArc
 50
38.24662
 51
141.75338
  0
ARC
  5
6F4
330
1A
100
AcDbEntity
  8
GUIDE
100
AcDbCircle
 10
-355.0
 20
39.5
 30
0.0
 40
10.5
100
AcDbArc
 50
38.24662
 51
141.75338
  0
ARC
  5
6F5
330
1A
100
AcDbEntity
  8
GUIDE
100
AcDbCircle
 10
-372.5
 20
39.5
 30
0.0
 40
10.5
100
AcDbArc
 50
38.24662
 51
141.75338
  0
ARC
  5
6F6
330
1A
100
AcDbEntity
  8
GUIDE
100
AcDbCircle
 10
-390.0
 20
39.5
 30
0.0
 40
10.5
100
AcDbArc
 50
38.24662
 51
141.75338
  0
ARC
  5
6F7
330
1A
100
AcDbEntity
  8
GUIDE
100
AcDbCircle
 10
-407.5
 20
39.5
 30
0.0
 40
10.5
100
AcDbArc
 50
38.24662
 51
141.75338
  0
ARC
  5
6F8
330
1A
100
AcDbEntity
  8
GUIDE
100
AcDbCircle
 10
-425.0
 20
39.5
 30
0.0
 40
10.5
100
AcDbArc
 50
38.24662
 51
141.75338
  0
ARC
  5
6F9
330
1A
100
AcDbEntity
  8
GUIDE
100
AcDbCircle
 10
-442.5
 20
39.5
 30
0.0
 40
10.5
100
AcDbArc
 50
38.24662
 51
141.75338
  0
ARC
  5
6FA
330
1A
100
AcDbEntity
  8
GUIDE
100
AcDbCircle
 10
-460.0
 20
39.5
 30
0.0
 40
10.5
100
AcDbArc
 50
38.24662
 51
141.75338
  0
ARC
  5
6FB
330
1A
100
AcDbEntity
  8
GUIDE
100
AcDbCircle
 10
-477.5
 20
39.5
 30
0.0
 40
10.5
100
AcDbArc
 50
38.24662
 51
141.75338
  0
ARC
  5
6FC
330
1A
100
AcDbEntity
  8
GUIDE
100
AcDbCircle
 10
-495.0
 20
39.5
 30
0.0
 40
10.5
100
AcDbArc
 50
38.24662
 51
141.75338
  0
ARC
  5
6FD
330
1A
100
AcDbEntity
  8
GUIDE
100
AcDbCircle
 10
-512.5
 20
39.5
 30
0.0
 40
10.5
100
AcDbArc
 50
38.24662
 51
141.75338
  0
ARC
  5
6FE
330
1A
100
AcDbEntity
  8
GUIDE
100
AcDbCircle
 10
-530.0
 20
39.5
 30
0.0
 40
10.5
100
AcDbArc
 50
38.24662
 51
141.75338
  0
ARC
  5
6FF
330
1A
100
AcDbEntity
  8
GUIDE
100
AcDbCircle
 10
-547.5
 20
39.5
 30
0.0
 40
10.5
100
AcDbArc
 50
38.24662
 51
141.75338
  0
ARC
  5
700
330
1A
100
AcDbEntity
  8
GUIDE
100
AcDbCircle
 10
-565.0
 20
39.5
 30
0.0
 40
10.5
100
AcDbArc
 50
38.24662
 51
141.75338
  0
LINE
  5
701
330
1A
100
AcDbEntity
  8
GUIDE
100
AcDbLine
 10
483.0
 20
15.5
 30
0.0
 11
483.0
 21
46.0
 31
0.0
  0
ARC
  5
702
330
1A
100
AcDbEntity
  8
GUIDE
100
AcDbCircle
 10
-582.5
 20
39.5
 30
0.0
 40
10.5
100
AcDbArc
 50
38.24662
 51
141.75338
  0
ARC
  5
703
330
1A
100
AcDbEntity
  8
GUIDE
100
AcDbCircle
 10
-600.0
 20
39.5
 30
0.0
 40
10.5
100
AcDbArc
 50
38.24662
 51
141.75338
  0
ARC
  5
704
330
1A
100
AcDbEntity
  8
GUIDE
100
AcDbCircle
 10
-617.5
 20
39.5
 30
0.0
 40
10.5
100
AcDbArc
 50
38.24662
 51
141.75338
  0
ARC
  5
705
330
1A
100
AcDbEntity
  8
GUIDE
100
AcDbCircle
 10
-635.0
 20
39.5
 30
0.0
 40
10.5
100
AcDbArc
 50
38.24662
 51
141.75338
  0
ARC
  5
706
330
1A
100
AcDbEntity
  8
GUIDE
100
AcDbCircle
 10
-652.5
 20
39.5
 30
0.0
 40
10.5
100
AcDbArc
 50
38.24662
 51
141.75338
  0
ARC
  5
707
330
1A
100
AcDbEntity
  8
GUIDE
100
AcDbCircle
 10
-670.0
 20
39.5
 30
0.0
 40
10.5
100
AcDbArc
 50
38.24662
 51
141.75338
  0
ARC
  5
708
330
1A
100
AcDbEntity
  8
GUIDE
100
AcDbCircle
 10
-687.5
 20
39.5
 30
0.0
 40
10.5
100
AcDbArc
 50
38.24662
 51
141.75338
  0
ARC
  5
709
330
1A
100
AcDbEntity
  8
GUIDE
100
AcDbCircle
 10
-705.0
 20
39.5
 30
0.0
 40
10.5
100
AcDbArc
 50
38.24662
 51
141.75338
  0
ARC
  5
70A
330
1A
100
AcDbEntity
  8
GUIDE
100
AcDbCircle
 10
-722.5
 20
39.5
 30
0.0
 40
10.5
100
AcDbArc
 50
38.24662
 51
141.75338
  0
ARC
  5
70B
330
1A
100
AcDbEntity
  8
GUIDE
100
AcDbCircle
 10
-740.0
 20
39.5
 30
0.0
 40
10.5
100
AcDbArc
 50
38.24662
 51
141.75338
  0
ARC
  5
70C
330
1A
100
AcDbEntity
  8
GUIDE
100
AcDbCircle
 10
-757.5
 20
39.5
 30
0.0
 40
10.5
100
AcDbArc
 50
38.24662
 51
141.75338
  0
ARC
  5
70D
330
1A
100
AcDbEntity
  8
GUIDE
100
AcDbCircle
 10
-775.0
 20
39.5
 30
0.0
 40
10.5
100
AcDbArc
 50
38.24662
 51
141.75338
  0
ARC
  5
70E
330
1A
100
AcDbEntity
  8
GUIDE
100
AcDbCircle
 10
-792.5
 20
39.5
 30
0.0
 40
10.5
100
AcDbArc
 50
38.24662
 51
141.75338
  0
ARC
  5
70F
330
1A
100
AcDbEntity
  8
GUIDE
100
AcDbCircle
 10
-810.0
 20
39.5
 30
0.0
 40
10.5
100
AcDbArc
 50
38.24662
 51
141.75338
  0
ARC
  5
710
330
1A
100
AcDbEntity
  8
GUIDE
100
AcDbCircle
 10
-827.5
 20
39.5
 30
0.0
 40
10.5
100
AcDbArc
 50
38.24662
 51
141.75338
  0
ARC
  5
711
330
1A
100
AcDbEntity
  8
GUIDE
100
AcDbCircle
 10
-845.0
 20
39.5
 30
0.0
 40
10.5
100
AcDbArc
 50
38.24662
 51
141.75338
  0
ARC
  5
712
330
1A
100
AcDbEntity
  8
GUIDE
100
AcDbCircle
 10
-862.5
 20
39.5
 30
0.0
 40
10.5
100
AcDbArc
 50
38.24662
 51
141.75338
  0
ARC
  5
713
330
1A
100
AcDbEntity
  8
GUIDE
100
AcDbCircle
 10
-880.0
 20
39.5
 30
0.0
 40
10.5
100
AcDbArc
 50
38.24662
 51
141.75338
  0
ARC
  5
714
330
1A
100
AcDbEntity
  8
GUIDE
100
AcDbCircle
 10
-897.5
 20
39.5
 30
0.0
 40
10.5
100
AcDbArc
 50
38.24662
 51
141.75338
  0
ARC
  5
715
330
1A
100
AcDbEntity
  8
GUIDE
100
AcDbCircle
 10
-915.0
 20
39.5
 30
0.0
 40
10.5
100
AcDbArc
 50
38.24662
 51
141.75338
  0
ARC
  5
716
330
1A
100
AcDbEntity
  8
GUIDE
100
AcDbCircle
 10
-932.5
 20
39.5
 30
0.0
 40
10.5
100
AcDbArc
 50
38.24662
 51
141.75338
  0
ARC
  5
717
330
1A
100
AcDbEntity
  8
GUIDE
100
AcDbCircle
 10
-950.0
 20
39.5
 30
0.0
 40
10.5
100
AcDbArc
 50
38.24662
 51
141.75338
  0
ARC
  5
718
330
1A
100
AcDbEntity
  8
GUIDE
100
AcDbCircle
 10
-967.5
 20
39.5
 30
0.0
 40
10.5
100
AcDbArc
 50
38.24662
 51
141.75338
  0
ARC
  5
719
330
1A
100
AcDbEntity
  8
GUIDE
100
AcDbCircle
 10
-985.0
 20
39.5
 30
0.0
 40
10.5
100
AcDbArc
 50
38.24662
 51
141.75338
  0
ARC
  5
71A
330
1A
100
AcDbEntity
  8
GUIDE
100
AcDbCircle
 10
-1002.5
 20
39.5
 30
0.0
 40
10.5
100
AcDbArc
 50
38.24662
 51
141.75338
  0
ARC
  5
71B
330
1A
100
AcDbEntity
  8
GUIDE
100
AcDbCircle
 10
-1020.0
 20
39.5
 30
0.0
 40
10.5
100
AcDbArc
 50
38.24662
 51
141.75338
  0
ARC
  5
71C
330
1A
100
AcDbEntity
  8
GUIDE
100
AcDbCircle
 10
-1037.5
 20
39.5
 30
0.0
 40
10.5
100
AcDbArc
 50
38.24662
 51
141.75338
  0
ARC
  5
71D
330
1A
100
AcDbEntity
  8
GUIDE
100
AcDbCircle
 10
-1055.0
 20
39.5
 30
0.0
 40
10.5
100
AcDbArc
 50
38.24662
 51
141.75338
  0
ARC
  5
71E
330
1A
100
AcDbEntity
  8
GUIDE
100
AcDbCircle
 10
-1072.5
 20
39.5
 30
0.0
 40
10.5
100
AcDbArc
 50
38.24662
 51
141.75338
  0
ARC
  5
71F
330
1A
100
AcDbEntity
  8
GUIDE
100
AcDbCircle
 10
-1090.0
 20
39.5
 30
0.0
 40
10.5
100
AcDbArc
 50
38.24662
 51
141.75338
  0
ARC
  5
720
330
1A
100
AcDbEntity
  8
GUIDE
100
AcDbCircle
 10
-1107.5
 20
39.5
 30
0.0
 40
10.5
100
AcDbArc
 50
38.24662
 51
141.75338
  0
ARC
  5
721
330
1A
100
AcDbEntity
  8
GUIDE
100
AcDbCircle
 10
-1125.0
 20
39.5
 30
0.0
 40
10.5
100
AcDbArc
 50
38.24662
 51
141.75338
  0
ARC
  5
722
330
1A
100
AcDbEntity
  8
GUIDE
100
AcDbCircle
 10
-1142.5
 20
39.5
 30
0.0
 40
10.5
100
AcDbArc
 50
38.24662
 51
141.75338
  0
ARC
  5
723
330
1A
100
AcDbEntity
  8
GUIDE
100
AcDbCircle
 10
-1160.0
 20
39.5
 30
0.0
 40
10.5
100
AcDbArc
 50
38.24662
 51
141.75338
  0
ARC
  5
724
330
1A
100
AcDbEntity
  8
GUIDE
100
AcDbCircle
 10
-1177.5
 20
39.5
 30
0.0
 40
10.5
100
AcDbArc
 50
38.24662
 51
141.75338
  0
ARC
  5
725
330
1A
100
AcDbEntity
  8
GUIDE
100
AcDbCircle
 10
-1195.0
 20
39.5
 30
0.0
 40
10.5
100
AcDbArc
 50
38.24662
 51
141.75338
  0
ARC
  5
726
330
1A
100
AcDbEntity
  8
GUIDE
100
AcDbCircle
 10
-1212.5
 20
39.5
 30
0.0
 40
10.5
100
AcDbArc
 50
38.24662
 51
141.75338
  0
ARC
  5
727
330
1A
100
AcDbEntity
  8
GUIDE
100
AcDbCircle
 10
-1230.0
 20
39.5
 30
0.0
 40
10.5
100
AcDbArc
 50
38.24662
 51
141.75338
  0
ARC
  5
728
330
1A
100
AcDbEntity
  8
GUIDE
100
AcDbCircle
 10
-1247.5
 20
39.5
 30
0.0
 40
10.5
100
AcDbArc
 50
38.24662
 51
141.75338
  0
ARC
  5
729
330
1A
100
AcDbEntity
  8
GUIDE
100
AcDbCircle
 10
-1265.0
 20
39.5
 30
0.0
 40
10.5
100
AcDbArc
 50
38.24662
 51
141.75338
  0
ARC
  5
72A
330
1A
100
AcDbEntity
  8
GUIDE
100
AcDbCircle
 10
-1282.5
 20
39.5
 30
0.0
 40
10.5
100
AcDbArc
 50
38.24662
 51
141.75338
  0
ARC
  5
72B
330
1A
100
AcDbEntity
  8
GUIDE
100
AcDbCircle
 10
-1300.0
 20
39.5
 30
0.0
 40
10.5
100
AcDbArc
 50
38.24662
 51
141.75338
  0
ARC
  5
72C
330
1A
100
AcDbEntity
  8
GUIDE
100
AcDbCircle
 10
-1317.5
 20
39.5
 30
0.0
 40
10.5
100
AcDbArc
 50
38.24662
 51
141.75338
  0
ARC
  5
72D
330
1A
100
AcDbEntity
  8
GUIDE
100
AcDbCircle
 10
-1335.0
 20
39.5
 30
0.0
 40
10.5
100
AcDbArc
 50
38.24662
 51
141.75338
  0
ARC
  5
72E
330
1A
100
AcDbEntity
  8
GUIDE
100
AcDbCircle
 10
-1352.5
 20
39.5
 30
0.0
 40
10.5
100
AcDbArc
 50
38.24662
 51
141.75338
  0
ARC
  5
72F
330
1A
100
AcDbEntity
  8
GUIDE
100
AcDbCircle
 10
-1370.0
 20
39.5
 30
0.0
 40
10.5
100
AcDbArc
 50
38.24662
 51
141.75338
  0
ARC
  5
730
330
1A
100
AcDbEntity
  8
GUIDE
100
AcDbCircle
 10
-1387.5
 20
39.5
 30
0.0
 40
10.5
100
AcDbArc
 50
38.24662
 51
141.75338
  0
ARC
  5
731
330
1A
100
AcDbEntity
  8
GUIDE
100
AcDbCircle
 10
-1405.0
 20
39.5
 30
0.0
 40
10.5
100
AcDbArc
 50
38.24662
 51
141.75338
  0
ARC
  5
732
330
1A
100
AcDbEntity
  8
GUIDE
100
AcDbCircle
 10
-1422.5
 20
39.5
 30
0.0
 40
10.5
100
AcDbArc
 50
38.24662
 51
141.75338
  0
ARC
  5
733
330
1A
100
AcDbEntity
  8
GUIDE
100
AcDbCircle
 10
-1440.0
 20
39.5
 30
0.0
 40
10.5
100
AcDbArc
 50
38.24662
 51
141.75338
  0
ARC
  5
734
330
1A
100
AcDbEntity
  8
GUIDE
100
AcDbCircle
 10
-1457.5
 20
39.5
 30
0.0
 40
10.5
100
AcDbArc
 50
38.24662
 51
141.75338
  0
ARC
  5
735
330
1A
100
AcDbEntity
  8
GUIDE
100
AcDbCircle
 10
-1475.0
 20
39.5
 30
0.0
 40
10.5
100
AcDbArc
 50
38.24662
 51
141.75338
  0
ARC
  5
736
330
1A
100
AcDbEntity
  8
GUIDE
100
AcDbCircle
 10
-1492.5
 20
39.5
 30
0.0
 40
10.5
100
AcDbArc
 50
38.24662
 51
141.75338
  0
ARC
  5
737
330
1A
100
AcDbEntity
  8
GUIDE
100
AcDbCircle
 10
-1510.0
 20
39.5
 30
0.0
 40
10.5
100
AcDbArc
 50
38.24662
 51
141.75338
  0
ARC
  5
738
330
1A
100
AcDbEntity
  8
GUIDE
100
AcDbCircle
 10
-1527.5
 20
39.5
 30
0.0
 40
10.5
100
AcDbArc
 50
38.24662
 51
141.75338
  0
ARC
  5
739
330
1A
100
AcDbEntity
  8
GUIDE
100
AcDbCircle
 10
-1545.0
 20
39.5
 30
0.0
 40
10.5
100
AcDbArc
 50
38.24662
 51
141.75338
  0
ARC
  5
73A
330
1A
100
AcDbEntity
  8
GUIDE
100
AcDbCircle
 10
-1562.5
 20
39.5
 30
0.0
 40
10.5
100
AcDbArc
 50
38.24662
 51
141.75338
  0
ARC
  5
73B
330
1A
100
AcDbEntity
  8
GUIDE
100
AcDbCircle
 10
-1580.0
 20
39.5
 30
0.0
 40
10.5
100
AcDbArc
 50
38.24662
 51
141.75338
  0
ARC
  5
73C
330
1A
100
AcDbEntity
  8
GUIDE
100
AcDbCircle
 10
-1597.5
 20
39.5
 30
0.0
 40
10.5
100
AcDbArc
 50
38.24662
 51
141.75338
  0
ARC
  5
73D
330
1A
100
AcDbEntity
  8
GUIDE
100
AcDbCircle
 10
-1615.0
 20
39.5
 30
0.0
 40
10.5
100
AcDbArc
 50
38.24662
 51
141.75338
  0
ARC
  5
73E
330
1A
100
AcDbEntity
  8
GUIDE
100
AcDbCircle
 10
-1650.0
 20
39.5
 30
0.0
 40
10.5
100
AcDbArc
 50
38.24662
 51
141.75338
  0
ARC
  5
73F
330
1A
100
AcDbEntity
  8
GUIDE
100
AcDbCircle
 10
-1632.5
 20
39.5
 30
0.0
 40
10.5
100
AcDbArc
 50
38.24662
 51
141.75338
  0
ARC
  5
740
330
1A
100
AcDbEntity
  8
GUIDE
100
AcDbCircle
 10
-1685.0
 20
39.5
 30
0.0
 40
10.5
100
AcDbArc
 50
38.24662
 51
141.75338
  0
ARC
  5
741
330
1A
100
AcDbEntity
  8
GUIDE
100
AcDbCircle
 10
-1667.5
 20
39.5
 30
0.0
 40
10.5
100
AcDbArc
 50
38.24662
 51
141.75338
  0
ARC
  5
742
330
1A
100
AcDbEntity
  8
GUIDE
100
AcDbCircle
 10
-1720.0
 20
39.5
 30
0.0
 40
10.5
100
AcDbArc
 50
38.24662
 51
141.75338
  0
ARC
  5
743
330
1A
100
AcDbEntity
  8
GUIDE
100
AcDbCircle
 10
-1702.5
 20
39.5
 30
0.0
 40
10.5
100
AcDbArc
 50
38.24662
 51
141.75338
  0
ARC
  5
744
330
1A
100
AcDbEntity
  8
GUIDE
100
AcDbCircle
 10
-1755.0
 20
39.5
 30
0.0
 40
10.5
100
AcDbArc
 50
38.24662
 51
141.75338
  0
ARC
  5
745
330
1A
100
AcDbEntity
  8
GUIDE
100
AcDbCircle
 10
-1737.5
 20
39.5
 30
0.0
 40
10.5
100
AcDbArc
 50
38.24662
 51
141.75338
  0
ARC
  5
746
330
1A
100
AcDbEntity
  8
GUIDE
100
AcDbCircle
 10
-1790.0
 20
39.5
 30
0.0
 40
10.5
100
AcDbArc
 50
38.24662
 51
141.75338
  0
ARC
  5
747
330
1A
100
AcDbEntity
  8
GUIDE
100
AcDbCircle
 10
-1772.5
 20
39.5
 30
0.0
 40
10.5
100
AcDbArc
 50
38.24662
 51
141.75338
  0
ARC
  5
748
330
1A
100
AcDbEntity
  8
GUIDE
100
AcDbCircle
 10
-1825.0
 20
39.5
 30
0.0
 40
10.5
100
AcDbArc
 50
38.24662
 51
141.75338
  0
ARC
  5
749
330
1A
100
AcDbEntity
  8
GUIDE
100
AcDbCircle
 10
-1807.5
 20
39.5
 30
0.0
 40
10.5
100
AcDbArc
 50
38.24662
 51
141.75338
  0
ARC
  5
74A
330
1A
100
AcDbEntity
  8
GUIDE
100
AcDbCircle
 10
-1860.0
 20
39.5
 30
0.0
 40
10.5
100
AcDbArc
 50
38.24662
 51
141.75338
  0
ARC
  5
74B
330
1A
100
AcDbEntity
  8
GUIDE
100
AcDbCircle
 10
-1842.5
 20
39.5
 30
0.0
 40
10.5
100
AcDbArc
 50
38.24662
 51
141.75338
  0
ARC
  5
74C
330
1A
100
AcDbEntity
  8
GUIDE
100
AcDbCircle
 10
-1895.0
 20
39.5
 30
0.0
 40
10.5
100
AcDbArc
 50
38.24662
 51
141.75338
  0
ARC
  5
74D
330
1A
100
AcDbEntity
  8
GUIDE
100
AcDbCircle
 10
-1877.5
 20
39.5
 30
0.0
 40
10.5
100
AcDbArc
 50
38.24662
 51
141.75338
  0
ARC
  5
74E
330
1A
100
AcDbEntity
  8
GUIDE
100
AcDbCircle
 10
-1930.0
 20
39.5
 30
0.0
 40
10.5
100
AcDbArc
 50
38.24662
 51
141.75338
  0
ARC
  5
74F
330
1A
100
AcDbEntity
  8
GUIDE
100
AcDbCircle
 10
-1912.5
 20
39.5
 30
0.0
 40
10.5
100
AcDbArc
 50
38.24662
 51
141.75338
  0
ARC
  5
750
330
1A
100
AcDbEntity
  8
GUIDE
100
AcDbCircle
 10
-1965.0
 20
39.5
 30
0.0
 40
10.5
100
AcDbArc
 50
38.24662
 51
141.75338
  0
ARC
  5
751
330
1A
100
AcDbEntity
  8
GUIDE
100
AcDbCircle
 10
-1947.5
 20
39.5
 30
0.0
 40
10.5
100
AcDbArc
 50
38.24662
 51
141.75338
  0
ARC
  5
752
330
1A
100
AcDbEntity
  8
GUIDE
100
AcDbCircle
 10
-2000.0
 20
39.5
 30
0.0
 40
10.5
100
AcDbArc
 50
38.24662
 51
141.75338
  0
ARC
  5
753
330
1A
100
AcDbEntity
  8
GUIDE
100
AcDbCircle
 10
-1982.5
 20
39.5
 30
0.0
 40
10.5
100
AcDbArc
 50
38.24662
 51
141.75338
  0
ARC
  5
754
330
1A
100
AcDbEntity
  8
GUIDE
100
AcDbCircle
 10
-2035.0
 20
39.5
 30
0.0
 40
10.5
100
AcDbArc
 50
38.24662
 51
141.75338
  0
ARC
  5
755
330
1A
100
AcDbEntity
  8
GUIDE
100
AcDbCircle
 10
-2017.5
 20
39.5
 30
0.0
 40
10.5
100
AcDbArc
 50
38.24662
 51
141.75338
  0
ARC
  5
756
330
1A
100
AcDbEntity
  8
GUIDE
100
AcDbCircle
 10
-2070.0
 20
39.5
 30
0.0
 40
10.5
100
AcDbArc
 50
38.24662
 51
141.75338
  0
ARC
  5
757
330
1A
100
AcDbEntity
  8
GUIDE
100
AcDbCircle
 10
-2052.5
 20
39.5
 30
0.0
 40
10.5
100
AcDbArc
 50
38.24662
 51
141.75338
  0
ARC
  5
758
330
1A
100
AcDbEntity
  8
GUIDE
100
AcDbCircle
 10
-2105.0
 20
39.5
 30
0.0
 40
10.5
100
AcDbArc
 50
38.24662
 51
141.75338
  0
ARC
  5
759
330
1A
100
AcDbEntity
  8
GUIDE
100
AcDbCircle
 10
-2087.5
 20
39.5
 30
0.0
 40
10.5
100
AcDbArc
 50
38.24662
 51
141.75338
  0
ARC
  5
75A
330
1A
100
AcDbEntity
  8
GUIDE
100
AcDbCircle
 10
-2140.0
 20
39.5
 30
0.0
 40
10.5
100
AcDbArc
 50
38.24662
 51
141.75338
  0
ARC
  5
75B
330
1A
100
AcDbEntity
  8
GUIDE
100
AcDbCircle
 10
-2122.5
 20
39.5
 30
0.0
 40
10.5
100
AcDbArc
 50
38.24662
 51
141.75338
  0
ARC
  5
75C
330
1A
100
AcDbEntity
  8
GUIDE
100
AcDbCircle
 10
-2175.0
 20
39.5
 30
0.0
 40
10.5
100
AcDbArc
 50
38.24662
 51
141.75338
  0
ARC
  5
75D
330
1A
100
AcDbEntity
  8
GUIDE
100
AcDbCircle
 10
-2157.5
 20
39.5
 30
0.0
 40
10.5
100
AcDbArc
 50
38.24662
 51
141.75338
  0
ARC
  5
75E
330
1A
100
AcDbEntity
  8
GUIDE
100
AcDbCircle
 10
-2210.0
 20
39.5
 30
0.0
 40
10.5
100
AcDbArc
 50
38.24662
 51
141.75338
  0
ARC
  5
75F
330
1A
100
AcDbEntity
  8
GUIDE
100
AcDbCircle
 10
-2192.5
 20
39.5
 30
0.0
 40
10.5
100
AcDbArc
 50
38.24662
 51
141.75338
  0
ARC
  5
760
330
1A
100
AcDbEntity
  8
GUIDE
100
AcDbCircle
 10
-2245.0
 20
39.5
 30
0.0
 40
10.5
100
AcDbArc
 50
38.24662
 51
141.75338
  0
ARC
  5
761
330
1A
100
AcDbEntity
  8
GUIDE
100
AcDbCircle
 10
-2227.5
 20
39.5
 30
0.0
 40
10.5
100
AcDbArc
 50
38.24662
 51
141.75338
  0
ARC
  5
762
330
1A
100
AcDbEntity
  8
GUIDE
100
AcDbCircle
 10
-2280.0
 20
39.5
 30
0.0
 40
10.5
100
AcDbArc
 50
38.24662
 51
141.75338
  0
ARC
  5
763
330
1A
100
AcDbEntity
  8
GUIDE
100
AcDbCircle
 10
-2262.5
 20
39.5
 30
0.0
 40
10.5
100
AcDbArc
 50
38.24662
 51
141.75338
  0
ARC
  5
764
330
1A
100
AcDbEntity
  8
GUIDE
100
AcDbCircle
 10
-2315.0
 20
39.5
 30
0.0
 40
10.5
100
AcDbArc
 50
38.24662
 51
141.75338
  0
ARC
  5
765
330
1A
100
AcDbEntity
  8
GUIDE
100
AcDbCircle
 10
-2297.5
 20
39.5
 30
0.0
 40
10.5
100
AcDbArc
 50
38.24662
 51
141.75338
  0
ARC
  5
766
330
1A
100
AcDbEntity
  8
GUIDE
100
AcDbCircle
 10
-2350.0
 20
39.5
 30
0.0
 40
10.5
100
AcDbArc
 50
38.24662
 51
141.75338
  0
ARC
  5
767
330
1A
100
AcDbEntity
  8
GUIDE
100
AcDbCircle
 10
-2332.5
 20
39.5
 30
0.0
 40
10.5
100
AcDbArc
 50
38.24662
 51
141.75338
  0
ARC
  5
768
330
1A
100
AcDbEntity
  8
GUIDE
100
AcDbCircle
 10
-2385.0
 20
39.5
 30
0.0
 40
10.5
100
AcDbArc
 50
38.24662
 51
141.75338
  0
ARC
  5
769
330
1A
100
AcDbEntity
  8
GUIDE
100
AcDbCircle
 10
-2367.5
 20
39.5
 30
0.0
 40
10.5
100
AcDbArc
 50
38.24662
 51
141.75338
  0
ARC
  5
76A
330
1A
100
AcDbEntity
  8
GUIDE
100
AcDbCircle
 10
-2420.0
 20
39.5
 30
0.0
 40
10.5
100
AcDbArc
 50
38.24662
 51
141.75338
  0
ARC
  5
76B
330
1A
100
AcDbEntity
  8
GUIDE
100
AcDbCircle
 10
-2402.5
 20
39.5
 30
0.0
 40
10.5
100
AcDbArc
 50
38.24662
 51
141.75338
  0
ARC
  5
76C
330
1A
100
AcDbEntity
  8
GUIDE
100
AcDbCircle
 10
-2455.0
 20
39.5
 30
0.0
 40
10.5
100
AcDbArc
 50
38.24662
 51
141.75338
  0
ARC
  5
76D
330
1A
100
AcDbEntity
  8
GUIDE
100
AcDbCircle
 10
-2437.5
 20
39.5
 30
0.0
 40
10.5
100
AcDbArc
 50
38.24662
 51
141.75338
  0
ARC
  5
76E
330
1A
100
AcDbEntity
  8
GUIDE
100
AcDbCircle
 10
-2490.0
 20
39.5
 30
0.0
 40
10.5
100
AcDbArc
 50
38.24662
 51
141.75338
  0
ARC
  5
76F
330
1A
100
AcDbEntity
  8
GUIDE
100
AcDbCircle
 10
-2472.5
 20
39.5
 30
0.0
 40
10.5
100
AcDbArc
 50
38.24662
 51
141.75338
  0
ARC
  5
770
330
1A
100
AcDbEntity
  8
GUIDE
100
AcDbCircle
 10
-2525.0
 20
39.5
 30
0.0
 40
10.5
100
AcDbArc
 50
38.24662
 51
141.75338
  0
ARC
  5
771
330
1A
100
AcDbEntity
  8
GUIDE
100
AcDbCircle
 10
-2507.5
 20
39.5
 30
0.0
 40
10.5
100
AcDbArc
 50
38.24662
 51
141.75338
  0
ARC
  5
772
330
1A
100
AcDbEntity
  8
GUIDE
100
AcDbCircle
 10
-2560.0
 20
39.5
 30
0.0
 40
10.5
100
AcDbArc
 50
38.24662
 51
141.75338
  0
ARC
  5
773
330
1A
100
AcDbEntity
  8
GUIDE
100
AcDbCircle
 10
-2542.5
 20
39.5
 30
0.0
 40
10.5
100
AcDbArc
 50
38.24662
 51
141.75338
  0
ARC
  5
774
330
1A
100
AcDbEntity
  8
GUIDE
100
AcDbCircle
 10
-2595.0
 20
39.5
 30
0.0
 40
10.5
100
AcDbArc
 50
38.24662
 51
141.75338
  0
ARC
  5
775
330
1A
100
AcDbEntity
  8
GUIDE
100
AcDbCircle
 10
-2577.5
 20
39.5
 30
0.0
 40
10.5
100
AcDbArc
 50
38.24662
 51
141.75338
  0
LINE
  5
776
330
1A
100
AcDbEntity
  8
GUIDE
100
AcDbLine
 10
-2654.0
 20
15.5
 30
0.0
 11
483.0
 21
15.5
 31
0.0
  0
LINE
  5
777
330
1A
100
AcDbEntity
  8
GUIDE
100
AcDbLine
 10
-2654.0
 20
25.5
 30
0.0
 11
483.0
 21
25.5
 31
0.0
  0
LINE
  5
778
330
1A
100
AcDbEntity
  8
GUIDE
100
AcDbLine
 10
-2654.0
 20
46.0
 30
0.0
 11
483.0
 21
46.0
 31
0.0
  0
ARC
  5
779
330
1A
100
AcDbEntity
  8
GUIDE
100
AcDbCircle
 10
-2612.5
 20
39.5
 30
0.0
 40
10.5
100
AcDbArc
 50
38.24662
 51
141.75338
  0
ARC
  5
77A
330
1A
100
AcDbEntity
  8
GUIDE
100
AcDbCircle
 10
-2630.0
 20
39.5
 30
0.0
 40
10.5
100
AcDbArc
 50
38.24662
 51
141.75338
  0
ARC
  5
77B
330
1A
100
AcDbEntity
  8
GUIDE
100
AcDbCircle
 10
-2647.5
 20
39.5
 30
0.0
 40
10.5
100
AcDbArc
 50
38.24662
 51
231.75338
  0
LINE
  5
77C
330
1A
100
AcDbEntity
  8
GUIDE
100
AcDbLine
 10
-2654.0
 20
15.5
 30
0.0
 11
-2654.0
 21
46.0
 31
0.0
  0
LINE
  5
77D
330
1A
100
AcDbEntity
  8
GUIDE
100
AcDbLine
 10
457.0
 20
-67.09999999999999
 30
0.0
 11
457.0
 21
-59.58
 31
0.0
  0
LINE
  5
77E
330
1A
100
AcDbEntity
  8
GUIDE
100
AcDbLine
 10
478.0
 20
-67.09999999999999
 30
0.0
 11
457.0
 21
-67.09999999999999
 31
0.0
  0
LINE
  5
77F
330
1A
100
AcDbEntity
  8
GUIDE
100
AcDbLine
 10
478.0
 20
-59.58
 30
0.0
 11
457.0
 21
-59.58
 31
0.0
  0
LINE
  5
780
330
1A
100
AcDbEntity
  8
GUIDE
100
AcDbLine
 10
470.5
 20
-44.5
 30
0.0
 11
470.5
 21
-59.58
 31
0.0
  0
LINE
  5
781
330
1A
100
AcDbEntity
  8
GUIDE
100
AcDbLine
 10
464.5
 20
-44.5
 30
0.0
 11
464.5
 21
-59.58
 31
0.0
  0
LINE
  5
782
330
1A
100
AcDbEntity
  8
GUIDE
100
AcDbLine
 10
478.0
 20
-67.09999999999999
 30
0.0
 11
478.0
 21
-59.58
 31
0.0
  0
LINE
  5
783
330
1A
100
AcDbEntity
  8
GUIDE
100
AcDbLine
 10
464.5
 20
-67.09999999999999
 30
0.0
 11
464.5
 21
-70.5
 31
0.0
  0
LINE
  5
784
330
1A
100
AcDbEntity
  8
GUIDE
100
AcDbLine
 10
470.5
 20
-67.09999999999999
 30
0.0
 11
470.5
 21
-70.5
 31
0.0
  0
LINE
  5
785
330
1A
100
AcDbEntity
  8
GUIDE
100
AcDbLine
 10
422.0
 20
-67.09999999999999
 30
0.0
 11
422.0
 21
-59.58
 31
0.0
  0
LINE
  5
786
330
1A
100
AcDbEntity
  8
GUIDE
100
AcDbLine
 10
443.0
 20
-67.09999999999999
 30
0.0
 11
422.0
 21
-67.09999999999999
 31
0.0
  0
LINE
  5
787
330
1A
100
AcDbEntity
  8
GUIDE
100
AcDbLine
 10
443.0
 20
-59.58
 30
0.0
 11
422.0
 21
-59.58
 31
0.0
  0
LINE
  5
788
330
1A
100
AcDbEntity
  8
GUIDE
100
AcDbLine
 10
435.5
 20
-44.5
 30
0.0
 11
435.5
 21
-59.58
 31
0.0
  0
LINE
  5
789
330
1A
100
AcDbEntity
  8
GUIDE
100
AcDbLine
 10
429.5
 20
-44.5
 30
0.0
 11
429.5
 21
-59.58
 31
0.0
  0
LINE
  5
78A
330
1A
100
AcDbEntity
  8
GUIDE
100
AcDbLine
 10
443.0
 20
-67.09999999999999
 30
0.0
 11
443.0
 21
-59.58
 31
0.0
  0
LINE
  5
78B
330
1A
100
AcDbEntity
  8
GUIDE
100
AcDbLine
 10
429.5
 20
-67.09999999999999
 30
0.0
 11
429.5
 21
-70.5
 31
0.0
  0
LINE
  5
78C
330
1A
100
AcDbEntity
  8
GUIDE
100
AcDbLine
 10
435.5
 20
-67.09999999999999
 30
0.0
 11
435.5
 21
-70.5
 31
0.0
  0
LINE
  5
78D
330
1A
100
AcDbEntity
  8
GUIDE
100
AcDbLine
 10
453.0
 20
-48.26
 30
0.0
 11
453.0
 21
-44.5
 31
0.0
  0
LINE
  5
78E
330
1A
100
AcDbEntity
  8
GUIDE
100
AcDbLine
 10
447.0
 20
-48.26
 30
0.0
 11
447.0
 21
-44.5
 31
0.0
  0
LINE
  5
78F
330
1A
100
AcDbEntity
  8
GUIDE
100
AcDbLine
 10
447.0
 20
-70.5
 30
0.0
 11
447.0
 21
-55.78
 31
0.0
  0
LINE
  5
790
330
1A
100
AcDbEntity
  8
GUIDE
100
AcDbLine
 10
453.0
 20
-70.5
 30
0.0
 11
453.0
 21
-55.78
 31
0.0
  0
LINE
  5
791
330
1A
100
AcDbEntity
  8
GUIDE
100
AcDbLine
 10
460.5
 20
-55.78
 30
0.0
 11
439.5
 21
-55.78
 31
0.0
  0
LINE
  5
792
330
1A
100
AcDbEntity
  8
GUIDE
100
AcDbLine
 10
460.5
 20
-48.26
 30
0.0
 11
439.5
 21
-48.26
 31
0.0
  0
LINE
  5
793
330
1A
100
AcDbEntity
  8
GUIDE
100
AcDbLine
 10
439.5
 20
-48.26
 30
0.0
 11
439.5
 21
-55.78
 31
0.0
  0
LINE
  5
794
330
1A
100
AcDbEntity
  8
GUIDE
100
AcDbLine
 10
460.5
 20
-48.26
 30
0.0
 11
460.5
 21
-55.78
 31
0.0
  0
LINE
  5
795
330
1A
100
AcDbEntity
  8
GUIDE
100
AcDbLine
 10
387.0
 20
-67.09999999999999
 30
0.0
 11
387.0
 21
-59.58
 31
0.0
  0
LINE
  5
796
330
1A
100
AcDbEntity
  8
GUIDE
100
AcDbLine
 10
408.0
 20
-67.09999999999999
 30
0.0
 11
387.0
 21
-67.09999999999999
 31
0.0
  0
LINE
  5
797
330
1A
100
AcDbEntity
  8
GUIDE
100
AcDbLine
 10
408.0
 20
-59.58
 30
0.0
 11
387.0
 21
-59.58
 31
0.0
  0
LINE
  5
798
330
1A
100
AcDbEntity
  8
GUIDE
100
AcDbLine
 10
400.5
 20
-44.5
 30
0.0
 11
400.5
 21
-59.58
 31
0.0
  0
LINE
  5
799
330
1A
100
AcDbEntity
  8
GUIDE
100
AcDbLine
 10
394.5
 20
-44.5
 30
0.0
 11
394.5
 21
-59.58
 31
0.0
  0
LINE
  5
79A
330
1A
100
AcDbEntity
  8
GUIDE
100
AcDbLine
 10
408.0
 20
-67.09999999999999
 30
0.0
 11
408.0
 21
-59.58
 31
0.0
  0
LINE
  5
79B
330
1A
100
AcDbEntity
  8
GUIDE
100
AcDbLine
 10
394.5
 20
-67.09999999999999
 30
0.0
 11
394.5
 21
-70.5
 31
0.0
  0
LINE
  5
79C
330
1A
100
AcDbEntity
  8
GUIDE
100
AcDbLine
 10
400.5
 20
-67.09999999999999
 30
0.0
 11
400.5
 21
-70.5
 31
0.0
  0
LINE
  5
79D
330
1A
100
AcDbEntity
  8
GUIDE
100
AcDbLine
 10
418.0
 20
-48.26
 30
0.0
 11
418.0
 21
-44.5
 31
0.0
  0
LINE
  5
79E
330
1A
100
AcDbEntity
  8
GUIDE
100
AcDbLine
 10
412.0
 20
-48.26
 30
0.0
 11
412.0
 21
-44.5
 31
0.0
  0
LINE
  5
79F
330
1A
100
AcDbEntity
  8
GUIDE
100
AcDbLine
 10
412.0
 20
-70.5
 30
0.0
 11
412.0
 21
-55.78
 31
0.0
  0
LINE
  5
7A0
330
1A
100
AcDbEntity
  8
GUIDE
100
AcDbLine
 10
418.0
 20
-70.5
 30
0.0
 11
418.0
 21
-55.78
 31
0.0
  0
LINE
  5
7A1
330
1A
100
AcDbEntity
  8
GUIDE
100
AcDbLine
 10
425.5
 20
-55.78
 30
0.0
 11
404.5
 21
-55.78
 31
0.0
  0
LINE
  5
7A2
330
1A
100
AcDbEntity
  8
GUIDE
100
AcDbLine
 10
425.5
 20
-48.26
 30
0.0
 11
404.5
 21
-48.26
 31
0.0
  0
LINE
  5
7A3
330
1A
100
AcDbEntity
  8
GUIDE
100
AcDbLine
 10
404.5
 20
-48.26
 30
0.0
 11
404.5
 21
-55.78
 31
0.0
  0
LINE
  5
7A4
330
1A
100
AcDbEntity
  8
GUIDE
100
AcDbLine
 10
425.5
 20
-48.26
 30
0.0
 11
425.5
 21
-55.78
 31
0.0
  0
LINE
  5
7A5
330
1A
100
AcDbEntity
  8
GUIDE
100
AcDbLine
 10
352.0
 20
-67.09999999999999
 30
0.0
 11
352.0
 21
-59.58
 31
0.0
  0
LINE
  5
7A6
330
1A
100
AcDbEntity
  8
GUIDE
100
AcDbLine
 10
373.0
 20
-67.09999999999999
 30
0.0
 11
352.0
 21
-67.09999999999999
 31
0.0
  0
LINE
  5
7A7
330
1A
100
AcDbEntity
  8
GUIDE
100
AcDbLine
 10
373.0
 20
-59.58
 30
0.0
 11
352.0
 21
-59.58
 31
0.0
  0
LINE
  5
7A8
330
1A
100
AcDbEntity
  8
GUIDE
100
AcDbLine
 10
365.5
 20
-44.5
 30
0.0
 11
365.5
 21
-59.58
 31
0.0
  0
LINE
  5
7A9
330
1A
100
AcDbEntity
  8
GUIDE
100
AcDbLine
 10
359.5
 20
-44.5
 30
0.0
 11
359.5
 21
-59.58
 31
0.0
  0
LINE
  5
7AA
330
1A
100
AcDbEntity
  8
GUIDE
100
AcDbLine
 10
373.0
 20
-67.09999999999999
 30
0.0
 11
373.0
 21
-59.58
 31
0.0
  0
LINE
  5
7AB
330
1A
100
AcDbEntity
  8
GUIDE
100
AcDbLine
 10
359.5
 20
-67.09999999999999
 30
0.0
 11
359.5
 21
-70.5
 31
0.0
  0
LINE
  5
7AC
330
1A
100
AcDbEntity
  8
GUIDE
100
AcDbLine
 10
365.5
 20
-67.09999999999999
 30
0.0
 11
365.5
 21
-70.5
 31
0.0
  0
LINE
  5
7AD
330
1A
100
AcDbEntity
  8
GUIDE
100
AcDbLine
 10
383.0
 20
-48.26
 30
0.0
 11
383.0
 21
-44.5
 31
0.0
  0
LINE
  5
7AE
330
1A
100
AcDbEntity
  8
GUIDE
100
AcDbLine
 10
377.0
 20
-48.26
 30
0.0
 11
377.0
 21
-44.5
 31
0.0
  0
LINE
  5
7AF
330
1A
100
AcDbEntity
  8
GUIDE
100
AcDbLine
 10
377.0
 20
-70.5
 30
0.0
 11
377.0
 21
-55.78
 31
0.0
  0
LINE
  5
7B0
330
1A
100
AcDbEntity
  8
GUIDE
100
AcDbLine
 10
383.0
 20
-70.5
 30
0.0
 11
383.0
 21
-55.78
 31
0.0
  0
LINE
  5
7B1
330
1A
100
AcDbEntity
  8
GUIDE
100
AcDbLine
 10
390.5
 20
-55.78
 30
0.0
 11
369.5
 21
-55.78
 31
0.0
  0
LINE
  5
7B2
330
1A
100
AcDbEntity
  8
GUIDE
100
AcDbLine
 10
390.5
 20
-48.26
 30
0.0
 11
369.5
 21
-48.26
 31
0.0
  0
LINE
  5
7B3
330
1A
100
AcDbEntity
  8
GUIDE
100
AcDbLine
 10
369.5
 20
-48.26
 30
0.0
 11
369.5
 21
-55.78
 31
0.0
  0
LINE
  5
7B4
330
1A
100
AcDbEntity
  8
GUIDE
100
AcDbLine
 10
390.5
 20
-48.26
 30
0.0
 11
390.5
 21
-55.78
 31
0.0
  0
LINE
  5
7B5
330
1A
100
AcDbEntity
  8
GUIDE
100
AcDbLine
 10
317.0
 20
-67.09999999999999
 30
0.0
 11
317.0
 21
-59.58
 31
0.0
  0
LINE
  5
7B6
330
1A
100
AcDbEntity
  8
GUIDE
100
AcDbLine
 10
338.0
 20
-67.09999999999999
 30
0.0
 11
317.0
 21
-67.09999999999999
 31
0.0
  0
LINE
  5
7B7
330
1A
100
AcDbEntity
  8
GUIDE
100
AcDbLine
 10
338.0
 20
-59.58
 30
0.0
 11
317.0
 21
-59.58
 31
0.0
  0
LINE
  5
7B8
330
1A
100
AcDbEntity
  8
GUIDE
100
AcDbLine
 10
330.5
 20
-44.5
 30
0.0
 11
330.5
 21
-59.58
 31
0.0
  0
LINE
  5
7B9
330
1A
100
AcDbEntity
  8
GUIDE
100
AcDbLine
 10
324.5
 20
-44.5
 30
0.0
 11
324.5
 21
-59.58
 31
0.0
  0
LINE
  5
7BA
330
1A
100
AcDbEntity
  8
GUIDE
100
AcDbLine
 10
338.0
 20
-67.09999999999999
 30
0.0
 11
338.0
 21
-59.58
 31
0.0
  0
LINE
  5
7BB
330
1A
100
AcDbEntity
  8
GUIDE
100
AcDbLine
 10
324.5
 20
-67.09999999999999
 30
0.0
 11
324.5
 21
-70.5
 31
0.0
  0
LINE
  5
7BC
330
1A
100
AcDbEntity
  8
GUIDE
100
AcDbLine
 10
330.5
 20
-67.09999999999999
 30
0.0
 11
330.5
 21
-70.5
 31
0.0
  0
LINE
  5
7BD
330
1A
100
AcDbEntity
  8
GUIDE
100
AcDbLine
 10
348.0
 20
-48.26
 30
0.0
 11
348.0
 21
-44.5
 31
0.0
  0
LINE
  5
7BE
330
1A
100
AcDbEntity
  8
GUIDE
100
AcDbLine
 10
342.0
 20
-48.26
 30
0.0
 11
342.0
 21
-44.5
 31
0.0
  0
LINE
  5
7BF
330
1A
100
AcDbEntity
  8
GUIDE
100
AcDbLine
 10
342.0
 20
-70.5
 30
0.0
 11
342.0
 21
-55.78
 31
0.0
  0
LINE
  5
7C0
330
1A
100
AcDbEntity
  8
GUIDE
100
AcDbLine
 10
348.0
 20
-70.5
 30
0.0
 11
348.0
 21
-55.78
 31
0.0
  0
LINE
  5
7C1
330
1A
100
AcDbEntity
  8
GUIDE
100
AcDbLine
 10
355.5
 20
-55.78
 30
0.0
 11
334.5
 21
-55.78
 31
0.0
  0
LINE
  5
7C2
330
1A
100
AcDbEntity
  8
GUIDE
100
AcDbLine
 10
355.5
 20
-48.26
 30
0.0
 11
334.5
 21
-48.26
 31
0.0
  0
LINE
  5
7C3
330
1A
100
AcDbEntity
  8
GUIDE
100
AcDbLine
 10
334.5
 20
-48.26
 30
0.0
 11
334.5
 21
-55.78
 31
0.0
  0
LINE
  5
7C4
330
1A
100
AcDbEntity
  8
GUIDE
100
AcDbLine
 10
355.5
 20
-48.26
 30
0.0
 11
355.5
 21
-55.78
 31
0.0
  0
LINE
  5
7C5
330
1A
100
AcDbEntity
  8
GUIDE
100
AcDbLine
 10
282.0
 20
-67.09999999999999
 30
0.0
 11
282.0
 21
-59.58
 31
0.0
  0
LINE
  5
7C6
330
1A
100
AcDbEntity
  8
GUIDE
100
AcDbLine
 10
303.0
 20
-67.09999999999999
 30
0.0
 11
282.0
 21
-67.09999999999999
 31
0.0
  0
LINE
  5
7C7
330
1A
100
AcDbEntity
  8
GUIDE
100
AcDbLine
 10
303.0
 20
-59.58
 30
0.0
 11
282.0
 21
-59.58
 31
0.0
  0
LINE
  5
7C8
330
1A
100
AcDbEntity
  8
GUIDE
100
AcDbLine
 10
295.5
 20
-44.5
 30
0.0
 11
295.5
 21
-59.58
 31
0.0
  0
LINE
  5
7C9
330
1A
100
AcDbEntity
  8
GUIDE
100
AcDbLine
 10
289.5
 20
-44.5
 30
0.0
 11
289.5
 21
-59.58
 31
0.0
  0
LINE
  5
7CA
330
1A
100
AcDbEntity
  8
GUIDE
100
AcDbLine
 10
303.0
 20
-67.09999999999999
 30
0.0
 11
303.0
 21
-59.58
 31
0.0
  0
LINE
  5
7CB
330
1A
100
AcDbEntity
  8
GUIDE
100
AcDbLine
 10
289.5
 20
-67.09999999999999
 30
0.0
 11
289.5
 21
-70.5
 31
0.0
  0
LINE
  5
7CC
330
1A
100
AcDbEntity
  8
GUIDE
100
AcDbLine
 10
295.5
 20
-67.09999999999999
 30
0.0
 11
295.5
 21
-70.5
 31
0.0
  0
LINE
  5
7CD
330
1A
100
AcDbEntity
  8
GUIDE
100
AcDbLine
 10
313.0
 20
-48.26
 30
0.0
 11
313.0
 21
-44.5
 31
0.0
  0
LINE
  5
7CE
330
1A
100
AcDbEntity
  8
GUIDE
100
AcDbLine
 10
307.0
 20
-48.26
 30
0.0
 11
307.0
 21
-44.5
 31
0.0
  0
LINE
  5
7CF
330
1A
100
AcDbEntity
  8
GUIDE
100
AcDbLine
 10
307.0
 20
-70.5
 30
0.0
 11
307.0
 21
-55.78
 31
0.0
  0
LINE
  5
7D0
330
1A
100
AcDbEntity
  8
GUIDE
100
AcDbLine
 10
313.0
 20
-70.5
 30
0.0
 11
313.0
 21
-55.78
 31
0.0
  0
LINE
  5
7D1
330
1A
100
AcDbEntity
  8
GUIDE
100
AcDbLine
 10
320.5
 20
-55.78
 30
0.0
 11
299.5
 21
-55.78
 31
0.0
  0
LINE
  5
7D2
330
1A
100
AcDbEntity
  8
GUIDE
100
AcDbLine
 10
320.5
 20
-48.26
 30
0.0
 11
299.5
 21
-48.26
 31
0.0
  0
LINE
  5
7D3
330
1A
100
AcDbEntity
  8
GUIDE
100
AcDbLine
 10
299.5
 20
-48.26
 30
0.0
 11
299.5
 21
-55.78
 31
0.0
  0
LINE
  5
7D4
330
1A
100
AcDbEntity
  8
GUIDE
100
AcDbLine
 10
320.5
 20
-48.26
 30
0.0
 11
320.5
 21
-55.78
 31
0.0
  0
LINE
  5
7D5
330
1A
100
AcDbEntity
  8
GUIDE
100
AcDbLine
 10
247.0
 20
-67.09999999999999
 30
0.0
 11
247.0
 21
-59.58
 31
0.0
  0
LINE
  5
7D6
330
1A
100
AcDbEntity
  8
GUIDE
100
AcDbLine
 10
268.0
 20
-67.09999999999999
 30
0.0
 11
247.0
 21
-67.09999999999999
 31
0.0
  0
LINE
  5
7D7
330
1A
100
AcDbEntity
  8
GUIDE
100
AcDbLine
 10
268.0
 20
-59.58
 30
0.0
 11
247.0
 21
-59.58
 31
0.0
  0
LINE
  5
7D8
330
1A
100
AcDbEntity
  8
GUIDE
100
AcDbLine
 10
260.5
 20
-44.5
 30
0.0
 11
260.5
 21
-59.58
 31
0.0
  0
LINE
  5
7D9
330
1A
100
AcDbEntity
  8
GUIDE
100
AcDbLine
 10
254.5
 20
-44.5
 30
0.0
 11
254.5
 21
-59.58
 31
0.0
  0
LINE
  5
7DA
330
1A
100
AcDbEntity
  8
GUIDE
100
AcDbLine
 10
268.0
 20
-67.09999999999999
 30
0.0
 11
268.0
 21
-59.58
 31
0.0
  0
LINE
  5
7DB
330
1A
100
AcDbEntity
  8
GUIDE
100
AcDbLine
 10
254.5
 20
-67.09999999999999
 30
0.0
 11
254.5
 21
-70.5
 31
0.0
  0
LINE
  5
7DC
330
1A
100
AcDbEntity
  8
GUIDE
100
AcDbLine
 10
260.5
 20
-67.09999999999999
 30
0.0
 11
260.5
 21
-70.5
 31
0.0
  0
LINE
  5
7DD
330
1A
100
AcDbEntity
  8
GUIDE
100
AcDbLine
 10
278.0
 20
-48.26
 30
0.0
 11
278.0
 21
-44.5
 31
0.0
  0
LINE
  5
7DE
330
1A
100
AcDbEntity
  8
GUIDE
100
AcDbLine
 10
272.0
 20
-48.26
 30
0.0
 11
272.0
 21
-44.5
 31
0.0
  0
LINE
  5
7DF
330
1A
100
AcDbEntity
  8
GUIDE
100
AcDbLine
 10
272.0
 20
-70.5
 30
0.0
 11
272.0
 21
-55.78
 31
0.0
  0
LINE
  5
7E0
330
1A
100
AcDbEntity
  8
GUIDE
100
AcDbLine
 10
278.0
 20
-70.5
 30
0.0
 11
278.0
 21
-55.78
 31
0.0
  0
LINE
  5
7E1
330
1A
100
AcDbEntity
  8
GUIDE
100
AcDbLine
 10
285.5
 20
-55.78
 30
0.0
 11
264.5
 21
-55.78
 31
0.0
  0
LINE
  5
7E2
330
1A
100
AcDbEntity
  8
GUIDE
100
AcDbLine
 10
285.5
 20
-48.26
 30
0.0
 11
264.5
 21
-48.26
 31
0.0
  0
LINE
  5
7E3
330
1A
100
AcDbEntity
  8
GUIDE
100
AcDbLine
 10
264.5
 20
-48.26
 30
0.0
 11
264.5
 21
-55.78
 31
0.0
  0
LINE
  5
7E4
330
1A
100
AcDbEntity
  8
GUIDE
100
AcDbLine
 10
285.5
 20
-48.26
 30
0.0
 11
285.5
 21
-55.78
 31
0.0
  0
LINE
  5
7E5
330
1A
100
AcDbEntity
  8
GUIDE
100
AcDbLine
 10
212.0
 20
-67.09999999999999
 30
0.0
 11
212.0
 21
-59.58
 31
0.0
  0
LINE
  5
7E6
330
1A
100
AcDbEntity
  8
GUIDE
100
AcDbLine
 10
233.0
 20
-67.09999999999999
 30
0.0
 11
212.0
 21
-67.09999999999999
 31
0.0
  0
LINE
  5
7E7
330
1A
100
AcDbEntity
  8
GUIDE
100
AcDbLine
 10
233.0
 20
-59.58
 30
0.0
 11
212.0
 21
-59.58
 31
0.0
  0
LINE
  5
7E8
330
1A
100
AcDbEntity
  8
GUIDE
100
AcDbLine
 10
225.5
 20
-44.5
 30
0.0
 11
225.5
 21
-59.58
 31
0.0
  0
LINE
  5
7E9
330
1A
100
AcDbEntity
  8
GUIDE
100
AcDbLine
 10
219.5
 20
-44.5
 30
0.0
 11
219.5
 21
-59.58
 31
0.0
  0
LINE
  5
7EA
330
1A
100
AcDbEntity
  8
GUIDE
100
AcDbLine
 10
233.0
 20
-67.09999999999999
 30
0.0
 11
233.0
 21
-59.58
 31
0.0
  0
LINE
  5
7EB
330
1A
100
AcDbEntity
  8
GUIDE
100
AcDbLine
 10
219.5
 20
-67.09999999999999
 30
0.0
 11
219.5
 21
-70.5
 31
0.0
  0
LINE
  5
7EC
330
1A
100
AcDbEntity
  8
GUIDE
100
AcDbLine
 10
225.5
 20
-67.09999999999999
 30
0.0
 11
225.5
 21
-70.5
 31
0.0
  0
LINE
  5
7ED
330
1A
100
AcDbEntity
  8
GUIDE
100
AcDbLine
 10
243.0
 20
-48.26
 30
0.0
 11
243.0
 21
-44.5
 31
0.0
  0
LINE
  5
7EE
330
1A
100
AcDbEntity
  8
GUIDE
100
AcDbLine
 10
237.0
 20
-48.26
 30
0.0
 11
237.0
 21
-44.5
 31
0.0
  0
LINE
  5
7EF
330
1A
100
AcDbEntity
  8
GUIDE
100
AcDbLine
 10
237.0
 20
-70.5
 30
0.0
 11
237.0
 21
-55.78
 31
0.0
  0
LINE
  5
7F0
330
1A
100
AcDbEntity
  8
GUIDE
100
AcDbLine
 10
243.0
 20
-70.5
 30
0.0
 11
243.0
 21
-55.78
 31
0.0
  0
LINE
  5
7F1
330
1A
100
AcDbEntity
  8
GUIDE
100
AcDbLine
 10
250.5
 20
-55.78
 30
0.0
 11
229.5
 21
-55.78
 31
0.0
  0
LINE
  5
7F2
330
1A
100
AcDbEntity
  8
GUIDE
100
AcDbLine
 10
250.5
 20
-48.26
 30
0.0
 11
229.5
 21
-48.26
 31
0.0
  0
LINE
  5
7F3
330
1A
100
AcDbEntity
  8
GUIDE
100
AcDbLine
 10
229.5
 20
-48.26
 30
0.0
 11
229.5
 21
-55.78
 31
0.0
  0
LINE
  5
7F4
330
1A
100
AcDbEntity
  8
GUIDE
100
AcDbLine
 10
250.5
 20
-48.26
 30
0.0
 11
250.5
 21
-55.78
 31
0.0
  0
LINE
  5
7F5
330
1A
100
AcDbEntity
  8
GUIDE
100
AcDbLine
 10
177.0
 20
-67.09999999999999
 30
0.0
 11
177.0
 21
-59.58
 31
0.0
  0
LINE
  5
7F6
330
1A
100
AcDbEntity
  8
GUIDE
100
AcDbLine
 10
198.0
 20
-67.09999999999999
 30
0.0
 11
177.0
 21
-67.09999999999999
 31
0.0
  0
LINE
  5
7F7
330
1A
100
AcDbEntity
  8
GUIDE
100
AcDbLine
 10
198.0
 20
-59.58
 30
0.0
 11
177.0
 21
-59.58
 31
0.0
  0
LINE
  5
7F8
330
1A
100
AcDbEntity
  8
GUIDE
100
AcDbLine
 10
190.5
 20
-44.5
 30
0.0
 11
190.5
 21
-59.58
 31
0.0
  0
LINE
  5
7F9
330
1A
100
AcDbEntity
  8
GUIDE
100
AcDbLine
 10
184.5
 20
-44.5
 30
0.0
 11
184.5
 21
-59.58
 31
0.0
  0
LINE
  5
7FA
330
1A
100
AcDbEntity
  8
GUIDE
100
AcDbLine
 10
198.0
 20
-67.09999999999999
 30
0.0
 11
198.0
 21
-59.58
 31
0.0
  0
LINE
  5
7FB
330
1A
100
AcDbEntity
  8
GUIDE
100
AcDbLine
 10
184.5
 20
-67.09999999999999
 30
0.0
 11
184.5
 21
-70.5
 31
0.0
  0
LINE
  5
7FC
330
1A
100
AcDbEntity
  8
GUIDE
100
AcDbLine
 10
190.5
 20
-67.09999999999999
 30
0.0
 11
190.5
 21
-70.5
 31
0.0
  0
LINE
  5
7FD
330
1A
100
AcDbEntity
  8
GUIDE
100
AcDbLine
 10
208.0
 20
-48.26
 30
0.0
 11
208.0
 21
-44.5
 31
0.0
  0
LINE
  5
7FE
330
1A
100
AcDbEntity
  8
GUIDE
100
AcDbLine
 10
202.0
 20
-48.26
 30
0.0
 11
202.0
 21
-44.5
 31
0.0
  0
LINE
  5
7FF
330
1A
100
AcDbEntity
  8
GUIDE
100
AcDbLine
 10
202.0
 20
-70.5
 30
0.0
 11
202.0
 21
-55.78
 31
0.0
  0
LINE
  5
800
330
1A
100
AcDbEntity
  8
GUIDE
100
AcDbLine
 10
208.0
 20
-70.5
 30
0.0
 11
208.0
 21
-55.78
 31
0.0
  0
LINE
  5
801
330
1A
100
AcDbEntity
  8
GUIDE
100
AcDbLine
 10
215.5
 20
-55.78
 30
0.0
 11
194.5
 21
-55.78
 31
0.0
  0
LINE
  5
802
330
1A
100
AcDbEntity
  8
GUIDE
100
AcDbLine
 10
215.5
 20
-48.26
 30
0.0
 11
194.5
 21
-48.26
 31
0.0
  0
LINE
  5
803
330
1A
100
AcDbEntity
  8
GUIDE
100
AcDbLine
 10
194.5
 20
-48.26
 30
0.0
 11
194.5
 21
-55.78
 31
0.0
  0
LINE
  5
804
330
1A
100
AcDbEntity
  8
GUIDE
100
AcDbLine
 10
215.5
 20
-48.26
 30
0.0
 11
215.5
 21
-55.78
 31
0.0
  0
LINE
  5
805
330
1A
100
AcDbEntity
  8
GUIDE
100
AcDbLine
 10
142.0
 20
-67.09999999999999
 30
0.0
 11
142.0
 21
-59.58
 31
0.0
  0
LINE
  5
806
330
1A
100
AcDbEntity
  8
GUIDE
100
AcDbLine
 10
163.0
 20
-67.09999999999999
 30
0.0
 11
142.0
 21
-67.09999999999999
 31
0.0
  0
LINE
  5
807
330
1A
100
AcDbEntity
  8
GUIDE
100
AcDbLine
 10
163.0
 20
-59.58
 30
0.0
 11
142.0
 21
-59.58
 31
0.0
  0
LINE
  5
808
330
1A
100
AcDbEntity
  8
GUIDE
100
AcDbLine
 10
155.5
 20
-44.5
 30
0.0
 11
155.5
 21
-59.58
 31
0.0
  0
LINE
  5
809
330
1A
100
AcDbEntity
  8
GUIDE
100
AcDbLine
 10
149.5
 20
-44.5
 30
0.0
 11
149.5
 21
-59.58
 31
0.0
  0
LINE
  5
80A
330
1A
100
AcDbEntity
  8
GUIDE
100
AcDbLine
 10
163.0
 20
-67.09999999999999
 30
0.0
 11
163.0
 21
-59.58
 31
0.0
  0
LINE
  5
80B
330
1A
100
AcDbEntity
  8
GUIDE
100
AcDbLine
 10
149.5
 20
-67.09999999999999
 30
0.0
 11
149.5
 21
-70.5
 31
0.0
  0
LINE
  5
80C
330
1A
100
AcDbEntity
  8
GUIDE
100
AcDbLine
 10
155.5
 20
-67.09999999999999
 30
0.0
 11
155.5
 21
-70.5
 31
0.0
  0
LINE
  5
80D
330
1A
100
AcDbEntity
  8
GUIDE
100
AcDbLine
 10
173.0
 20
-48.26
 30
0.0
 11
173.0
 21
-44.5
 31
0.0
  0
LINE
  5
80E
330
1A
100
AcDbEntity
  8
GUIDE
100
AcDbLine
 10
167.0
 20
-48.26
 30
0.0
 11
167.0
 21
-44.5
 31
0.0
  0
LINE
  5
80F
330
1A
100
AcDbEntity
  8
GUIDE
100
AcDbLine
 10
167.0
 20
-70.5
 30
0.0
 11
167.0
 21
-55.78
 31
0.0
  0
LINE
  5
810
330
1A
100
AcDbEntity
  8
GUIDE
100
AcDbLine
 10
173.0
 20
-70.5
 30
0.0
 11
173.0
 21
-55.78
 31
0.0
  0
LINE
  5
811
330
1A
100
AcDbEntity
  8
GUIDE
100
AcDbLine
 10
180.5
 20
-55.78
 30
0.0
 11
159.5
 21
-55.78
 31
0.0
  0
LINE
  5
812
330
1A
100
AcDbEntity
  8
GUIDE
100
AcDbLine
 10
180.5
 20
-48.26
 30
0.0
 11
159.5
 21
-48.26
 31
0.0
  0
LINE
  5
813
330
1A
100
AcDbEntity
  8
GUIDE
100
AcDbLine
 10
159.5
 20
-48.26
 30
0.0
 11
159.5
 21
-55.78
 31
0.0
  0
LINE
  5
814
330
1A
100
AcDbEntity
  8
GUIDE
100
AcDbLine
 10
180.5
 20
-48.26
 30
0.0
 11
180.5
 21
-55.78
 31
0.0
  0
LINE
  5
815
330
1A
100
AcDbEntity
  8
GUIDE
100
AcDbLine
 10
107.0
 20
-67.09999999999999
 30
0.0
 11
107.0
 21
-59.58
 31
0.0
  0
LINE
  5
816
330
1A
100
AcDbEntity
  8
GUIDE
100
AcDbLine
 10
128.0
 20
-67.09999999999999
 30
0.0
 11
107.0
 21
-67.09999999999999
 31
0.0
  0
LINE
  5
817
330
1A
100
AcDbEntity
  8
GUIDE
100
AcDbLine
 10
128.0
 20
-59.58
 30
0.0
 11
107.0
 21
-59.58
 31
0.0
  0
LINE
  5
818
330
1A
100
AcDbEntity
  8
GUIDE
100
AcDbLine
 10
120.5
 20
-44.5
 30
0.0
 11
120.5
 21
-59.58
 31
0.0
  0
LINE
  5
819
330
1A
100
AcDbEntity
  8
GUIDE
100
AcDbLine
 10
114.5
 20
-44.5
 30
0.0
 11
114.5
 21
-59.58
 31
0.0
  0
LINE
  5
81A
330
1A
100
AcDbEntity
  8
GUIDE
100
AcDbLine
 10
128.0
 20
-67.09999999999999
 30
0.0
 11
128.0
 21
-59.58
 31
0.0
  0
LINE
  5
81B
330
1A
100
AcDbEntity
  8
GUIDE
100
AcDbLine
 10
114.5
 20
-67.09999999999999
 30
0.0
 11
114.5
 21
-70.5
 31
0.0
  0
LINE
  5
81C
330
1A
100
AcDbEntity
  8
GUIDE
100
AcDbLine
 10
120.5
 20
-67.09999999999999
 30
0.0
 11
120.5
 21
-70.5
 31
0.0
  0
LINE
  5
81D
330
1A
100
AcDbEntity
  8
GUIDE
100
AcDbLine
 10
138.0
 20
-48.26
 30
0.0
 11
138.0
 21
-44.5
 31
0.0
  0
LINE
  5
81E
330
1A
100
AcDbEntity
  8
GUIDE
100
AcDbLine
 10
132.0
 20
-48.26
 30
0.0
 11
132.0
 21
-44.5
 31
0.0
  0
LINE
  5
81F
330
1A
100
AcDbEntity
  8
GUIDE
100
AcDbLine
 10
132.0
 20
-70.5
 30
0.0
 11
132.0
 21
-55.78
 31
0.0
  0
LINE
  5
820
330
1A
100
AcDbEntity
  8
GUIDE
100
AcDbLine
 10
138.0
 20
-70.5
 30
0.0
 11
138.0
 21
-55.78
 31
0.0
  0
LINE
  5
821
330
1A
100
AcDbEntity
  8
GUIDE
100
AcDbLine
 10
145.5
 20
-55.78
 30
0.0
 11
124.5
 21
-55.78
 31
0.0
  0
LINE
  5
822
330
1A
100
AcDbEntity
  8
GUIDE
100
AcDbLine
 10
145.5
 20
-48.26
 30
0.0
 11
124.5
 21
-48.26
 31
0.0
  0
LINE
  5
823
330
1A
100
AcDbEntity
  8
GUIDE
100
AcDbLine
 10
124.5
 20
-48.26
 30
0.0
 11
124.5
 21
-55.78
 31
0.0
  0
LINE
  5
824
330
1A
100
AcDbEntity
  8
GUIDE
100
AcDbLine
 10
145.5
 20
-48.26
 30
0.0
 11
145.5
 21
-55.78
 31
0.0
  0
LINE
  5
825
330
1A
100
AcDbEntity
  8
GUIDE
100
AcDbLine
 10
72.0
 20
-67.09999999999999
 30
0.0
 11
72.0
 21
-59.58
 31
0.0
  0
LINE
  5
826
330
1A
100
AcDbEntity
  8
GUIDE
100
AcDbLine
 10
93.0
 20
-67.09999999999999
 30
0.0
 11
72.0
 21
-67.09999999999999
 31
0.0
  0
LINE
  5
827
330
1A
100
AcDbEntity
  8
GUIDE
100
AcDbLine
 10
93.0
 20
-59.58
 30
0.0
 11
72.0
 21
-59.58
 31
0.0
  0
LINE
  5
828
330
1A
100
AcDbEntity
  8
GUIDE
100
AcDbLine
 10
85.5
 20
-44.5
 30
0.0
 11
85.5
 21
-59.58
 31
0.0
  0
LINE
  5
829
330
1A
100
AcDbEntity
  8
GUIDE
100
AcDbLine
 10
79.5
 20
-44.5
 30
0.0
 11
79.5
 21
-59.58
 31
0.0
  0
LINE
  5
82A
330
1A
100
AcDbEntity
  8
GUIDE
100
AcDbLine
 10
93.0
 20
-67.09999999999999
 30
0.0
 11
93.0
 21
-59.58
 31
0.0
  0
LINE
  5
82B
330
1A
100
AcDbEntity
  8
GUIDE
100
AcDbLine
 10
79.5
 20
-67.09999999999999
 30
0.0
 11
79.5
 21
-70.5
 31
0.0
  0
LINE
  5
82C
330
1A
100
AcDbEntity
  8
GUIDE
100
AcDbLine
 10
85.5
 20
-67.09999999999999
 30
0.0
 11
85.5
 21
-70.5
 31
0.0
  0
LINE
  5
82D
330
1A
100
AcDbEntity
  8
GUIDE
100
AcDbLine
 10
103.0
 20
-48.26
 30
0.0
 11
103.0
 21
-44.5
 31
0.0
  0
LINE
  5
82E
330
1A
100
AcDbEntity
  8
GUIDE
100
AcDbLine
 10
97.0
 20
-48.26
 30
0.0
 11
97.0
 21
-44.5
 31
0.0
  0
LINE
  5
82F
330
1A
100
AcDbEntity
  8
GUIDE
100
AcDbLine
 10
97.0
 20
-70.5
 30
0.0
 11
97.0
 21
-55.78
 31
0.0
  0
LINE
  5
830
330
1A
100
AcDbEntity
  8
GUIDE
100
AcDbLine
 10
103.0
 20
-70.5
 30
0.0
 11
103.0
 21
-55.78
 31
0.0
  0
LINE
  5
831
330
1A
100
AcDbEntity
  8
GUIDE
100
AcDbLine
 10
110.5
 20
-55.78
 30
0.0
 11
89.5
 21
-55.78
 31
0.0
  0
LINE
  5
832
330
1A
100
AcDbEntity
  8
GUIDE
100
AcDbLine
 10
110.5
 20
-48.26
 30
0.0
 11
89.5
 21
-48.26
 31
0.0
  0
LINE
  5
833
330
1A
100
AcDbEntity
  8
GUIDE
100
AcDbLine
 10
89.5
 20
-48.26
 30
0.0
 11
89.5
 21
-55.78
 31
0.0
  0
LINE
  5
834
330
1A
100
AcDbEntity
  8
GUIDE
100
AcDbLine
 10
110.5
 20
-48.26
 30
0.0
 11
110.5
 21
-55.78
 31
0.0
  0
LINE
  5
835
330
1A
100
AcDbEntity
  8
GUIDE
100
AcDbLine
 10
37.0
 20
-67.09999999999999
 30
0.0
 11
37.0
 21
-59.58
 31
0.0
  0
LINE
  5
836
330
1A
100
AcDbEntity
  8
GUIDE
100
AcDbLine
 10
58.0
 20
-67.09999999999999
 30
0.0
 11
37.0
 21
-67.09999999999999
 31
0.0
  0
LINE
  5
837
330
1A
100
AcDbEntity
  8
GUIDE
100
AcDbLine
 10
58.0
 20
-59.58
 30
0.0
 11
37.0
 21
-59.58
 31
0.0
  0
LINE
  5
838
330
1A
100
AcDbEntity
  8
GUIDE
100
AcDbLine
 10
50.5
 20
-44.5
 30
0.0
 11
50.5
 21
-59.58
 31
0.0
  0
LINE
  5
839
330
1A
100
AcDbEntity
  8
GUIDE
100
AcDbLine
 10
44.5
 20
-44.5
 30
0.0
 11
44.5
 21
-59.58
 31
0.0
  0
LINE
  5
83A
330
1A
100
AcDbEntity
  8
GUIDE
100
AcDbLine
 10
58.0
 20
-67.09999999999999
 30
0.0
 11
58.0
 21
-59.58
 31
0.0
  0
LINE
  5
83B
330
1A
100
AcDbEntity
  8
GUIDE
100
AcDbLine
 10
44.5
 20
-67.09999999999999
 30
0.0
 11
44.5
 21
-70.5
 31
0.0
  0
LINE
  5
83C
330
1A
100
AcDbEntity
  8
GUIDE
100
AcDbLine
 10
50.5
 20
-67.09999999999999
 30
0.0
 11
50.5
 21
-70.5
 31
0.0
  0
LINE
  5
83D
330
1A
100
AcDbEntity
  8
GUIDE
100
AcDbLine
 10
68.0
 20
-48.26
 30
0.0
 11
68.0
 21
-44.5
 31
0.0
  0
LINE
  5
83E
330
1A
100
AcDbEntity
  8
GUIDE
100
AcDbLine
 10
62.0
 20
-48.26
 30
0.0
 11
62.0
 21
-44.5
 31
0.0
  0
LINE
  5
83F
330
1A
100
AcDbEntity
  8
GUIDE
100
AcDbLine
 10
62.0
 20
-70.5
 30
0.0
 11
62.0
 21
-55.78
 31
0.0
  0
LINE
  5
840
330
1A
100
AcDbEntity
  8
GUIDE
100
AcDbLine
 10
68.0
 20
-70.5
 30
0.0
 11
68.0
 21
-55.78
 31
0.0
  0
LINE
  5
841
330
1A
100
AcDbEntity
  8
GUIDE
100
AcDbLine
 10
75.5
 20
-55.78
 30
0.0
 11
54.5
 21
-55.78
 31
0.0
  0
LINE
  5
842
330
1A
100
AcDbEntity
  8
GUIDE
100
AcDbLine
 10
75.5
 20
-48.26
 30
0.0
 11
54.5
 21
-48.26
 31
0.0
  0
LINE
  5
843
330
1A
100
AcDbEntity
  8
GUIDE
100
AcDbLine
 10
54.5
 20
-48.26
 30
0.0
 11
54.5
 21
-55.78
 31
0.0
  0
LINE
  5
844
330
1A
100
AcDbEntity
  8
GUIDE
100
AcDbLine
 10
75.5
 20
-48.26
 30
0.0
 11
75.5
 21
-55.78
 31
0.0
  0
LINE
  5
845
330
1A
100
AcDbEntity
  8
GUIDE
100
AcDbLine
 10
2.0
 20
-67.09999999999999
 30
0.0
 11
2.0
 21
-59.58
 31
0.0
  0
LINE
  5
846
330
1A
100
AcDbEntity
  8
GUIDE
100
AcDbLine
 10
23.0
 20
-67.09999999999999
 30
0.0
 11
2.0
 21
-67.09999999999999
 31
0.0
  0
LINE
  5
847
330
1A
100
AcDbEntity
  8
GUIDE
100
AcDbLine
 10
23.0
 20
-59.58
 30
0.0
 11
2.0
 21
-59.58
 31
0.0
  0
LINE
  5
848
330
1A
100
AcDbEntity
  8
GUIDE
100
AcDbLine
 10
15.5
 20
-44.5
 30
0.0
 11
15.5
 21
-59.58
 31
0.0
  0
LINE
  5
849
330
1A
100
AcDbEntity
  8
GUIDE
100
AcDbLine
 10
9.5
 20
-44.5
 30
0.0
 11
9.5
 21
-59.58
 31
0.0
  0
LINE
  5
84A
330
1A
100
AcDbEntity
  8
GUIDE
100
AcDbLine
 10
23.0
 20
-67.09999999999999
 30
0.0
 11
23.0
 21
-59.58
 31
0.0
  0
LINE
  5
84B
330
1A
100
AcDbEntity
  8
GUIDE
100
AcDbLine
 10
9.5
 20
-67.09999999999999
 30
0.0
 11
9.5
 21
-70.5
 31
0.0
  0
LINE
  5
84C
330
1A
100
AcDbEntity
  8
GUIDE
100
AcDbLine
 10
15.5
 20
-67.09999999999999
 30
0.0
 11
15.5
 21
-70.5
 31
0.0
  0
LINE
  5
84D
330
1A
100
AcDbEntity
  8
GUIDE
100
AcDbLine
 10
33.0
 20
-48.26
 30
0.0
 11
33.0
 21
-44.5
 31
0.0
  0
LINE
  5
84E
330
1A
100
AcDbEntity
  8
GUIDE
100
AcDbLine
 10
27.0
 20
-48.26
 30
0.0
 11
27.0
 21
-44.5
 31
0.0
  0
LINE
  5
84F
330
1A
100
AcDbEntity
  8
GUIDE
100
AcDbLine
 10
27.0
 20
-70.5
 30
0.0
 11
27.0
 21
-55.78
 31
0.0
  0
LINE
  5
850
330
1A
100
AcDbEntity
  8
GUIDE
100
AcDbLine
 10
33.0
 20
-70.5
 30
0.0
 11
33.0
 21
-55.78
 31
0.0
  0
LINE
  5
851
330
1A
100
AcDbEntity
  8
GUIDE
100
AcDbLine
 10
40.5
 20
-55.78
 30
0.0
 11
19.5
 21
-55.78
 31
0.0
  0
LINE
  5
852
330
1A
100
AcDbEntity
  8
GUIDE
100
AcDbLine
 10
40.5
 20
-48.26
 30
0.0
 11
19.5
 21
-48.26
 31
0.0
  0
LINE
  5
853
330
1A
100
AcDbEntity
  8
GUIDE
100
AcDbLine
 10
19.5
 20
-48.26
 30
0.0
 11
19.5
 21
-55.78
 31
0.0
  0
LINE
  5
854
330
1A
100
AcDbEntity
  8
GUIDE
100
AcDbLine
 10
40.5
 20
-48.26
 30
0.0
 11
40.5
 21
-55.78
 31
0.0
  0
LINE
  5
855
330
1A
100
AcDbEntity
  8
GUIDE
100
AcDbLine
 10
-33.0
 20
-67.09999999999999
 30
0.0
 11
-33.0
 21
-59.58
 31
0.0
  0
LINE
  5
856
330
1A
100
AcDbEntity
  8
GUIDE
100
AcDbLine
 10
-12.0
 20
-67.09999999999999
 30
0.0
 11
-33.0
 21
-67.09999999999999
 31
0.0
  0
LINE
  5
857
330
1A
100
AcDbEntity
  8
GUIDE
100
AcDbLine
 10
-12.0
 20
-59.58
 30
0.0
 11
-33.0
 21
-59.58
 31
0.0
  0
LINE
  5
858
330
1A
100
AcDbEntity
  8
GUIDE
100
AcDbLine
 10
-19.5
 20
-44.5
 30
0.0
 11
-19.5
 21
-59.58
 31
0.0
  0
LINE
  5
859
330
1A
100
AcDbEntity
  8
GUIDE
100
AcDbLine
 10
-25.5
 20
-44.5
 30
0.0
 11
-25.5
 21
-59.58
 31
0.0
  0
LINE
  5
85A
330
1A
100
AcDbEntity
  8
GUIDE
100
AcDbLine
 10
-12.0
 20
-67.09999999999999
 30
0.0
 11
-12.0
 21
-59.58
 31
0.0
  0
LINE
  5
85B
330
1A
100
AcDbEntity
  8
GUIDE
100
AcDbLine
 10
-25.5
 20
-67.09999999999999
 30
0.0
 11
-25.5
 21
-70.5
 31
0.0
  0
LINE
  5
85C
330
1A
100
AcDbEntity
  8
GUIDE
100
AcDbLine
 10
-19.5
 20
-67.09999999999999
 30
0.0
 11
-19.5
 21
-70.5
 31
0.0
  0
LINE
  5
85D
330
1A
100
AcDbEntity
  8
GUIDE
100
AcDbLine
 10
-2.0
 20
-48.26
 30
0.0
 11
-2.0
 21
-44.5
 31
0.0
  0
LINE
  5
85E
330
1A
100
AcDbEntity
  8
GUIDE
100
AcDbLine
 10
-8.0
 20
-48.26
 30
0.0
 11
-8.0
 21
-44.5
 31
0.0
  0
LINE
  5
85F
330
1A
100
AcDbEntity
  8
GUIDE
100
AcDbLine
 10
-8.0
 20
-70.5
 30
0.0
 11
-8.0
 21
-55.78
 31
0.0
  0
LINE
  5
860
330
1A
100
AcDbEntity
  8
GUIDE
100
AcDbLine
 10
-2.0
 20
-70.5
 30
0.0
 11
-2.0
 21
-55.78
 31
0.0
  0
LINE
  5
861
330
1A
100
AcDbEntity
  8
GUIDE
100
AcDbLine
 10
5.5
 20
-55.78
 30
0.0
 11
-15.5
 21
-55.78
 31
0.0
  0
LINE
  5
862
330
1A
100
AcDbEntity
  8
GUIDE
100
AcDbLine
 10
5.5
 20
-48.26
 30
0.0
 11
-15.5
 21
-48.26
 31
0.0
  0
LINE
  5
863
330
1A
100
AcDbEntity
  8
GUIDE
100
AcDbLine
 10
-15.5
 20
-48.26
 30
0.0
 11
-15.5
 21
-55.78
 31
0.0
  0
LINE
  5
864
330
1A
100
AcDbEntity
  8
GUIDE
100
AcDbLine
 10
5.5
 20
-48.26
 30
0.0
 11
5.5
 21
-55.78
 31
0.0
  0
LINE
  5
865
330
1A
100
AcDbEntity
  8
GUIDE
100
AcDbLine
 10
-68.0
 20
-67.09999999999999
 30
0.0
 11
-68.0
 21
-59.58
 31
0.0
  0
LINE
  5
866
330
1A
100
AcDbEntity
  8
GUIDE
100
AcDbLine
 10
-47.0
 20
-67.09999999999999
 30
0.0
 11
-68.0
 21
-67.09999999999999
 31
0.0
  0
LINE
  5
867
330
1A
100
AcDbEntity
  8
GUIDE
100
AcDbLine
 10
-47.0
 20
-59.58
 30
0.0
 11
-68.0
 21
-59.58
 31
0.0
  0
LINE
  5
868
330
1A
100
AcDbEntity
  8
GUIDE
100
AcDbLine
 10
-54.5
 20
-44.5
 30
0.0
 11
-54.5
 21
-59.58
 31
0.0
  0
LINE
  5
869
330
1A
100
AcDbEntity
  8
GUIDE
100
AcDbLine
 10
-60.5
 20
-44.5
 30
0.0
 11
-60.5
 21
-59.58
 31
0.0
  0
LINE
  5
86A
330
1A
100
AcDbEntity
  8
GUIDE
100
AcDbLine
 10
-47.0
 20
-67.09999999999999
 30
0.0
 11
-47.0
 21
-59.58
 31
0.0
  0
LINE
  5
86B
330
1A
100
AcDbEntity
  8
GUIDE
100
AcDbLine
 10
-60.5
 20
-67.09999999999999
 30
0.0
 11
-60.5
 21
-70.5
 31
0.0
  0
LINE
  5
86C
330
1A
100
AcDbEntity
  8
GUIDE
100
AcDbLine
 10
-54.5
 20
-67.09999999999999
 30
0.0
 11
-54.5
 21
-70.5
 31
0.0
  0
LINE
  5
86D
330
1A
100
AcDbEntity
  8
GUIDE
100
AcDbLine
 10
-37.0
 20
-48.26
 30
0.0
 11
-37.0
 21
-44.5
 31
0.0
  0
LINE
  5
86E
330
1A
100
AcDbEntity
  8
GUIDE
100
AcDbLine
 10
-43.0
 20
-48.26
 30
0.0
 11
-43.0
 21
-44.5
 31
0.0
  0
LINE
  5
86F
330
1A
100
AcDbEntity
  8
GUIDE
100
AcDbLine
 10
-43.0
 20
-70.5
 30
0.0
 11
-43.0
 21
-55.78
 31
0.0
  0
LINE
  5
870
330
1A
100
AcDbEntity
  8
GUIDE
100
AcDbLine
 10
-37.0
 20
-70.5
 30
0.0
 11
-37.0
 21
-55.78
 31
0.0
  0
LINE
  5
871
330
1A
100
AcDbEntity
  8
GUIDE
100
AcDbLine
 10
-29.5
 20
-55.78
 30
0.0
 11
-50.5
 21
-55.78
 31
0.0
  0
LINE
  5
872
330
1A
100
AcDbEntity
  8
GUIDE
100
AcDbLine
 10
-29.5
 20
-48.26
 30
0.0
 11
-50.5
 21
-48.26
 31
0.0
  0
LINE
  5
873
330
1A
100
AcDbEntity
  8
GUIDE
100
AcDbLine
 10
-50.5
 20
-48.26
 30
0.0
 11
-50.5
 21
-55.78
 31
0.0
  0
LINE
  5
874
330
1A
100
AcDbEntity
  8
GUIDE
100
AcDbLine
 10
-29.5
 20
-48.26
 30
0.0
 11
-29.5
 21
-55.78
 31
0.0
  0
LINE
  5
875
330
1A
100
AcDbEntity
  8
GUIDE
100
AcDbLine
 10
-103.0
 20
-67.09999999999999
 30
0.0
 11
-103.0
 21
-59.58
 31
0.0
  0
LINE
  5
876
330
1A
100
AcDbEntity
  8
GUIDE
100
AcDbLine
 10
-82.0
 20
-67.09999999999999
 30
0.0
 11
-103.0
 21
-67.09999999999999
 31
0.0
  0
LINE
  5
877
330
1A
100
AcDbEntity
  8
GUIDE
100
AcDbLine
 10
-82.0
 20
-59.58
 30
0.0
 11
-103.0
 21
-59.58
 31
0.0
  0
LINE
  5
878
330
1A
100
AcDbEntity
  8
GUIDE
100
AcDbLine
 10
-89.5
 20
-44.5
 30
0.0
 11
-89.5
 21
-59.58
 31
0.0
  0
LINE
  5
879
330
1A
100
AcDbEntity
  8
GUIDE
100
AcDbLine
 10
-95.5
 20
-44.5
 30
0.0
 11
-95.5
 21
-59.58
 31
0.0
  0
LINE
  5
87A
330
1A
100
AcDbEntity
  8
GUIDE
100
AcDbLine
 10
-82.0
 20
-67.09999999999999
 30
0.0
 11
-82.0
 21
-59.58
 31
0.0
  0
LINE
  5
87B
330
1A
100
AcDbEntity
  8
GUIDE
100
AcDbLine
 10
-95.5
 20
-67.09999999999999
 30
0.0
 11
-95.5
 21
-70.5
 31
0.0
  0
LINE
  5
87C
330
1A
100
AcDbEntity
  8
GUIDE
100
AcDbLine
 10
-89.5
 20
-67.09999999999999
 30
0.0
 11
-89.5
 21
-70.5
 31
0.0
  0
LINE
  5
87D
330
1A
100
AcDbEntity
  8
GUIDE
100
AcDbLine
 10
-72.0
 20
-48.26
 30
0.0
 11
-72.0
 21
-44.5
 31
0.0
  0
LINE
  5
87E
330
1A
100
AcDbEntity
  8
GUIDE
100
AcDbLine
 10
-78.0
 20
-48.26
 30
0.0
 11
-78.0
 21
-44.5
 31
0.0
  0
LINE
  5
87F
330
1A
100
AcDbEntity
  8
GUIDE
100
AcDbLine
 10
-78.0
 20
-70.5
 30
0.0
 11
-78.0
 21
-55.78
 31
0.0
  0
LINE
  5
880
330
1A
100
AcDbEntity
  8
GUIDE
100
AcDbLine
 10
-72.0
 20
-70.5
 30
0.0
 11
-72.0
 21
-55.78
 31
0.0
  0
LINE
  5
881
330
1A
100
AcDbEntity
  8
GUIDE
100
AcDbLine
 10
-64.5
 20
-55.78
 30
0.0
 11
-85.5
 21
-55.78
 31
0.0
  0
LINE
  5
882
330
1A
100
AcDbEntity
  8
GUIDE
100
AcDbLine
 10
-64.5
 20
-48.26
 30
0.0
 11
-85.5
 21
-48.26
 31
0.0
  0
LINE
  5
883
330
1A
100
AcDbEntity
  8
GUIDE
100
AcDbLine
 10
-85.5
 20
-48.26
 30
0.0
 11
-85.5
 21
-55.78
 31
0.0
  0
LINE
  5
884
330
1A
100
AcDbEntity
  8
GUIDE
100
AcDbLine
 10
-64.5
 20
-48.26
 30
0.0
 11
-64.5
 21
-55.78
 31
0.0
  0
LINE
  5
885
330
1A
100
AcDbEntity
  8
GUIDE
100
AcDbLine
 10
-138.0
 20
-67.09999999999999
 30
0.0
 11
-138.0
 21
-59.58
 31
0.0
  0
LINE
  5
886
330
1A
100
AcDbEntity
  8
GUIDE
100
AcDbLine
 10
-117.0
 20
-67.09999999999999
 30
0.0
 11
-138.0
 21
-67.09999999999999
 31
0.0
  0
LINE
  5
887
330
1A
100
AcDbEntity
  8
GUIDE
100
AcDbLine
 10
-117.0
 20
-59.58
 30
0.0
 11
-138.0
 21
-59.58
 31
0.0
  0
LINE
  5
888
330
1A
100
AcDbEntity
  8
GUIDE
100
AcDbLine
 10
-124.5
 20
-44.5
 30
0.0
 11
-124.5
 21
-59.58
 31
0.0
  0
LINE
  5
889
330
1A
100
AcDbEntity
  8
GUIDE
100
AcDbLine
 10
-130.5
 20
-44.5
 30
0.0
 11
-130.5
 21
-59.58
 31
0.0
  0
LINE
  5
88A
330
1A
100
AcDbEntity
  8
GUIDE
100
AcDbLine
 10
-117.0
 20
-67.09999999999999
 30
0.0
 11
-117.0
 21
-59.58
 31
0.0
  0
LINE
  5
88B
330
1A
100
AcDbEntity
  8
GUIDE
100
AcDbLine
 10
-130.5
 20
-67.09999999999999
 30
0.0
 11
-130.5
 21
-70.5
 31
0.0
  0
LINE
  5
88C
330
1A
100
AcDbEntity
  8
GUIDE
100
AcDbLine
 10
-124.5
 20
-67.09999999999999
 30
0.0
 11
-124.5
 21
-70.5
 31
0.0
  0
LINE
  5
88D
330
1A
100
AcDbEntity
  8
GUIDE
100
AcDbLine
 10
-107.0
 20
-48.26
 30
0.0
 11
-107.0
 21
-44.5
 31
0.0
  0
LINE
  5
88E
330
1A
100
AcDbEntity
  8
GUIDE
100
AcDbLine
 10
-113.0
 20
-48.26
 30
0.0
 11
-113.0
 21
-44.5
 31
0.0
  0
LINE
  5
88F
330
1A
100
AcDbEntity
  8
GUIDE
100
AcDbLine
 10
-113.0
 20
-70.5
 30
0.0
 11
-113.0
 21
-55.78
 31
0.0
  0
LINE
  5
890
330
1A
100
AcDbEntity
  8
GUIDE
100
AcDbLine
 10
-107.0
 20
-70.5
 30
0.0
 11
-107.0
 21
-55.78
 31
0.0
  0
LINE
  5
891
330
1A
100
AcDbEntity
  8
GUIDE
100
AcDbLine
 10
-99.5
 20
-55.78
 30
0.0
 11
-120.5
 21
-55.78
 31
0.0
  0
LINE
  5
892
330
1A
100
AcDbEntity
  8
GUIDE
100
AcDbLine
 10
-99.5
 20
-48.26
 30
0.0
 11
-120.5
 21
-48.26
 31
0.0
  0
LINE
  5
893
330
1A
100
AcDbEntity
  8
GUIDE
100
AcDbLine
 10
-120.5
 20
-48.26
 30
0.0
 11
-120.5
 21
-55.78
 31
0.0
  0
LINE
  5
894
330
1A
100
AcDbEntity
  8
GUIDE
100
AcDbLine
 10
-99.5
 20
-48.26
 30
0.0
 11
-99.5
 21
-55.78
 31
0.0
  0
LINE
  5
895
330
1A
100
AcDbEntity
  8
GUIDE
100
AcDbLine
 10
-173.0
 20
-67.09999999999999
 30
0.0
 11
-173.0
 21
-59.58
 31
0.0
  0
LINE
  5
896
330
1A
100
AcDbEntity
  8
GUIDE
100
AcDbLine
 10
-152.0
 20
-67.09999999999999
 30
0.0
 11
-173.0
 21
-67.09999999999999
 31
0.0
  0
LINE
  5
897
330
1A
100
AcDbEntity
  8
GUIDE
100
AcDbLine
 10
-152.0
 20
-59.58
 30
0.0
 11
-173.0
 21
-59.58
 31
0.0
  0
LINE
  5
898
330
1A
100
AcDbEntity
  8
GUIDE
100
AcDbLine
 10
-159.5
 20
-44.5
 30
0.0
 11
-159.5
 21
-59.58
 31
0.0
  0
LINE
  5
899
330
1A
100
AcDbEntity
  8
GUIDE
100
AcDbLine
 10
-165.5
 20
-44.5
 30
0.0
 11
-165.5
 21
-59.58
 31
0.0
  0
LINE
  5
89A
330
1A
100
AcDbEntity
  8
GUIDE
100
AcDbLine
 10
-152.0
 20
-67.09999999999999
 30
0.0
 11
-152.0
 21
-59.58
 31
0.0
  0
LINE
  5
89B
330
1A
100
AcDbEntity
  8
GUIDE
100
AcDbLine
 10
-165.5
 20
-67.09999999999999
 30
0.0
 11
-165.5
 21
-70.5
 31
0.0
  0
LINE
  5
89C
330
1A
100
AcDbEntity
  8
GUIDE
100
AcDbLine
 10
-159.5
 20
-67.09999999999999
 30
0.0
 11
-159.5
 21
-70.5
 31
0.0
  0
LINE
  5
89D
330
1A
100
AcDbEntity
  8
GUIDE
100
AcDbLine
 10
-142.0
 20
-48.26
 30
0.0
 11
-142.0
 21
-44.5
 31
0.0
  0
LINE
  5
89E
330
1A
100
AcDbEntity
  8
GUIDE
100
AcDbLine
 10
-148.0
 20
-48.26
 30
0.0
 11
-148.0
 21
-44.5
 31
0.0
  0
LINE
  5
89F
330
1A
100
AcDbEntity
  8
GUIDE
100
AcDbLine
 10
-148.0
 20
-70.5
 30
0.0
 11
-148.0
 21
-55.78
 31
0.0
  0
LINE
  5
8A0
330
1A
100
AcDbEntity
  8
GUIDE
100
AcDbLine
 10
-142.0
 20
-70.5
 30
0.0
 11
-142.0
 21
-55.78
 31
0.0
  0
LINE
  5
8A1
330
1A
100
AcDbEntity
  8
GUIDE
100
AcDbLine
 10
-134.5
 20
-55.78
 30
0.0
 11
-155.5
 21
-55.78
 31
0.0
  0
LINE
  5
8A2
330
1A
100
AcDbEntity
  8
GUIDE
100
AcDbLine
 10
-134.5
 20
-48.26
 30
0.0
 11
-155.5
 21
-48.26
 31
0.0
  0
LINE
  5
8A3
330
1A
100
AcDbEntity
  8
GUIDE
100
AcDbLine
 10
-155.5
 20
-48.26
 30
0.0
 11
-155.5
 21
-55.78
 31
0.0
  0
LINE
  5
8A4
330
1A
100
AcDbEntity
  8
GUIDE
100
AcDbLine
 10
-134.5
 20
-48.26
 30
0.0
 11
-134.5
 21
-55.78
 31
0.0
  0
LINE
  5
8A5
330
1A
100
AcDbEntity
  8
GUIDE
100
AcDbLine
 10
-208.0
 20
-67.09999999999999
 30
0.0
 11
-208.0
 21
-59.58
 31
0.0
  0
LINE
  5
8A6
330
1A
100
AcDbEntity
  8
GUIDE
100
AcDbLine
 10
-187.0
 20
-67.09999999999999
 30
0.0
 11
-208.0
 21
-67.09999999999999
 31
0.0
  0
LINE
  5
8A7
330
1A
100
AcDbEntity
  8
GUIDE
100
AcDbLine
 10
-187.0
 20
-59.58
 30
0.0
 11
-208.0
 21
-59.58
 31
0.0
  0
LINE
  5
8A8
330
1A
100
AcDbEntity
  8
GUIDE
100
AcDbLine
 10
-194.5
 20
-44.5
 30
0.0
 11
-194.5
 21
-59.58
 31
0.0
  0
LINE
  5
8A9
330
1A
100
AcDbEntity
  8
GUIDE
100
AcDbLine
 10
-200.5
 20
-44.5
 30
0.0
 11
-200.5
 21
-59.58
 31
0.0
  0
LINE
  5
8AA
330
1A
100
AcDbEntity
  8
GUIDE
100
AcDbLine
 10
-187.0
 20
-67.09999999999999
 30
0.0
 11
-187.0
 21
-59.58
 31
0.0
  0
LINE
  5
8AB
330
1A
100
AcDbEntity
  8
GUIDE
100
AcDbLine
 10
-200.5
 20
-67.09999999999999
 30
0.0
 11
-200.5
 21
-70.5
 31
0.0
  0
LINE
  5
8AC
330
1A
100
AcDbEntity
  8
GUIDE
100
AcDbLine
 10
-194.5
 20
-67.09999999999999
 30
0.0
 11
-194.5
 21
-70.5
 31
0.0
  0
LINE
  5
8AD
330
1A
100
AcDbEntity
  8
GUIDE
100
AcDbLine
 10
-177.0
 20
-48.26
 30
0.0
 11
-177.0
 21
-44.5
 31
0.0
  0
LINE
  5
8AE
330
1A
100
AcDbEntity
  8
GUIDE
100
AcDbLine
 10
-183.0
 20
-48.26
 30
0.0
 11
-183.0
 21
-44.5
 31
0.0
  0
LINE
  5
8AF
330
1A
100
AcDbEntity
  8
GUIDE
100
AcDbLine
 10
-183.0
 20
-70.5
 30
0.0
 11
-183.0
 21
-55.78
 31
0.0
  0
LINE
  5
8B0
330
1A
100
AcDbEntity
  8
GUIDE
100
AcDbLine
 10
-177.0
 20
-70.5
 30
0.0
 11
-177.0
 21
-55.78
 31
0.0
  0
LINE
  5
8B1
330
1A
100
AcDbEntity
  8
GUIDE
100
AcDbLine
 10
-169.5
 20
-55.78
 30
0.0
 11
-190.5
 21
-55.78
 31
0.0
  0
LINE
  5
8B2
330
1A
100
AcDbEntity
  8
GUIDE
100
AcDbLine
 10
-169.5
 20
-48.26
 30
0.0
 11
-190.5
 21
-48.26
 31
0.0
  0
LINE
  5
8B3
330
1A
100
AcDbEntity
  8
GUIDE
100
AcDbLine
 10
-190.5
 20
-48.26
 30
0.0
 11
-190.5
 21
-55.78
 31
0.0
  0
LINE
  5
8B4
330
1A
100
AcDbEntity
  8
GUIDE
100
AcDbLine
 10
-169.5
 20
-48.26
 30
0.0
 11
-169.5
 21
-55.78
 31
0.0
  0
LINE
  5
8B5
330
1A
100
AcDbEntity
  8
GUIDE
100
AcDbLine
 10
-243.0
 20
-67.09999999999999
 30
0.0
 11
-243.0
 21
-59.58
 31
0.0
  0
LINE
  5
8B6
330
1A
100
AcDbEntity
  8
GUIDE
100
AcDbLine
 10
-222.0
 20
-67.09999999999999
 30
0.0
 11
-243.0
 21
-67.09999999999999
 31
0.0
  0
LINE
  5
8B7
330
1A
100
AcDbEntity
  8
GUIDE
100
AcDbLine
 10
-222.0
 20
-59.58
 30
0.0
 11
-243.0
 21
-59.58
 31
0.0
  0
LINE
  5
8B8
330
1A
100
AcDbEntity
  8
GUIDE
100
AcDbLine
 10
-229.5
 20
-44.5
 30
0.0
 11
-229.5
 21
-59.58
 31
0.0
  0
LINE
  5
8B9
330
1A
100
AcDbEntity
  8
GUIDE
100
AcDbLine
 10
-235.5
 20
-44.5
 30
0.0
 11
-235.5
 21
-59.58
 31
0.0
  0
LINE
  5
8BA
330
1A
100
AcDbEntity
  8
GUIDE
100
AcDbLine
 10
-222.0
 20
-67.09999999999999
 30
0.0
 11
-222.0
 21
-59.58
 31
0.0
  0
LINE
  5
8BB
330
1A
100
AcDbEntity
  8
GUIDE
100
AcDbLine
 10
-235.5
 20
-67.09999999999999
 30
0.0
 11
-235.5
 21
-70.5
 31
0.0
  0
LINE
  5
8BC
330
1A
100
AcDbEntity
  8
GUIDE
100
AcDbLine
 10
-229.5
 20
-67.09999999999999
 30
0.0
 11
-229.5
 21
-70.5
 31
0.0
  0
LINE
  5
8BD
330
1A
100
AcDbEntity
  8
GUIDE
100
AcDbLine
 10
-212.0
 20
-48.26
 30
0.0
 11
-212.0
 21
-44.5
 31
0.0
  0
LINE
  5
8BE
330
1A
100
AcDbEntity
  8
GUIDE
100
AcDbLine
 10
-218.0
 20
-48.26
 30
0.0
 11
-218.0
 21
-44.5
 31
0.0
  0
LINE
  5
8BF
330
1A
100
AcDbEntity
  8
GUIDE
100
AcDbLine
 10
-218.0
 20
-70.5
 30
0.0
 11
-218.0
 21
-55.78
 31
0.0
  0
LINE
  5
8C0
330
1A
100
AcDbEntity
  8
GUIDE
100
AcDbLine
 10
-212.0
 20
-70.5
 30
0.0
 11
-212.0
 21
-55.78
 31
0.0
  0
LINE
  5
8C1
330
1A
100
AcDbEntity
  8
GUIDE
100
AcDbLine
 10
-204.5
 20
-55.78
 30
0.0
 11
-225.5
 21
-55.78
 31
0.0
  0
LINE
  5
8C2
330
1A
100
AcDbEntity
  8
GUIDE
100
AcDbLine
 10
-204.5
 20
-48.26
 30
0.0
 11
-225.5
 21
-48.26
 31
0.0
  0
LINE
  5
8C3
330
1A
100
AcDbEntity
  8
GUIDE
100
AcDbLine
 10
-225.5
 20
-48.26
 30
0.0
 11
-225.5
 21
-55.78
 31
0.0
  0
LINE
  5
8C4
330
1A
100
AcDbEntity
  8
GUIDE
100
AcDbLine
 10
-204.5
 20
-48.26
 30
0.0
 11
-204.5
 21
-55.78
 31
0.0
  0
LINE
  5
8C5
330
1A
100
AcDbEntity
  8
GUIDE
100
AcDbLine
 10
-278.0
 20
-67.09999999999999
 30
0.0
 11
-278.0
 21
-59.58
 31
0.0
  0
LINE
  5
8C6
330
1A
100
AcDbEntity
  8
GUIDE
100
AcDbLine
 10
-257.0
 20
-67.09999999999999
 30
0.0
 11
-278.0
 21
-67.09999999999999
 31
0.0
  0
LINE
  5
8C7
330
1A
100
AcDbEntity
  8
GUIDE
100
AcDbLine
 10
-257.0
 20
-59.58
 30
0.0
 11
-278.0
 21
-59.58
 31
0.0
  0
LINE
  5
8C8
330
1A
100
AcDbEntity
  8
GUIDE
100
AcDbLine
 10
-264.5
 20
-44.5
 30
0.0
 11
-264.5
 21
-59.58
 31
0.0
  0
LINE
  5
8C9
330
1A
100
AcDbEntity
  8
GUIDE
100
AcDbLine
 10
-270.5
 20
-44.5
 30
0.0
 11
-270.5
 21
-59.58
 31
0.0
  0
LINE
  5
8CA
330
1A
100
AcDbEntity
  8
GUIDE
100
AcDbLine
 10
-257.0
 20
-67.09999999999999
 30
0.0
 11
-257.0
 21
-59.58
 31
0.0
  0
LINE
  5
8CB
330
1A
100
AcDbEntity
  8
GUIDE
100
AcDbLine
 10
-270.5
 20
-67.09999999999999
 30
0.0
 11
-270.5
 21
-70.5
 31
0.0
  0
LINE
  5
8CC
330
1A
100
AcDbEntity
  8
GUIDE
100
AcDbLine
 10
-264.5
 20
-67.09999999999999
 30
0.0
 11
-264.5
 21
-70.5
 31
0.0
  0
LINE
  5
8CD
330
1A
100
AcDbEntity
  8
GUIDE
100
AcDbLine
 10
-247.0
 20
-48.26
 30
0.0
 11
-247.0
 21
-44.5
 31
0.0
  0
LINE
  5
8CE
330
1A
100
AcDbEntity
  8
GUIDE
100
AcDbLine
 10
-253.0
 20
-48.26
 30
0.0
 11
-253.0
 21
-44.5
 31
0.0
  0
LINE
  5
8CF
330
1A
100
AcDbEntity
  8
GUIDE
100
AcDbLine
 10
-253.0
 20
-70.5
 30
0.0
 11
-253.0
 21
-55.78
 31
0.0
  0
LINE
  5
8D0
330
1A
100
AcDbEntity
  8
GUIDE
100
AcDbLine
 10
-247.0
 20
-70.5
 30
0.0
 11
-247.0
 21
-55.78
 31
0.0
  0
LINE
  5
8D1
330
1A
100
AcDbEntity
  8
GUIDE
100
AcDbLine
 10
-239.5
 20
-55.78
 30
0.0
 11
-260.5
 21
-55.78
 31
0.0
  0
LINE
  5
8D2
330
1A
100
AcDbEntity
  8
GUIDE
100
AcDbLine
 10
-239.5
 20
-48.26
 30
0.0
 11
-260.5
 21
-48.26
 31
0.0
  0
LINE
  5
8D3
330
1A
100
AcDbEntity
  8
GUIDE
100
AcDbLine
 10
-260.5
 20
-48.26
 30
0.0
 11
-260.5
 21
-55.78
 31
0.0
  0
LINE
  5
8D4
330
1A
100
AcDbEntity
  8
GUIDE
100
AcDbLine
 10
-239.5
 20
-48.26
 30
0.0
 11
-239.5
 21
-55.78
 31
0.0
  0
LINE
  5
8D5
330
1A
100
AcDbEntity
  8
GUIDE
100
AcDbLine
 10
-313.0
 20
-67.09999999999999
 30
0.0
 11
-313.0
 21
-59.58
 31
0.0
  0
LINE
  5
8D6
330
1A
100
AcDbEntity
  8
GUIDE
100
AcDbLine
 10
-292.0
 20
-67.09999999999999
 30
0.0
 11
-313.0
 21
-67.09999999999999
 31
0.0
  0
LINE
  5
8D7
330
1A
100
AcDbEntity
  8
GUIDE
100
AcDbLine
 10
-292.0
 20
-59.58
 30
0.0
 11
-313.0
 21
-59.58
 31
0.0
  0
LINE
  5
8D8
330
1A
100
AcDbEntity
  8
GUIDE
100
AcDbLine
 10
-299.5
 20
-44.5
 30
0.0
 11
-299.5
 21
-59.58
 31
0.0
  0
LINE
  5
8D9
330
1A
100
AcDbEntity
  8
GUIDE
100
AcDbLine
 10
-305.5
 20
-44.5
 30
0.0
 11
-305.5
 21
-59.58
 31
0.0
  0
LINE
  5
8DA
330
1A
100
AcDbEntity
  8
GUIDE
100
AcDbLine
 10
-292.0
 20
-67.09999999999999
 30
0.0
 11
-292.0
 21
-59.58
 31
0.0
  0
LINE
  5
8DB
330
1A
100
AcDbEntity
  8
GUIDE
100
AcDbLine
 10
-305.5
 20
-67.09999999999999
 30
0.0
 11
-305.5
 21
-70.5
 31
0.0
  0
LINE
  5
8DC
330
1A
100
AcDbEntity
  8
GUIDE
100
AcDbLine
 10
-299.5
 20
-67.09999999999999
 30
0.0
 11
-299.5
 21
-70.5
 31
0.0
  0
LINE
  5
8DD
330
1A
100
AcDbEntity
  8
GUIDE
100
AcDbLine
 10
-282.0
 20
-48.26
 30
0.0
 11
-282.0
 21
-44.5
 31
0.0
  0
LINE
  5
8DE
330
1A
100
AcDbEntity
  8
GUIDE
100
AcDbLine
 10
-288.0
 20
-48.26
 30
0.0
 11
-288.0
 21
-44.5
 31
0.0
  0
LINE
  5
8DF
330
1A
100
AcDbEntity
  8
GUIDE
100
AcDbLine
 10
-288.0
 20
-70.5
 30
0.0
 11
-288.0
 21
-55.78
 31
0.0
  0
LINE
  5
8E0
330
1A
100
AcDbEntity
  8
GUIDE
100
AcDbLine
 10
-282.0
 20
-70.5
 30
0.0
 11
-282.0
 21
-55.78
 31
0.0
  0
LINE
  5
8E1
330
1A
100
AcDbEntity
  8
GUIDE
100
AcDbLine
 10
-274.5
 20
-55.78
 30
0.0
 11
-295.5
 21
-55.78
 31
0.0
  0
LINE
  5
8E2
330
1A
100
AcDbEntity
  8
GUIDE
100
AcDbLine
 10
-274.5
 20
-48.26
 30
0.0
 11
-295.5
 21
-48.26
 31
0.0
  0
LINE
  5
8E3
330
1A
100
AcDbEntity
  8
GUIDE
100
AcDbLine
 10
-295.5
 20
-48.26
 30
0.0
 11
-295.5
 21
-55.78
 31
0.0
  0
LINE
  5
8E4
330
1A
100
AcDbEntity
  8
GUIDE
100
AcDbLine
 10
-274.5
 20
-48.26
 30
0.0
 11
-274.5
 21
-55.78
 31
0.0
  0
LINE
  5
8E5
330
1A
100
AcDbEntity
  8
GUIDE
100
AcDbLine
 10
-348.0
 20
-67.09999999999999
 30
0.0
 11
-348.0
 21
-59.58
 31
0.0
  0
LINE
  5
8E6
330
1A
100
AcDbEntity
  8
GUIDE
100
AcDbLine
 10
-327.0
 20
-67.09999999999999
 30
0.0
 11
-348.0
 21
-67.09999999999999
 31
0.0
  0
LINE
  5
8E7
330
1A
100
AcDbEntity
  8
GUIDE
100
AcDbLine
 10
-327.0
 20
-59.58
 30
0.0
 11
-348.0
 21
-59.58
 31
0.0
  0
LINE
  5
8E8
330
1A
100
AcDbEntity
  8
GUIDE
100
AcDbLine
 10
-334.5
 20
-44.5
 30
0.0
 11
-334.5
 21
-59.58
 31
0.0
  0
LINE
  5
8E9
330
1A
100
AcDbEntity
  8
GUIDE
100
AcDbLine
 10
-340.5
 20
-44.5
 30
0.0
 11
-340.5
 21
-59.58
 31
0.0
  0
LINE
  5
8EA
330
1A
100
AcDbEntity
  8
GUIDE
100
AcDbLine
 10
-327.0
 20
-67.09999999999999
 30
0.0
 11
-327.0
 21
-59.58
 31
0.0
  0
LINE
  5
8EB
330
1A
100
AcDbEntity
  8
GUIDE
100
AcDbLine
 10
-340.5
 20
-67.09999999999999
 30
0.0
 11
-340.5
 21
-70.5
 31
0.0
  0
LINE
  5
8EC
330
1A
100
AcDbEntity
  8
GUIDE
100
AcDbLine
 10
-334.5
 20
-67.09999999999999
 30
0.0
 11
-334.5
 21
-70.5
 31
0.0
  0
LINE
  5
8ED
330
1A
100
AcDbEntity
  8
GUIDE
100
AcDbLine
 10
-317.0
 20
-48.26
 30
0.0
 11
-317.0
 21
-44.5
 31
0.0
  0
LINE
  5
8EE
330
1A
100
AcDbEntity
  8
GUIDE
100
AcDbLine
 10
-323.0
 20
-48.26
 30
0.0
 11
-323.0
 21
-44.5
 31
0.0
  0
LINE
  5
8EF
330
1A
100
AcDbEntity
  8
GUIDE
100
AcDbLine
 10
-323.0
 20
-70.5
 30
0.0
 11
-323.0
 21
-55.78
 31
0.0
  0
LINE
  5
8F0
330
1A
100
AcDbEntity
  8
GUIDE
100
AcDbLine
 10
-317.0
 20
-70.5
 30
0.0
 11
-317.0
 21
-55.78
 31
0.0
  0
LINE
  5
8F1
330
1A
100
AcDbEntity
  8
GUIDE
100
AcDbLine
 10
-309.5
 20
-55.78
 30
0.0
 11
-330.5
 21
-55.78
 31
0.0
  0
LINE
  5
8F2
330
1A
100
AcDbEntity
  8
GUIDE
100
AcDbLine
 10
-309.5
 20
-48.26
 30
0.0
 11
-330.5
 21
-48.26
 31
0.0
  0
LINE
  5
8F3
330
1A
100
AcDbEntity
  8
GUIDE
100
AcDbLine
 10
-330.5
 20
-48.26
 30
0.0
 11
-330.5
 21
-55.78
 31
0.0
  0
LINE
  5
8F4
330
1A
100
AcDbEntity
  8
GUIDE
100
AcDbLine
 10
-309.5
 20
-48.26
 30
0.0
 11
-309.5
 21
-55.78
 31
0.0
  0
LINE
  5
8F5
330
1A
100
AcDbEntity
  8
GUIDE
100
AcDbLine
 10
-383.0
 20
-67.09999999999999
 30
0.0
 11
-383.0
 21
-59.58
 31
0.0
  0
LINE
  5
8F6
330
1A
100
AcDbEntity
  8
GUIDE
100
AcDbLine
 10
-362.0
 20
-67.09999999999999
 30
0.0
 11
-383.0
 21
-67.09999999999999
 31
0.0
  0
LINE
  5
8F7
330
1A
100
AcDbEntity
  8
GUIDE
100
AcDbLine
 10
-362.0
 20
-59.58
 30
0.0
 11
-383.0
 21
-59.58
 31
0.0
  0
LINE
  5
8F8
330
1A
100
AcDbEntity
  8
GUIDE
100
AcDbLine
 10
-369.5
 20
-44.5
 30
0.0
 11
-369.5
 21
-59.58
 31
0.0
  0
LINE
  5
8F9
330
1A
100
AcDbEntity
  8
GUIDE
100
AcDbLine
 10
-375.5
 20
-44.5
 30
0.0
 11
-375.5
 21
-59.58
 31
0.0
  0
LINE
  5
8FA
330
1A
100
AcDbEntity
  8
GUIDE
100
AcDbLine
 10
-362.0
 20
-67.09999999999999
 30
0.0
 11
-362.0
 21
-59.58
 31
0.0
  0
LINE
  5
8FB
330
1A
100
AcDbEntity
  8
GUIDE
100
AcDbLine
 10
-375.5
 20
-67.09999999999999
 30
0.0
 11
-375.5
 21
-70.5
 31
0.0
  0
LINE
  5
8FC
330
1A
100
AcDbEntity
  8
GUIDE
100
AcDbLine
 10
-369.5
 20
-67.09999999999999
 30
0.0
 11
-369.5
 21
-70.5
 31
0.0
  0
LINE
  5
8FD
330
1A
100
AcDbEntity
  8
GUIDE
100
AcDbLine
 10
-352.0
 20
-48.26
 30
0.0
 11
-352.0
 21
-44.5
 31
0.0
  0
LINE
  5
8FE
330
1A
100
AcDbEntity
  8
GUIDE
100
AcDbLine
 10
-358.0
 20
-48.26
 30
0.0
 11
-358.0
 21
-44.5
 31
0.0
  0
LINE
  5
8FF
330
1A
100
AcDbEntity
  8
GUIDE
100
AcDbLine
 10
-358.0
 20
-70.5
 30
0.0
 11
-358.0
 21
-55.78
 31
0.0
  0
LINE
  5
900
330
1A
100
AcDbEntity
  8
GUIDE
100
AcDbLine
 10
-352.0
 20
-70.5
 30
0.0
 11
-352.0
 21
-55.78
 31
0.0
  0
LINE
  5
901
330
1A
100
AcDbEntity
  8
GUIDE
100
AcDbLine
 10
-344.5
 20
-55.78
 30
0.0
 11
-365.5
 21
-55.78
 31
0.0
  0
LINE
  5
902
330
1A
100
AcDbEntity
  8
GUIDE
100
AcDbLine
 10
-344.5
 20
-48.26
 30
0.0
 11
-365.5
 21
-48.26
 31
0.0
  0
LINE
  5
903
330
1A
100
AcDbEntity
  8
GUIDE
100
AcDbLine
 10
-365.5
 20
-48.26
 30
0.0
 11
-365.5
 21
-55.78
 31
0.0
  0
LINE
  5
904
330
1A
100
AcDbEntity
  8
GUIDE
100
AcDbLine
 10
-344.5
 20
-48.26
 30
0.0
 11
-344.5
 21
-55.78
 31
0.0
  0
LINE
  5
905
330
1A
100
AcDbEntity
  8
GUIDE
100
AcDbLine
 10
-418.0
 20
-67.09999999999999
 30
0.0
 11
-418.0
 21
-59.58
 31
0.0
  0
LINE
  5
906
330
1A
100
AcDbEntity
  8
GUIDE
100
AcDbLine
 10
-397.0
 20
-67.09999999999999
 30
0.0
 11
-418.0
 21
-67.09999999999999
 31
0.0
  0
LINE
  5
907
330
1A
100
AcDbEntity
  8
GUIDE
100
AcDbLine
 10
-397.0
 20
-59.58
 30
0.0
 11
-418.0
 21
-59.58
 31
0.0
  0
LINE
  5
908
330
1A
100
AcDbEntity
  8
GUIDE
100
AcDbLine
 10
-404.5
 20
-44.5
 30
0.0
 11
-404.5
 21
-59.58
 31
0.0
  0
LINE
  5
909
330
1A
100
AcDbEntity
  8
GUIDE
100
AcDbLine
 10
-410.5
 20
-44.5
 30
0.0
 11
-410.5
 21
-59.58
 31
0.0
  0
LINE
  5
90A
330
1A
100
AcDbEntity
  8
GUIDE
100
AcDbLine
 10
-397.0
 20
-67.09999999999999
 30
0.0
 11
-397.0
 21
-59.58
 31
0.0
  0
LINE
  5
90B
330
1A
100
AcDbEntity
  8
GUIDE
100
AcDbLine
 10
-410.5
 20
-67.09999999999999
 30
0.0
 11
-410.5
 21
-70.5
 31
0.0
  0
LINE
  5
90C
330
1A
100
AcDbEntity
  8
GUIDE
100
AcDbLine
 10
-404.5
 20
-67.09999999999999
 30
0.0
 11
-404.5
 21
-70.5
 31
0.0
  0
LINE
  5
90D
330
1A
100
AcDbEntity
  8
GUIDE
100
AcDbLine
 10
-387.0
 20
-48.26
 30
0.0
 11
-387.0
 21
-44.5
 31
0.0
  0
LINE
  5
90E
330
1A
100
AcDbEntity
  8
GUIDE
100
AcDbLine
 10
-393.0
 20
-48.26
 30
0.0
 11
-393.0
 21
-44.5
 31
0.0
  0
LINE
  5
90F
330
1A
100
AcDbEntity
  8
GUIDE
100
AcDbLine
 10
-393.0
 20
-70.5
 30
0.0
 11
-393.0
 21
-55.78
 31
0.0
  0
LINE
  5
910
330
1A
100
AcDbEntity
  8
GUIDE
100
AcDbLine
 10
-387.0
 20
-70.5
 30
0.0
 11
-387.0
 21
-55.78
 31
0.0
  0
LINE
  5
911
330
1A
100
AcDbEntity
  8
GUIDE
100
AcDbLine
 10
-379.5
 20
-55.78
 30
0.0
 11
-400.5
 21
-55.78
 31
0.0
  0
LINE
  5
912
330
1A
100
AcDbEntity
  8
GUIDE
100
AcDbLine
 10
-379.5
 20
-48.26
 30
0.0
 11
-400.5
 21
-48.26
 31
0.0
  0
LINE
  5
913
330
1A
100
AcDbEntity
  8
GUIDE
100
AcDbLine
 10
-400.5
 20
-48.26
 30
0.0
 11
-400.5
 21
-55.78
 31
0.0
  0
LINE
  5
914
330
1A
100
AcDbEntity
  8
GUIDE
100
AcDbLine
 10
-379.5
 20
-48.26
 30
0.0
 11
-379.5
 21
-55.78
 31
0.0
  0
LINE
  5
915
330
1A
100
AcDbEntity
  8
GUIDE
100
AcDbLine
 10
-453.0
 20
-67.09999999999999
 30
0.0
 11
-453.0
 21
-59.58
 31
0.0
  0
LINE
  5
916
330
1A
100
AcDbEntity
  8
GUIDE
100
AcDbLine
 10
-432.0
 20
-67.09999999999999
 30
0.0
 11
-453.0
 21
-67.09999999999999
 31
0.0
  0
LINE
  5
917
330
1A
100
AcDbEntity
  8
GUIDE
100
AcDbLine
 10
-432.0
 20
-59.58
 30
0.0
 11
-453.0
 21
-59.58
 31
0.0
  0
LINE
  5
918
330
1A
100
AcDbEntity
  8
GUIDE
100
AcDbLine
 10
-439.5
 20
-44.5
 30
0.0
 11
-439.5
 21
-59.58
 31
0.0
  0
LINE
  5
919
330
1A
100
AcDbEntity
  8
GUIDE
100
AcDbLine
 10
-445.5
 20
-44.5
 30
0.0
 11
-445.5
 21
-59.58
 31
0.0
  0
LINE
  5
91A
330
1A
100
AcDbEntity
  8
GUIDE
100
AcDbLine
 10
-432.0
 20
-67.09999999999999
 30
0.0
 11
-432.0
 21
-59.58
 31
0.0
  0
LINE
  5
91B
330
1A
100
AcDbEntity
  8
GUIDE
100
AcDbLine
 10
-445.5
 20
-67.09999999999999
 30
0.0
 11
-445.5
 21
-70.5
 31
0.0
  0
LINE
  5
91C
330
1A
100
AcDbEntity
  8
GUIDE
100
AcDbLine
 10
-439.5
 20
-67.09999999999999
 30
0.0
 11
-439.5
 21
-70.5
 31
0.0
  0
LINE
  5
91D
330
1A
100
AcDbEntity
  8
GUIDE
100
AcDbLine
 10
-422.0
 20
-48.26
 30
0.0
 11
-422.0
 21
-44.5
 31
0.0
  0
LINE
  5
91E
330
1A
100
AcDbEntity
  8
GUIDE
100
AcDbLine
 10
-428.0
 20
-48.26
 30
0.0
 11
-428.0
 21
-44.5
 31
0.0
  0
LINE
  5
91F
330
1A
100
AcDbEntity
  8
GUIDE
100
AcDbLine
 10
-428.0
 20
-70.5
 30
0.0
 11
-428.0
 21
-55.78
 31
0.0
  0
LINE
  5
920
330
1A
100
AcDbEntity
  8
GUIDE
100
AcDbLine
 10
-422.0
 20
-70.5
 30
0.0
 11
-422.0
 21
-55.78
 31
0.0
  0
LINE
  5
921
330
1A
100
AcDbEntity
  8
GUIDE
100
AcDbLine
 10
-414.5
 20
-55.78
 30
0.0
 11
-435.5
 21
-55.78
 31
0.0
  0
LINE
  5
922
330
1A
100
AcDbEntity
  8
GUIDE
100
AcDbLine
 10
-414.5
 20
-48.26
 30
0.0
 11
-435.5
 21
-48.26
 31
0.0
  0
LINE
  5
923
330
1A
100
AcDbEntity
  8
GUIDE
100
AcDbLine
 10
-435.5
 20
-48.26
 30
0.0
 11
-435.5
 21
-55.78
 31
0.0
  0
LINE
  5
924
330
1A
100
AcDbEntity
  8
GUIDE
100
AcDbLine
 10
-414.5
 20
-48.26
 30
0.0
 11
-414.5
 21
-55.78
 31
0.0
  0
LINE
  5
925
330
1A
100
AcDbEntity
  8
GUIDE
100
AcDbLine
 10
-488.0
 20
-67.09999999999999
 30
0.0
 11
-488.0
 21
-59.58
 31
0.0
  0
LINE
  5
926
330
1A
100
AcDbEntity
  8
GUIDE
100
AcDbLine
 10
-467.0
 20
-67.09999999999999
 30
0.0
 11
-488.0
 21
-67.09999999999999
 31
0.0
  0
LINE
  5
927
330
1A
100
AcDbEntity
  8
GUIDE
100
AcDbLine
 10
-467.0
 20
-59.58
 30
0.0
 11
-488.0
 21
-59.58
 31
0.0
  0
LINE
  5
928
330
1A
100
AcDbEntity
  8
GUIDE
100
AcDbLine
 10
-474.5
 20
-44.5
 30
0.0
 11
-474.5
 21
-59.58
 31
0.0
  0
LINE
  5
929
330
1A
100
AcDbEntity
  8
GUIDE
100
AcDbLine
 10
-480.5
 20
-44.5
 30
0.0
 11
-480.5
 21
-59.58
 31
0.0
  0
LINE
  5
92A
330
1A
100
AcDbEntity
  8
GUIDE
100
AcDbLine
 10
-467.0
 20
-67.09999999999999
 30
0.0
 11
-467.0
 21
-59.58
 31
0.0
  0
LINE
  5
92B
330
1A
100
AcDbEntity
  8
GUIDE
100
AcDbLine
 10
-480.5
 20
-67.09999999999999
 30
0.0
 11
-480.5
 21
-70.5
 31
0.0
  0
LINE
  5
92C
330
1A
100
AcDbEntity
  8
GUIDE
100
AcDbLine
 10
-474.5
 20
-67.09999999999999
 30
0.0
 11
-474.5
 21
-70.5
 31
0.0
  0
LINE
  5
92D
330
1A
100
AcDbEntity
  8
GUIDE
100
AcDbLine
 10
-457.0
 20
-48.26
 30
0.0
 11
-457.0
 21
-44.5
 31
0.0
  0
LINE
  5
92E
330
1A
100
AcDbEntity
  8
GUIDE
100
AcDbLine
 10
-463.0
 20
-48.26
 30
0.0
 11
-463.0
 21
-44.5
 31
0.0
  0
LINE
  5
92F
330
1A
100
AcDbEntity
  8
GUIDE
100
AcDbLine
 10
-463.0
 20
-70.5
 30
0.0
 11
-463.0
 21
-55.78
 31
0.0
  0
LINE
  5
930
330
1A
100
AcDbEntity
  8
GUIDE
100
AcDbLine
 10
-457.0
 20
-70.5
 30
0.0
 11
-457.0
 21
-55.78
 31
0.0
  0
LINE
  5
931
330
1A
100
AcDbEntity
  8
GUIDE
100
AcDbLine
 10
-449.5
 20
-55.78
 30
0.0
 11
-470.5
 21
-55.78
 31
0.0
  0
LINE
  5
932
330
1A
100
AcDbEntity
  8
GUIDE
100
AcDbLine
 10
-449.5
 20
-48.26
 30
0.0
 11
-470.5
 21
-48.26
 31
0.0
  0
LINE
  5
933
330
1A
100
AcDbEntity
  8
GUIDE
100
AcDbLine
 10
-470.5
 20
-48.26
 30
0.0
 11
-470.5
 21
-55.78
 31
0.0
  0
LINE
  5
934
330
1A
100
AcDbEntity
  8
GUIDE
100
AcDbLine
 10
-449.5
 20
-48.26
 30
0.0
 11
-449.5
 21
-55.78
 31
0.0
  0
LINE
  5
935
330
1A
100
AcDbEntity
  8
GUIDE
100
AcDbLine
 10
-523.0
 20
-67.09999999999999
 30
0.0
 11
-523.0
 21
-59.58
 31
0.0
  0
LINE
  5
936
330
1A
100
AcDbEntity
  8
GUIDE
100
AcDbLine
 10
-502.0
 20
-67.09999999999999
 30
0.0
 11
-523.0
 21
-67.09999999999999
 31
0.0
  0
LINE
  5
937
330
1A
100
AcDbEntity
  8
GUIDE
100
AcDbLine
 10
-502.0
 20
-59.58
 30
0.0
 11
-523.0
 21
-59.58
 31
0.0
  0
LINE
  5
938
330
1A
100
AcDbEntity
  8
GUIDE
100
AcDbLine
 10
-509.5
 20
-44.5
 30
0.0
 11
-509.5
 21
-59.58
 31
0.0
  0
LINE
  5
939
330
1A
100
AcDbEntity
  8
GUIDE
100
AcDbLine
 10
-515.5
 20
-44.5
 30
0.0
 11
-515.5
 21
-59.58
 31
0.0
  0
LINE
  5
93A
330
1A
100
AcDbEntity
  8
GUIDE
100
AcDbLine
 10
-502.0
 20
-67.09999999999999
 30
0.0
 11
-502.0
 21
-59.58
 31
0.0
  0
LINE
  5
93B
330
1A
100
AcDbEntity
  8
GUIDE
100
AcDbLine
 10
-515.5
 20
-67.09999999999999
 30
0.0
 11
-515.5
 21
-70.5
 31
0.0
  0
LINE
  5
93C
330
1A
100
AcDbEntity
  8
GUIDE
100
AcDbLine
 10
-509.5
 20
-67.09999999999999
 30
0.0
 11
-509.5
 21
-70.5
 31
0.0
  0
LINE
  5
93D
330
1A
100
AcDbEntity
  8
GUIDE
100
AcDbLine
 10
-492.0
 20
-48.26
 30
0.0
 11
-492.0
 21
-44.5
 31
0.0
  0
LINE
  5
93E
330
1A
100
AcDbEntity
  8
GUIDE
100
AcDbLine
 10
-498.0
 20
-48.26
 30
0.0
 11
-498.0
 21
-44.5
 31
0.0
  0
LINE
  5
93F
330
1A
100
AcDbEntity
  8
GUIDE
100
AcDbLine
 10
-498.0
 20
-70.5
 30
0.0
 11
-498.0
 21
-55.78
 31
0.0
  0
LINE
  5
940
330
1A
100
AcDbEntity
  8
GUIDE
100
AcDbLine
 10
-492.0
 20
-70.5
 30
0.0
 11
-492.0
 21
-55.78
 31
0.0
  0
LINE
  5
941
330
1A
100
AcDbEntity
  8
GUIDE
100
AcDbLine
 10
-484.5
 20
-55.78
 30
0.0
 11
-505.5
 21
-55.78
 31
0.0
  0
LINE
  5
942
330
1A
100
AcDbEntity
  8
GUIDE
100
AcDbLine
 10
-484.5
 20
-48.26
 30
0.0
 11
-505.5
 21
-48.26
 31
0.0
  0
LINE
  5
943
330
1A
100
AcDbEntity
  8
GUIDE
100
AcDbLine
 10
-505.5
 20
-48.26
 30
0.0
 11
-505.5
 21
-55.78
 31
0.0
  0
LINE
  5
944
330
1A
100
AcDbEntity
  8
GUIDE
100
AcDbLine
 10
-484.5
 20
-48.26
 30
0.0
 11
-484.5
 21
-55.78
 31
0.0
  0
LINE
  5
945
330
1A
100
AcDbEntity
  8
GUIDE
100
AcDbLine
 10
-558.0
 20
-67.09999999999999
 30
0.0
 11
-558.0
 21
-59.58
 31
0.0
  0
LINE
  5
946
330
1A
100
AcDbEntity
  8
GUIDE
100
AcDbLine
 10
-537.0
 20
-67.09999999999999
 30
0.0
 11
-558.0
 21
-67.09999999999999
 31
0.0
  0
LINE
  5
947
330
1A
100
AcDbEntity
  8
GUIDE
100
AcDbLine
 10
-537.0
 20
-59.58
 30
0.0
 11
-558.0
 21
-59.58
 31
0.0
  0
LINE
  5
948
330
1A
100
AcDbEntity
  8
GUIDE
100
AcDbLine
 10
-544.5
 20
-44.5
 30
0.0
 11
-544.5
 21
-59.58
 31
0.0
  0
LINE
  5
949
330
1A
100
AcDbEntity
  8
GUIDE
100
AcDbLine
 10
-550.5
 20
-44.5
 30
0.0
 11
-550.5
 21
-59.58
 31
0.0
  0
LINE
  5
94A
330
1A
100
AcDbEntity
  8
GUIDE
100
AcDbLine
 10
-537.0
 20
-67.09999999999999
 30
0.0
 11
-537.0
 21
-59.58
 31
0.0
  0
LINE
  5
94B
330
1A
100
AcDbEntity
  8
GUIDE
100
AcDbLine
 10
-550.5
 20
-67.09999999999999
 30
0.0
 11
-550.5
 21
-70.5
 31
0.0
  0
LINE
  5
94C
330
1A
100
AcDbEntity
  8
GUIDE
100
AcDbLine
 10
-544.5
 20
-67.09999999999999
 30
0.0
 11
-544.5
 21
-70.5
 31
0.0
  0
LINE
  5
94D
330
1A
100
AcDbEntity
  8
GUIDE
100
AcDbLine
 10
-527.0
 20
-48.26
 30
0.0
 11
-527.0
 21
-44.5
 31
0.0
  0
LINE
  5
94E
330
1A
100
AcDbEntity
  8
GUIDE
100
AcDbLine
 10
-533.0
 20
-48.26
 30
0.0
 11
-533.0
 21
-44.5
 31
0.0
  0
LINE
  5
94F
330
1A
100
AcDbEntity
  8
GUIDE
100
AcDbLine
 10
-533.0
 20
-70.5
 30
0.0
 11
-533.0
 21
-55.78
 31
0.0
  0
LINE
  5
950
330
1A
100
AcDbEntity
  8
GUIDE
100
AcDbLine
 10
-527.0
 20
-70.5
 30
0.0
 11
-527.0
 21
-55.78
 31
0.0
  0
LINE
  5
951
330
1A
100
AcDbEntity
  8
GUIDE
100
AcDbLine
 10
-519.5
 20
-55.78
 30
0.0
 11
-540.5
 21
-55.78
 31
0.0
  0
LINE
  5
952
330
1A
100
AcDbEntity
  8
GUIDE
100
AcDbLine
 10
-519.5
 20
-48.26
 30
0.0
 11
-540.5
 21
-48.26
 31
0.0
  0
LINE
  5
953
330
1A
100
AcDbEntity
  8
GUIDE
100
AcDbLine
 10
-540.5
 20
-48.26
 30
0.0
 11
-540.5
 21
-55.78
 31
0.0
  0
LINE
  5
954
330
1A
100
AcDbEntity
  8
GUIDE
100
AcDbLine
 10
-519.5
 20
-48.26
 30
0.0
 11
-519.5
 21
-55.78
 31
0.0
  0
LINE
  5
955
330
1A
100
AcDbEntity
  8
GUIDE
100
AcDbLine
 10
-593.0
 20
-67.09999999999999
 30
0.0
 11
-593.0
 21
-59.58
 31
0.0
  0
LINE
  5
956
330
1A
100
AcDbEntity
  8
GUIDE
100
AcDbLine
 10
-572.0
 20
-67.09999999999999
 30
0.0
 11
-593.0
 21
-67.09999999999999
 31
0.0
  0
LINE
  5
957
330
1A
100
AcDbEntity
  8
GUIDE
100
AcDbLine
 10
-572.0
 20
-59.58
 30
0.0
 11
-593.0
 21
-59.58
 31
0.0
  0
LINE
  5
958
330
1A
100
AcDbEntity
  8
GUIDE
100
AcDbLine
 10
-579.5
 20
-44.5
 30
0.0
 11
-579.5
 21
-59.58
 31
0.0
  0
LINE
  5
959
330
1A
100
AcDbEntity
  8
GUIDE
100
AcDbLine
 10
-585.5
 20
-44.5
 30
0.0
 11
-585.5
 21
-59.58
 31
0.0
  0
LINE
  5
95A
330
1A
100
AcDbEntity
  8
GUIDE
100
AcDbLine
 10
-572.0
 20
-67.09999999999999
 30
0.0
 11
-572.0
 21
-59.58
 31
0.0
  0
LINE
  5
95B
330
1A
100
AcDbEntity
  8
GUIDE
100
AcDbLine
 10
-585.5
 20
-67.09999999999999
 30
0.0
 11
-585.5
 21
-70.5
 31
0.0
  0
LINE
  5
95C
330
1A
100
AcDbEntity
  8
GUIDE
100
AcDbLine
 10
-579.5
 20
-67.09999999999999
 30
0.0
 11
-579.5
 21
-70.5
 31
0.0
  0
LINE
  5
95D
330
1A
100
AcDbEntity
  8
GUIDE
100
AcDbLine
 10
-562.0
 20
-48.26
 30
0.0
 11
-562.0
 21
-44.5
 31
0.0
  0
LINE
  5
95E
330
1A
100
AcDbEntity
  8
GUIDE
100
AcDbLine
 10
-568.0
 20
-48.26
 30
0.0
 11
-568.0
 21
-44.5
 31
0.0
  0
LINE
  5
95F
330
1A
100
AcDbEntity
  8
GUIDE
100
AcDbLine
 10
-568.0
 20
-70.5
 30
0.0
 11
-568.0
 21
-55.78
 31
0.0
  0
LINE
  5
960
330
1A
100
AcDbEntity
  8
GUIDE
100
AcDbLine
 10
-562.0
 20
-70.5
 30
0.0
 11
-562.0
 21
-55.78
 31
0.0
  0
LINE
  5
961
330
1A
100
AcDbEntity
  8
GUIDE
100
AcDbLine
 10
-554.5
 20
-55.78
 30
0.0
 11
-575.5
 21
-55.78
 31
0.0
  0
LINE
  5
962
330
1A
100
AcDbEntity
  8
GUIDE
100
AcDbLine
 10
-554.5
 20
-48.26
 30
0.0
 11
-575.5
 21
-48.26
 31
0.0
  0
LINE
  5
963
330
1A
100
AcDbEntity
  8
GUIDE
100
AcDbLine
 10
-575.5
 20
-48.26
 30
0.0
 11
-575.5
 21
-55.78
 31
0.0
  0
LINE
  5
964
330
1A
100
AcDbEntity
  8
GUIDE
100
AcDbLine
 10
-554.5
 20
-48.26
 30
0.0
 11
-554.5
 21
-55.78
 31
0.0
  0
LINE
  5
965
330
1A
100
AcDbEntity
  8
GUIDE
100
AcDbLine
 10
483.0
 20
-34.5
 30
0.0
 11
483.0
 21
-80.5
 31
0.0
  0
LINE
  5
966
330
1A
100
AcDbEntity
  8
GUIDE
100
AcDbLine
 10
-628.0
 20
-67.09999999999999
 30
0.0
 11
-628.0
 21
-59.58
 31
0.0
  0
LINE
  5
967
330
1A
100
AcDbEntity
  8
GUIDE
100
AcDbLine
 10
-607.0
 20
-59.58
 30
0.0
 11
-628.0
 21
-59.58
 31
0.0
  0
LINE
  5
968
330
1A
100
AcDbEntity
  8
GUIDE
100
AcDbLine
 10
-607.0
 20
-67.09999999999999
 30
0.0
 11
-628.0
 21
-67.09999999999999
 31
0.0
  0
LINE
  5
969
330
1A
100
AcDbEntity
  8
GUIDE
100
AcDbLine
 10
-589.5
 20
-48.26
 30
0.0
 11
-589.5
 21
-55.78
 31
0.0
  0
LINE
  5
96A
330
1A
100
AcDbEntity
  8
GUIDE
100
AcDbLine
 10
-610.5
 20
-48.26
 30
0.0
 11
-610.5
 21
-55.78
 31
0.0
  0
LINE
  5
96B
330
1A
100
AcDbEntity
  8
GUIDE
100
AcDbLine
 10
-589.5
 20
-48.26
 30
0.0
 11
-610.5
 21
-48.26
 31
0.0
  0
LINE
  5
96C
330
1A
100
AcDbEntity
  8
GUIDE
100
AcDbLine
 10
-589.5
 20
-55.78
 30
0.0
 11
-610.5
 21
-55.78
 31
0.0
  0
LINE
  5
96D
330
1A
100
AcDbEntity
  8
GUIDE
100
AcDbLine
 10
-597.0
 20
-70.5
 30
0.0
 11
-597.0
 21
-55.78
 31
0.0
  0
LINE
  5
96E
330
1A
100
AcDbEntity
  8
GUIDE
100
AcDbLine
 10
-603.0
 20
-70.5
 30
0.0
 11
-603.0
 21
-55.78
 31
0.0
  0
LINE
  5
96F
330
1A
100
AcDbEntity
  8
GUIDE
100
AcDbLine
 10
-603.0
 20
-48.26
 30
0.0
 11
-603.0
 21
-44.5
 31
0.0
  0
LINE
  5
970
330
1A
100
AcDbEntity
  8
GUIDE
100
AcDbLine
 10
-597.0
 20
-48.26
 30
0.0
 11
-597.0
 21
-44.5
 31
0.0
  0
LINE
  5
971
330
1A
100
AcDbEntity
  8
GUIDE
100
AcDbLine
 10
-614.5
 20
-67.09999999999999
 30
0.0
 11
-614.5
 21
-70.5
 31
0.0
  0
LINE
  5
972
330
1A
100
AcDbEntity
  8
GUIDE
100
AcDbLine
 10
-620.5
 20
-67.09999999999999
 30
0.0
 11
-620.5
 21
-70.5
 31
0.0
  0
LINE
  5
973
330
1A
100
AcDbEntity
  8
GUIDE
100
AcDbLine
 10
-607.0
 20
-67.09999999999999
 30
0.0
 11
-607.0
 21
-59.58
 31
0.0
  0
LINE
  5
974
330
1A
100
AcDbEntity
  8
GUIDE
100
AcDbLine
 10
-620.5
 20
-44.5
 30
0.0
 11
-620.5
 21
-59.58
 31
0.0
  0
LINE
  5
975
330
1A
100
AcDbEntity
  8
GUIDE
100
AcDbLine
 10
-614.5
 20
-44.5
 30
0.0
 11
-614.5
 21
-59.58
 31
0.0
  0
LINE
  5
976
330
1A
100
AcDbEntity
  8
GUIDE
100
AcDbLine
 10
-663.0
 20
-67.09999999999999
 30
0.0
 11
-663.0
 21
-59.58
 31
0.0
  0
LINE
  5
977
330
1A
100
AcDbEntity
  8
GUIDE
100
AcDbLine
 10
-642.0
 20
-59.58
 30
0.0
 11
-663.0
 21
-59.58
 31
0.0
  0
LINE
  5
978
330
1A
100
AcDbEntity
  8
GUIDE
100
AcDbLine
 10
-642.0
 20
-67.09999999999999
 30
0.0
 11
-663.0
 21
-67.09999999999999
 31
0.0
  0
LINE
  5
979
330
1A
100
AcDbEntity
  8
GUIDE
100
AcDbLine
 10
-624.5
 20
-48.26
 30
0.0
 11
-624.5
 21
-55.78
 31
0.0
  0
LINE
  5
97A
330
1A
100
AcDbEntity
  8
GUIDE
100
AcDbLine
 10
-645.5
 20
-48.26
 30
0.0
 11
-645.5
 21
-55.78
 31
0.0
  0
LINE
  5
97B
330
1A
100
AcDbEntity
  8
GUIDE
100
AcDbLine
 10
-624.5
 20
-48.26
 30
0.0
 11
-645.5
 21
-48.26
 31
0.0
  0
LINE
  5
97C
330
1A
100
AcDbEntity
  8
GUIDE
100
AcDbLine
 10
-624.5
 20
-55.78
 30
0.0
 11
-645.5
 21
-55.78
 31
0.0
  0
LINE
  5
97D
330
1A
100
AcDbEntity
  8
GUIDE
100
AcDbLine
 10
-632.0
 20
-70.5
 30
0.0
 11
-632.0
 21
-55.78
 31
0.0
  0
LINE
  5
97E
330
1A
100
AcDbEntity
  8
GUIDE
100
AcDbLine
 10
-638.0
 20
-70.5
 30
0.0
 11
-638.0
 21
-55.78
 31
0.0
  0
LINE
  5
97F
330
1A
100
AcDbEntity
  8
GUIDE
100
AcDbLine
 10
-638.0
 20
-48.26
 30
0.0
 11
-638.0
 21
-44.5
 31
0.0
  0
LINE
  5
980
330
1A
100
AcDbEntity
  8
GUIDE
100
AcDbLine
 10
-632.0
 20
-48.26
 30
0.0
 11
-632.0
 21
-44.5
 31
0.0
  0
LINE
  5
981
330
1A
100
AcDbEntity
  8
GUIDE
100
AcDbLine
 10
-649.5
 20
-67.09999999999999
 30
0.0
 11
-649.5
 21
-70.5
 31
0.0
  0
LINE
  5
982
330
1A
100
AcDbEntity
  8
GUIDE
100
AcDbLine
 10
-655.5
 20
-67.09999999999999
 30
0.0
 11
-655.5
 21
-70.5
 31
0.0
  0
LINE
  5
983
330
1A
100
AcDbEntity
  8
GUIDE
100
AcDbLine
 10
-642.0
 20
-67.09999999999999
 30
0.0
 11
-642.0
 21
-59.58
 31
0.0
  0
LINE
  5
984
330
1A
100
AcDbEntity
  8
GUIDE
100
AcDbLine
 10
-655.5
 20
-44.5
 30
0.0
 11
-655.5
 21
-59.58
 31
0.0
  0
LINE
  5
985
330
1A
100
AcDbEntity
  8
GUIDE
100
AcDbLine
 10
-649.5
 20
-44.5
 30
0.0
 11
-649.5
 21
-59.58
 31
0.0
  0
LINE
  5
986
330
1A
100
AcDbEntity
  8
GUIDE
100
AcDbLine
 10
-698.0
 20
-67.09999999999999
 30
0.0
 11
-698.0
 21
-59.58
 31
0.0
  0
LINE
  5
987
330
1A
100
AcDbEntity
  8
GUIDE
100
AcDbLine
 10
-677.0
 20
-59.58
 30
0.0
 11
-698.0
 21
-59.58
 31
0.0
  0
LINE
  5
988
330
1A
100
AcDbEntity
  8
GUIDE
100
AcDbLine
 10
-677.0
 20
-67.09999999999999
 30
0.0
 11
-698.0
 21
-67.09999999999999
 31
0.0
  0
LINE
  5
989
330
1A
100
AcDbEntity
  8
GUIDE
100
AcDbLine
 10
-659.5
 20
-48.26
 30
0.0
 11
-659.5
 21
-55.78
 31
0.0
  0
LINE
  5
98A
330
1A
100
AcDbEntity
  8
GUIDE
100
AcDbLine
 10
-680.5
 20
-48.26
 30
0.0
 11
-680.5
 21
-55.78
 31
0.0
  0
LINE
  5
98B
330
1A
100
AcDbEntity
  8
GUIDE
100
AcDbLine
 10
-659.5
 20
-48.26
 30
0.0
 11
-680.5
 21
-48.26
 31
0.0
  0
LINE
  5
98C
330
1A
100
AcDbEntity
  8
GUIDE
100
AcDbLine
 10
-659.5
 20
-55.78
 30
0.0
 11
-680.5
 21
-55.78
 31
0.0
  0
LINE
  5
98D
330
1A
100
AcDbEntity
  8
GUIDE
100
AcDbLine
 10
-667.0
 20
-70.5
 30
0.0
 11
-667.0
 21
-55.78
 31
0.0
  0
LINE
  5
98E
330
1A
100
AcDbEntity
  8
GUIDE
100
AcDbLine
 10
-673.0
 20
-70.5
 30
0.0
 11
-673.0
 21
-55.78
 31
0.0
  0
LINE
  5
98F
330
1A
100
AcDbEntity
  8
GUIDE
100
AcDbLine
 10
-673.0
 20
-48.26
 30
0.0
 11
-673.0
 21
-44.5
 31
0.0
  0
LINE
  5
990
330
1A
100
AcDbEntity
  8
GUIDE
100
AcDbLine
 10
-667.0
 20
-48.26
 30
0.0
 11
-667.0
 21
-44.5
 31
0.0
  0
LINE
  5
991
330
1A
100
AcDbEntity
  8
GUIDE
100
AcDbLine
 10
-684.5
 20
-67.09999999999999
 30
0.0
 11
-684.5
 21
-70.5
 31
0.0
  0
LINE
  5
992
330
1A
100
AcDbEntity
  8
GUIDE
100
AcDbLine
 10
-690.5
 20
-67.09999999999999
 30
0.0
 11
-690.5
 21
-70.5
 31
0.0
  0
LINE
  5
993
330
1A
100
AcDbEntity
  8
GUIDE
100
AcDbLine
 10
-677.0
 20
-67.09999999999999
 30
0.0
 11
-677.0
 21
-59.58
 31
0.0
  0
LINE
  5
994
330
1A
100
AcDbEntity
  8
GUIDE
100
AcDbLine
 10
-690.5
 20
-44.5
 30
0.0
 11
-690.5
 21
-59.58
 31
0.0
  0
LINE
  5
995
330
1A
100
AcDbEntity
  8
GUIDE
100
AcDbLine
 10
-684.5
 20
-44.5
 30
0.0
 11
-684.5
 21
-59.58
 31
0.0
  0
LINE
  5
996
330
1A
100
AcDbEntity
  8
GUIDE
100
AcDbLine
 10
-733.0
 20
-67.09999999999999
 30
0.0
 11
-733.0
 21
-59.58
 31
0.0
  0
LINE
  5
997
330
1A
100
AcDbEntity
  8
GUIDE
100
AcDbLine
 10
-712.0
 20
-59.58
 30
0.0
 11
-733.0
 21
-59.58
 31
0.0
  0
LINE
  5
998
330
1A
100
AcDbEntity
  8
GUIDE
100
AcDbLine
 10
-712.0
 20
-67.09999999999999
 30
0.0
 11
-733.0
 21
-67.09999999999999
 31
0.0
  0
LINE
  5
999
330
1A
100
AcDbEntity
  8
GUIDE
100
AcDbLine
 10
-694.5
 20
-48.26
 30
0.0
 11
-694.5
 21
-55.78
 31
0.0
  0
LINE
  5
99A
330
1A
100
AcDbEntity
  8
GUIDE
100
AcDbLine
 10
-715.5
 20
-48.26
 30
0.0
 11
-715.5
 21
-55.78
 31
0.0
  0
LINE
  5
99B
330
1A
100
AcDbEntity
  8
GUIDE
100
AcDbLine
 10
-694.5
 20
-48.26
 30
0.0
 11
-715.5
 21
-48.26
 31
0.0
  0
LINE
  5
99C
330
1A
100
AcDbEntity
  8
GUIDE
100
AcDbLine
 10
-694.5
 20
-55.78
 30
0.0
 11
-715.5
 21
-55.78
 31
0.0
  0
LINE
  5
99D
330
1A
100
AcDbEntity
  8
GUIDE
100
AcDbLine
 10
-702.0
 20
-70.5
 30
0.0
 11
-702.0
 21
-55.78
 31
0.0
  0
LINE
  5
99E
330
1A
100
AcDbEntity
  8
GUIDE
100
AcDbLine
 10
-708.0
 20
-70.5
 30
0.0
 11
-708.0
 21
-55.78
 31
0.0
  0
LINE
  5
99F
330
1A
100
AcDbEntity
  8
GUIDE
100
AcDbLine
 10
-708.0
 20
-48.26
 30
0.0
 11
-708.0
 21
-44.5
 31
0.0
  0
LINE
  5
9A0
330
1A
100
AcDbEntity
  8
GUIDE
100
AcDbLine
 10
-702.0
 20
-48.26
 30
0.0
 11
-702.0
 21
-44.5
 31
0.0
  0
LINE
  5
9A1
330
1A
100
AcDbEntity
  8
GUIDE
100
AcDbLine
 10
-719.5
 20
-67.09999999999999
 30
0.0
 11
-719.5
 21
-70.5
 31
0.0
  0
LINE
  5
9A2
330
1A
100
AcDbEntity
  8
GUIDE
100
AcDbLine
 10
-725.5
 20
-67.09999999999999
 30
0.0
 11
-725.5
 21
-70.5
 31
0.0
  0
LINE
  5
9A3
330
1A
100
AcDbEntity
  8
GUIDE
100
AcDbLine
 10
-712.0
 20
-67.09999999999999
 30
0.0
 11
-712.0
 21
-59.58
 31
0.0
  0
LINE
  5
9A4
330
1A
100
AcDbEntity
  8
GUIDE
100
AcDbLine
 10
-725.5
 20
-44.5
 30
0.0
 11
-725.5
 21
-59.58
 31
0.0
  0
LINE
  5
9A5
330
1A
100
AcDbEntity
  8
GUIDE
100
AcDbLine
 10
-719.5
 20
-44.5
 30
0.0
 11
-719.5
 21
-59.58
 31
0.0
  0
LINE
  5
9A6
330
1A
100
AcDbEntity
  8
GUIDE
100
AcDbLine
 10
-768.0
 20
-67.09999999999999
 30
0.0
 11
-768.0
 21
-59.58
 31
0.0
  0
LINE
  5
9A7
330
1A
100
AcDbEntity
  8
GUIDE
100
AcDbLine
 10
-747.0
 20
-59.58
 30
0.0
 11
-768.0
 21
-59.58
 31
0.0
  0
LINE
  5
9A8
330
1A
100
AcDbEntity
  8
GUIDE
100
AcDbLine
 10
-747.0
 20
-67.09999999999999
 30
0.0
 11
-768.0
 21
-67.09999999999999
 31
0.0
  0
LINE
  5
9A9
330
1A
100
AcDbEntity
  8
GUIDE
100
AcDbLine
 10
-729.5
 20
-48.26
 30
0.0
 11
-729.5
 21
-55.78
 31
0.0
  0
LINE
  5
9AA
330
1A
100
AcDbEntity
  8
GUIDE
100
AcDbLine
 10
-750.5
 20
-48.26
 30
0.0
 11
-750.5
 21
-55.78
 31
0.0
  0
LINE
  5
9AB
330
1A
100
AcDbEntity
  8
GUIDE
100
AcDbLine
 10
-729.5
 20
-48.26
 30
0.0
 11
-750.5
 21
-48.26
 31
0.0
  0
LINE
  5
9AC
330
1A
100
AcDbEntity
  8
GUIDE
100
AcDbLine
 10
-729.5
 20
-55.78
 30
0.0
 11
-750.5
 21
-55.78
 31
0.0
  0
LINE
  5
9AD
330
1A
100
AcDbEntity
  8
GUIDE
100
AcDbLine
 10
-737.0
 20
-70.5
 30
0.0
 11
-737.0
 21
-55.78
 31
0.0
  0
LINE
  5
9AE
330
1A
100
AcDbEntity
  8
GUIDE
100
AcDbLine
 10
-743.0
 20
-70.5
 30
0.0
 11
-743.0
 21
-55.78
 31
0.0
  0
LINE
  5
9AF
330
1A
100
AcDbEntity
  8
GUIDE
100
AcDbLine
 10
-743.0
 20
-48.26
 30
0.0
 11
-743.0
 21
-44.5
 31
0.0
  0
LINE
  5
9B0
330
1A
100
AcDbEntity
  8
GUIDE
100
AcDbLine
 10
-737.0
 20
-48.26
 30
0.0
 11
-737.0
 21
-44.5
 31
0.0
  0
LINE
  5
9B1
330
1A
100
AcDbEntity
  8
GUIDE
100
AcDbLine
 10
-754.5
 20
-67.09999999999999
 30
0.0
 11
-754.5
 21
-70.5
 31
0.0
  0
LINE
  5
9B2
330
1A
100
AcDbEntity
  8
GUIDE
100
AcDbLine
 10
-760.5
 20
-67.09999999999999
 30
0.0
 11
-760.5
 21
-70.5
 31
0.0
  0
LINE
  5
9B3
330
1A
100
AcDbEntity
  8
GUIDE
100
AcDbLine
 10
-747.0
 20
-67.09999999999999
 30
0.0
 11
-747.0
 21
-59.58
 31
0.0
  0
LINE
  5
9B4
330
1A
100
AcDbEntity
  8
GUIDE
100
AcDbLine
 10
-760.5
 20
-44.5
 30
0.0
 11
-760.5
 21
-59.58
 31
0.0
  0
LINE
  5
9B5
330
1A
100
AcDbEntity
  8
GUIDE
100
AcDbLine
 10
-754.5
 20
-44.5
 30
0.0
 11
-754.5
 21
-59.58
 31
0.0
  0
LINE
  5
9B6
330
1A
100
AcDbEntity
  8
GUIDE
100
AcDbLine
 10
-803.0
 20
-67.09999999999999
 30
0.0
 11
-803.0
 21
-59.58
 31
0.0
  0
LINE
  5
9B7
330
1A
100
AcDbEntity
  8
GUIDE
100
AcDbLine
 10
-782.0
 20
-59.58
 30
0.0
 11
-803.0
 21
-59.58
 31
0.0
  0
LINE
  5
9B8
330
1A
100
AcDbEntity
  8
GUIDE
100
AcDbLine
 10
-782.0
 20
-67.09999999999999
 30
0.0
 11
-803.0
 21
-67.09999999999999
 31
0.0
  0
LINE
  5
9B9
330
1A
100
AcDbEntity
  8
GUIDE
100
AcDbLine
 10
-764.5
 20
-48.26
 30
0.0
 11
-764.5
 21
-55.78
 31
0.0
  0
LINE
  5
9BA
330
1A
100
AcDbEntity
  8
GUIDE
100
AcDbLine
 10
-785.5
 20
-48.26
 30
0.0
 11
-785.5
 21
-55.78
 31
0.0
  0
LINE
  5
9BB
330
1A
100
AcDbEntity
  8
GUIDE
100
AcDbLine
 10
-764.5
 20
-48.26
 30
0.0
 11
-785.5
 21
-48.26
 31
0.0
  0
LINE
  5
9BC
330
1A
100
AcDbEntity
  8
GUIDE
100
AcDbLine
 10
-764.5
 20
-55.78
 30
0.0
 11
-785.5
 21
-55.78
 31
0.0
  0
LINE
  5
9BD
330
1A
100
AcDbEntity
  8
GUIDE
100
AcDbLine
 10
-772.0
 20
-70.5
 30
0.0
 11
-772.0
 21
-55.78
 31
0.0
  0
LINE
  5
9BE
330
1A
100
AcDbEntity
  8
GUIDE
100
AcDbLine
 10
-778.0
 20
-70.5
 30
0.0
 11
-778.0
 21
-55.78
 31
0.0
  0
LINE
  5
9BF
330
1A
100
AcDbEntity
  8
GUIDE
100
AcDbLine
 10
-778.0
 20
-48.26
 30
0.0
 11
-778.0
 21
-44.5
 31
0.0
  0
LINE
  5
9C0
330
1A
100
AcDbEntity
  8
GUIDE
100
AcDbLine
 10
-772.0
 20
-48.26
 30
0.0
 11
-772.0
 21
-44.5
 31
0.0
  0
LINE
  5
9C1
330
1A
100
AcDbEntity
  8
GUIDE
100
AcDbLine
 10
-789.5
 20
-67.09999999999999
 30
0.0
 11
-789.5
 21
-70.5
 31
0.0
  0
LINE
  5
9C2
330
1A
100
AcDbEntity
  8
GUIDE
100
AcDbLine
 10
-795.5
 20
-67.09999999999999
 30
0.0
 11
-795.5
 21
-70.5
 31
0.0
  0
LINE
  5
9C3
330
1A
100
AcDbEntity
  8
GUIDE
100
AcDbLine
 10
-782.0
 20
-67.09999999999999
 30
0.0
 11
-782.0
 21
-59.58
 31
0.0
  0
LINE
  5
9C4
330
1A
100
AcDbEntity
  8
GUIDE
100
AcDbLine
 10
-795.5
 20
-44.5
 30
0.0
 11
-795.5
 21
-59.58
 31
0.0
  0
LINE
  5
9C5
330
1A
100
AcDbEntity
  8
GUIDE
100
AcDbLine
 10
-789.5
 20
-44.5
 30
0.0
 11
-789.5
 21
-59.58
 31
0.0
  0
LINE
  5
9C6
330
1A
100
AcDbEntity
  8
GUIDE
100
AcDbLine
 10
-838.0
 20
-67.09999999999999
 30
0.0
 11
-838.0
 21
-59.58
 31
0.0
  0
LINE
  5
9C7
330
1A
100
AcDbEntity
  8
GUIDE
100
AcDbLine
 10
-817.0
 20
-59.58
 30
0.0
 11
-838.0
 21
-59.58
 31
0.0
  0
LINE
  5
9C8
330
1A
100
AcDbEntity
  8
GUIDE
100
AcDbLine
 10
-817.0
 20
-67.09999999999999
 30
0.0
 11
-838.0
 21
-67.09999999999999
 31
0.0
  0
LINE
  5
9C9
330
1A
100
AcDbEntity
  8
GUIDE
100
AcDbLine
 10
-799.5
 20
-48.26
 30
0.0
 11
-799.5
 21
-55.78
 31
0.0
  0
LINE
  5
9CA
330
1A
100
AcDbEntity
  8
GUIDE
100
AcDbLine
 10
-820.5
 20
-48.26
 30
0.0
 11
-820.5
 21
-55.78
 31
0.0
  0
LINE
  5
9CB
330
1A
100
AcDbEntity
  8
GUIDE
100
AcDbLine
 10
-799.5
 20
-48.26
 30
0.0
 11
-820.5
 21
-48.26
 31
0.0
  0
LINE
  5
9CC
330
1A
100
AcDbEntity
  8
GUIDE
100
AcDbLine
 10
-799.5
 20
-55.78
 30
0.0
 11
-820.5
 21
-55.78
 31
0.0
  0
LINE
  5
9CD
330
1A
100
AcDbEntity
  8
GUIDE
100
AcDbLine
 10
-807.0
 20
-70.5
 30
0.0
 11
-807.0
 21
-55.78
 31
0.0
  0
LINE
  5
9CE
330
1A
100
AcDbEntity
  8
GUIDE
100
AcDbLine
 10
-813.0
 20
-70.5
 30
0.0
 11
-813.0
 21
-55.78
 31
0.0
  0
LINE
  5
9CF
330
1A
100
AcDbEntity
  8
GUIDE
100
AcDbLine
 10
-813.0
 20
-48.26
 30
0.0
 11
-813.0
 21
-44.5
 31
0.0
  0
LINE
  5
9D0
330
1A
100
AcDbEntity
  8
GUIDE
100
AcDbLine
 10
-807.0
 20
-48.26
 30
0.0
 11
-807.0
 21
-44.5
 31
0.0
  0
LINE
  5
9D1
330
1A
100
AcDbEntity
  8
GUIDE
100
AcDbLine
 10
-824.5
 20
-67.09999999999999
 30
0.0
 11
-824.5
 21
-70.5
 31
0.0
  0
LINE
  5
9D2
330
1A
100
AcDbEntity
  8
GUIDE
100
AcDbLine
 10
-830.5
 20
-67.09999999999999
 30
0.0
 11
-830.5
 21
-70.5
 31
0.0
  0
LINE
  5
9D3
330
1A
100
AcDbEntity
  8
GUIDE
100
AcDbLine
 10
-817.0
 20
-67.09999999999999
 30
0.0
 11
-817.0
 21
-59.58
 31
0.0
  0
LINE
  5
9D4
330
1A
100
AcDbEntity
  8
GUIDE
100
AcDbLine
 10
-830.5
 20
-44.5
 30
0.0
 11
-830.5
 21
-59.58
 31
0.0
  0
LINE
  5
9D5
330
1A
100
AcDbEntity
  8
GUIDE
100
AcDbLine
 10
-824.5
 20
-44.5
 30
0.0
 11
-824.5
 21
-59.58
 31
0.0
  0
LINE
  5
9D6
330
1A
100
AcDbEntity
  8
GUIDE
100
AcDbLine
 10
-873.0
 20
-67.09999999999999
 30
0.0
 11
-873.0
 21
-59.58
 31
0.0
  0
LINE
  5
9D7
330
1A
100
AcDbEntity
  8
GUIDE
100
AcDbLine
 10
-852.0
 20
-59.58
 30
0.0
 11
-873.0
 21
-59.58
 31
0.0
  0
LINE
  5
9D8
330
1A
100
AcDbEntity
  8
GUIDE
100
AcDbLine
 10
-852.0
 20
-67.09999999999999
 30
0.0
 11
-873.0
 21
-67.09999999999999
 31
0.0
  0
LINE
  5
9D9
330
1A
100
AcDbEntity
  8
GUIDE
100
AcDbLine
 10
-834.5
 20
-48.26
 30
0.0
 11
-834.5
 21
-55.78
 31
0.0
  0
LINE
  5
9DA
330
1A
100
AcDbEntity
  8
GUIDE
100
AcDbLine
 10
-855.5
 20
-48.26
 30
0.0
 11
-855.5
 21
-55.78
 31
0.0
  0
LINE
  5
9DB
330
1A
100
AcDbEntity
  8
GUIDE
100
AcDbLine
 10
-834.5
 20
-48.26
 30
0.0
 11
-855.5
 21
-48.26
 31
0.0
  0
LINE
  5
9DC
330
1A
100
AcDbEntity
  8
GUIDE
100
AcDbLine
 10
-834.5
 20
-55.78
 30
0.0
 11
-855.5
 21
-55.78
 31
0.0
  0
LINE
  5
9DD
330
1A
100
AcDbEntity
  8
GUIDE
100
AcDbLine
 10
-842.0
 20
-70.5
 30
0.0
 11
-842.0
 21
-55.78
 31
0.0
  0
LINE
  5
9DE
330
1A
100
AcDbEntity
  8
GUIDE
100
AcDbLine
 10
-848.0
 20
-70.5
 30
0.0
 11
-848.0
 21
-55.78
 31
0.0
  0
LINE
  5
9DF
330
1A
100
AcDbEntity
  8
GUIDE
100
AcDbLine
 10
-848.0
 20
-48.26
 30
0.0
 11
-848.0
 21
-44.5
 31
0.0
  0
LINE
  5
9E0
330
1A
100
AcDbEntity
  8
GUIDE
100
AcDbLine
 10
-842.0
 20
-48.26
 30
0.0
 11
-842.0
 21
-44.5
 31
0.0
  0
LINE
  5
9E1
330
1A
100
AcDbEntity
  8
GUIDE
100
AcDbLine
 10
-859.5
 20
-67.09999999999999
 30
0.0
 11
-859.5
 21
-70.5
 31
0.0
  0
LINE
  5
9E2
330
1A
100
AcDbEntity
  8
GUIDE
100
AcDbLine
 10
-865.5
 20
-67.09999999999999
 30
0.0
 11
-865.5
 21
-70.5
 31
0.0
  0
LINE
  5
9E3
330
1A
100
AcDbEntity
  8
GUIDE
100
AcDbLine
 10
-852.0
 20
-67.09999999999999
 30
0.0
 11
-852.0
 21
-59.58
 31
0.0
  0
LINE
  5
9E4
330
1A
100
AcDbEntity
  8
GUIDE
100
AcDbLine
 10
-865.5
 20
-44.5
 30
0.0
 11
-865.5
 21
-59.58
 31
0.0
  0
LINE
  5
9E5
330
1A
100
AcDbEntity
  8
GUIDE
100
AcDbLine
 10
-859.5
 20
-44.5
 30
0.0
 11
-859.5
 21
-59.58
 31
0.0
  0
LINE
  5
9E6
330
1A
100
AcDbEntity
  8
GUIDE
100
AcDbLine
 10
-908.0
 20
-67.09999999999999
 30
0.0
 11
-908.0
 21
-59.58
 31
0.0
  0
LINE
  5
9E7
330
1A
100
AcDbEntity
  8
GUIDE
100
AcDbLine
 10
-887.0
 20
-59.58
 30
0.0
 11
-908.0
 21
-59.58
 31
0.0
  0
LINE
  5
9E8
330
1A
100
AcDbEntity
  8
GUIDE
100
AcDbLine
 10
-887.0
 20
-67.09999999999999
 30
0.0
 11
-908.0
 21
-67.09999999999999
 31
0.0
  0
LINE
  5
9E9
330
1A
100
AcDbEntity
  8
GUIDE
100
AcDbLine
 10
-869.5
 20
-48.26
 30
0.0
 11
-869.5
 21
-55.78
 31
0.0
  0
LINE
  5
9EA
330
1A
100
AcDbEntity
  8
GUIDE
100
AcDbLine
 10
-890.5
 20
-48.26
 30
0.0
 11
-890.5
 21
-55.78
 31
0.0
  0
LINE
  5
9EB
330
1A
100
AcDbEntity
  8
GUIDE
100
AcDbLine
 10
-869.5
 20
-48.26
 30
0.0
 11
-890.5
 21
-48.26
 31
0.0
  0
LINE
  5
9EC
330
1A
100
AcDbEntity
  8
GUIDE
100
AcDbLine
 10
-869.5
 20
-55.78
 30
0.0
 11
-890.5
 21
-55.78
 31
0.0
  0
LINE
  5
9ED
330
1A
100
AcDbEntity
  8
GUIDE
100
AcDbLine
 10
-877.0
 20
-70.5
 30
0.0
 11
-877.0
 21
-55.78
 31
0.0
  0
LINE
  5
9EE
330
1A
100
AcDbEntity
  8
GUIDE
100
AcDbLine
 10
-883.0
 20
-70.5
 30
0.0
 11
-883.0
 21
-55.78
 31
0.0
  0
LINE
  5
9EF
330
1A
100
AcDbEntity
  8
GUIDE
100
AcDbLine
 10
-883.0
 20
-48.26
 30
0.0
 11
-883.0
 21
-44.5
 31
0.0
  0
LINE
  5
9F0
330
1A
100
AcDbEntity
  8
GUIDE
100
AcDbLine
 10
-877.0
 20
-48.26
 30
0.0
 11
-877.0
 21
-44.5
 31
0.0
  0
LINE
  5
9F1
330
1A
100
AcDbEntity
  8
GUIDE
100
AcDbLine
 10
-894.5
 20
-67.09999999999999
 30
0.0
 11
-894.5
 21
-70.5
 31
0.0
  0
LINE
  5
9F2
330
1A
100
AcDbEntity
  8
GUIDE
100
AcDbLine
 10
-900.5
 20
-67.09999999999999
 30
0.0
 11
-900.5
 21
-70.5
 31
0.0
  0
LINE
  5
9F3
330
1A
100
AcDbEntity
  8
GUIDE
100
AcDbLine
 10
-887.0
 20
-67.09999999999999
 30
0.0
 11
-887.0
 21
-59.58
 31
0.0
  0
LINE
  5
9F4
330
1A
100
AcDbEntity
  8
GUIDE
100
AcDbLine
 10
-900.5
 20
-44.5
 30
0.0
 11
-900.5
 21
-59.58
 31
0.0
  0
LINE
  5
9F5
330
1A
100
AcDbEntity
  8
GUIDE
100
AcDbLine
 10
-894.5
 20
-44.5
 30
0.0
 11
-894.5
 21
-59.58
 31
0.0
  0
LINE
  5
9F6
330
1A
100
AcDbEntity
  8
GUIDE
100
AcDbLine
 10
-943.0
 20
-67.09999999999999
 30
0.0
 11
-943.0
 21
-59.58
 31
0.0
  0
LINE
  5
9F7
330
1A
100
AcDbEntity
  8
GUIDE
100
AcDbLine
 10
-922.0
 20
-59.58
 30
0.0
 11
-943.0
 21
-59.58
 31
0.0
  0
LINE
  5
9F8
330
1A
100
AcDbEntity
  8
GUIDE
100
AcDbLine
 10
-922.0
 20
-67.09999999999999
 30
0.0
 11
-943.0
 21
-67.09999999999999
 31
0.0
  0
LINE
  5
9F9
330
1A
100
AcDbEntity
  8
GUIDE
100
AcDbLine
 10
-904.5
 20
-48.26
 30
0.0
 11
-904.5
 21
-55.78
 31
0.0
  0
LINE
  5
9FA
330
1A
100
AcDbEntity
  8
GUIDE
100
AcDbLine
 10
-925.5
 20
-48.26
 30
0.0
 11
-925.5
 21
-55.78
 31
0.0
  0
LINE
  5
9FB
330
1A
100
AcDbEntity
  8
GUIDE
100
AcDbLine
 10
-904.5
 20
-48.26
 30
0.0
 11
-925.5
 21
-48.26
 31
0.0
  0
LINE
  5
9FC
330
1A
100
AcDbEntity
  8
GUIDE
100
AcDbLine
 10
-904.5
 20
-55.78
 30
0.0
 11
-925.5
 21
-55.78
 31
0.0
  0
LINE
  5
9FD
330
1A
100
AcDbEntity
  8
GUIDE
100
AcDbLine
 10
-912.0
 20
-70.5
 30
0.0
 11
-912.0
 21
-55.78
 31
0.0
  0
LINE
  5
9FE
330
1A
100
AcDbEntity
  8
GUIDE
100
AcDbLine
 10
-918.0
 20
-70.5
 30
0.0
 11
-918.0
 21
-55.78
 31
0.0
  0
LINE
  5
9FF
330
1A
100
AcDbEntity
  8
GUIDE
100
AcDbLine
 10
-918.0
 20
-48.26
 30
0.0
 11
-918.0
 21
-44.5
 31
0.0
  0
LINE
  5
A00
330
1A
100
AcDbEntity
  8
GUIDE
100
AcDbLine
 10
-912.0
 20
-48.26
 30
0.0
 11
-912.0
 21
-44.5
 31
0.0
  0
LINE
  5
A01
330
1A
100
AcDbEntity
  8
GUIDE
100
AcDbLine
 10
-929.5
 20
-67.09999999999999
 30
0.0
 11
-929.5
 21
-70.5
 31
0.0
  0
LINE
  5
A02
330
1A
100
AcDbEntity
  8
GUIDE
100
AcDbLine
 10
-935.5
 20
-67.09999999999999
 30
0.0
 11
-935.5
 21
-70.5
 31
0.0
  0
LINE
  5
A03
330
1A
100
AcDbEntity
  8
GUIDE
100
AcDbLine
 10
-922.0
 20
-67.09999999999999
 30
0.0
 11
-922.0
 21
-59.58
 31
0.0
  0
LINE
  5
A04
330
1A
100
AcDbEntity
  8
GUIDE
100
AcDbLine
 10
-935.5
 20
-44.5
 30
0.0
 11
-935.5
 21
-59.58
 31
0.0
  0
LINE
  5
A05
330
1A
100
AcDbEntity
  8
GUIDE
100
AcDbLine
 10
-929.5
 20
-44.5
 30
0.0
 11
-929.5
 21
-59.58
 31
0.0
  0
LINE
  5
A06
330
1A
100
AcDbEntity
  8
GUIDE
100
AcDbLine
 10
-978.0
 20
-67.09999999999999
 30
0.0
 11
-978.0
 21
-59.58
 31
0.0
  0
LINE
  5
A07
330
1A
100
AcDbEntity
  8
GUIDE
100
AcDbLine
 10
-957.0
 20
-59.58
 30
0.0
 11
-978.0
 21
-59.58
 31
0.0
  0
LINE
  5
A08
330
1A
100
AcDbEntity
  8
GUIDE
100
AcDbLine
 10
-957.0
 20
-67.09999999999999
 30
0.0
 11
-978.0
 21
-67.09999999999999
 31
0.0
  0
LINE
  5
A09
330
1A
100
AcDbEntity
  8
GUIDE
100
AcDbLine
 10
-939.5
 20
-48.26
 30
0.0
 11
-939.5
 21
-55.78
 31
0.0
  0
LINE
  5
A0A
330
1A
100
AcDbEntity
  8
GUIDE
100
AcDbLine
 10
-960.5
 20
-48.26
 30
0.0
 11
-960.5
 21
-55.78
 31
0.0
  0
LINE
  5
A0B
330
1A
100
AcDbEntity
  8
GUIDE
100
AcDbLine
 10
-939.5
 20
-48.26
 30
0.0
 11
-960.5
 21
-48.26
 31
0.0
  0
LINE
  5
A0C
330
1A
100
AcDbEntity
  8
GUIDE
100
AcDbLine
 10
-939.5
 20
-55.78
 30
0.0
 11
-960.5
 21
-55.78
 31
0.0
  0
LINE
  5
A0D
330
1A
100
AcDbEntity
  8
GUIDE
100
AcDbLine
 10
-947.0
 20
-70.5
 30
0.0
 11
-947.0
 21
-55.78
 31
0.0
  0
LINE
  5
A0E
330
1A
100
AcDbEntity
  8
GUIDE
100
AcDbLine
 10
-953.0
 20
-70.5
 30
0.0
 11
-953.0
 21
-55.78
 31
0.0
  0
LINE
  5
A0F
330
1A
100
AcDbEntity
  8
GUIDE
100
AcDbLine
 10
-953.0
 20
-48.26
 30
0.0
 11
-953.0
 21
-44.5
 31
0.0
  0
LINE
  5
A10
330
1A
100
AcDbEntity
  8
GUIDE
100
AcDbLine
 10
-947.0
 20
-48.26
 30
0.0
 11
-947.0
 21
-44.5
 31
0.0
  0
LINE
  5
A11
330
1A
100
AcDbEntity
  8
GUIDE
100
AcDbLine
 10
-964.5
 20
-67.09999999999999
 30
0.0
 11
-964.5
 21
-70.5
 31
0.0
  0
LINE
  5
A12
330
1A
100
AcDbEntity
  8
GUIDE
100
AcDbLine
 10
-970.5
 20
-67.09999999999999
 30
0.0
 11
-970.5
 21
-70.5
 31
0.0
  0
LINE
  5
A13
330
1A
100
AcDbEntity
  8
GUIDE
100
AcDbLine
 10
-957.0
 20
-67.09999999999999
 30
0.0
 11
-957.0
 21
-59.58
 31
0.0
  0
LINE
  5
A14
330
1A
100
AcDbEntity
  8
GUIDE
100
AcDbLine
 10
-970.5
 20
-44.5
 30
0.0
 11
-970.5
 21
-59.58
 31
0.0
  0
LINE
  5
A15
330
1A
100
AcDbEntity
  8
GUIDE
100
AcDbLine
 10
-964.5
 20
-44.5
 30
0.0
 11
-964.5
 21
-59.58
 31
0.0
  0
LINE
  5
A16
330
1A
100
AcDbEntity
  8
GUIDE
100
AcDbLine
 10
-1013.0
 20
-67.09999999999999
 30
0.0
 11
-1013.0
 21
-59.58
 31
0.0
  0
LINE
  5
A17
330
1A
100
AcDbEntity
  8
GUIDE
100
AcDbLine
 10
-992.0
 20
-59.58
 30
0.0
 11
-1013.0
 21
-59.58
 31
0.0
  0
LINE
  5
A18
330
1A
100
AcDbEntity
  8
GUIDE
100
AcDbLine
 10
-992.0
 20
-67.09999999999999
 30
0.0
 11
-1013.0
 21
-67.09999999999999
 31
0.0
  0
LINE
  5
A19
330
1A
100
AcDbEntity
  8
GUIDE
100
AcDbLine
 10
-974.5
 20
-48.26
 30
0.0
 11
-974.5
 21
-55.78
 31
0.0
  0
LINE
  5
A1A
330
1A
100
AcDbEntity
  8
GUIDE
100
AcDbLine
 10
-995.5
 20
-48.26
 30
0.0
 11
-995.5
 21
-55.78
 31
0.0
  0
LINE
  5
A1B
330
1A
100
AcDbEntity
  8
GUIDE
100
AcDbLine
 10
-974.5
 20
-48.26
 30
0.0
 11
-995.5
 21
-48.26
 31
0.0
  0
LINE
  5
A1C
330
1A
100
AcDbEntity
  8
GUIDE
100
AcDbLine
 10
-974.5
 20
-55.78
 30
0.0
 11
-995.5
 21
-55.78
 31
0.0
  0
LINE
  5
A1D
330
1A
100
AcDbEntity
  8
GUIDE
100
AcDbLine
 10
-982.0
 20
-70.5
 30
0.0
 11
-982.0
 21
-55.78
 31
0.0
  0
LINE
  5
A1E
330
1A
100
AcDbEntity
  8
GUIDE
100
AcDbLine
 10
-988.0
 20
-70.5
 30
0.0
 11
-988.0
 21
-55.78
 31
0.0
  0
LINE
  5
A1F
330
1A
100
AcDbEntity
  8
GUIDE
100
AcDbLine
 10
-988.0
 20
-48.26
 30
0.0
 11
-988.0
 21
-44.5
 31
0.0
  0
LINE
  5
A20
330
1A
100
AcDbEntity
  8
GUIDE
100
AcDbLine
 10
-982.0
 20
-48.26
 30
0.0
 11
-982.0
 21
-44.5
 31
0.0
  0
LINE
  5
A21
330
1A
100
AcDbEntity
  8
GUIDE
100
AcDbLine
 10
-999.5
 20
-67.09999999999999
 30
0.0
 11
-999.5
 21
-70.5
 31
0.0
  0
LINE
  5
A22
330
1A
100
AcDbEntity
  8
GUIDE
100
AcDbLine
 10
-1005.5
 20
-67.09999999999999
 30
0.0
 11
-1005.5
 21
-70.5
 31
0.0
  0
LINE
  5
A23
330
1A
100
AcDbEntity
  8
GUIDE
100
AcDbLine
 10
-992.0
 20
-67.09999999999999
 30
0.0
 11
-992.0
 21
-59.58
 31
0.0
  0
LINE
  5
A24
330
1A
100
AcDbEntity
  8
GUIDE
100
AcDbLine
 10
-1005.5
 20
-44.5
 30
0.0
 11
-1005.5
 21
-59.58
 31
0.0
  0
LINE
  5
A25
330
1A
100
AcDbEntity
  8
GUIDE
100
AcDbLine
 10
-999.5
 20
-44.5
 30
0.0
 11
-999.5
 21
-59.58
 31
0.0
  0
LINE
  5
A26
330
1A
100
AcDbEntity
  8
GUIDE
100
AcDbLine
 10
-1048.0
 20
-67.09999999999999
 30
0.0
 11
-1048.0
 21
-59.58
 31
0.0
  0
LINE
  5
A27
330
1A
100
AcDbEntity
  8
GUIDE
100
AcDbLine
 10
-1027.0
 20
-59.58
 30
0.0
 11
-1048.0
 21
-59.58
 31
0.0
  0
LINE
  5
A28
330
1A
100
AcDbEntity
  8
GUIDE
100
AcDbLine
 10
-1027.0
 20
-67.09999999999999
 30
0.0
 11
-1048.0
 21
-67.09999999999999
 31
0.0
  0
LINE
  5
A29
330
1A
100
AcDbEntity
  8
GUIDE
100
AcDbLine
 10
-1009.5
 20
-48.26
 30
0.0
 11
-1009.5
 21
-55.78
 31
0.0
  0
LINE
  5
A2A
330
1A
100
AcDbEntity
  8
GUIDE
100
AcDbLine
 10
-1030.5
 20
-48.26
 30
0.0
 11
-1030.5
 21
-55.78
 31
0.0
  0
LINE
  5
A2B
330
1A
100
AcDbEntity
  8
GUIDE
100
AcDbLine
 10
-1009.5
 20
-48.26
 30
0.0
 11
-1030.5
 21
-48.26
 31
0.0
  0
LINE
  5
A2C
330
1A
100
AcDbEntity
  8
GUIDE
100
AcDbLine
 10
-1009.5
 20
-55.78
 30
0.0
 11
-1030.5
 21
-55.78
 31
0.0
  0
LINE
  5
A2D
330
1A
100
AcDbEntity
  8
GUIDE
100
AcDbLine
 10
-1017.0
 20
-70.5
 30
0.0
 11
-1017.0
 21
-55.78
 31
0.0
  0
LINE
  5
A2E
330
1A
100
AcDbEntity
  8
GUIDE
100
AcDbLine
 10
-1023.0
 20
-70.5
 30
0.0
 11
-1023.0
 21
-55.78
 31
0.0
  0
LINE
  5
A2F
330
1A
100
AcDbEntity
  8
GUIDE
100
AcDbLine
 10
-1023.0
 20
-48.26
 30
0.0
 11
-1023.0
 21
-44.5
 31
0.0
  0
LINE
  5
A30
330
1A
100
AcDbEntity
  8
GUIDE
100
AcDbLine
 10
-1017.0
 20
-48.26
 30
0.0
 11
-1017.0
 21
-44.5
 31
0.0
  0
LINE
  5
A31
330
1A
100
AcDbEntity
  8
GUIDE
100
AcDbLine
 10
-1034.5
 20
-67.09999999999999
 30
0.0
 11
-1034.5
 21
-70.5
 31
0.0
  0
LINE
  5
A32
330
1A
100
AcDbEntity
  8
GUIDE
100
AcDbLine
 10
-1040.5
 20
-67.09999999999999
 30
0.0
 11
-1040.5
 21
-70.5
 31
0.0
  0
LINE
  5
A33
330
1A
100
AcDbEntity
  8
GUIDE
100
AcDbLine
 10
-1027.0
 20
-67.09999999999999
 30
0.0
 11
-1027.0
 21
-59.58
 31
0.0
  0
LINE
  5
A34
330
1A
100
AcDbEntity
  8
GUIDE
100
AcDbLine
 10
-1040.5
 20
-44.5
 30
0.0
 11
-1040.5
 21
-59.58
 31
0.0
  0
LINE
  5
A35
330
1A
100
AcDbEntity
  8
GUIDE
100
AcDbLine
 10
-1034.5
 20
-44.5
 30
0.0
 11
-1034.5
 21
-59.58
 31
0.0
  0
LINE
  5
A36
330
1A
100
AcDbEntity
  8
GUIDE
100
AcDbLine
 10
-1083.0
 20
-67.09999999999999
 30
0.0
 11
-1083.0
 21
-59.58
 31
0.0
  0
LINE
  5
A37
330
1A
100
AcDbEntity
  8
GUIDE
100
AcDbLine
 10
-1062.0
 20
-59.58
 30
0.0
 11
-1083.0
 21
-59.58
 31
0.0
  0
LINE
  5
A38
330
1A
100
AcDbEntity
  8
GUIDE
100
AcDbLine
 10
-1062.0
 20
-67.09999999999999
 30
0.0
 11
-1083.0
 21
-67.09999999999999
 31
0.0
  0
LINE
  5
A39
330
1A
100
AcDbEntity
  8
GUIDE
100
AcDbLine
 10
-1044.5
 20
-48.26
 30
0.0
 11
-1044.5
 21
-55.78
 31
0.0
  0
LINE
  5
A3A
330
1A
100
AcDbEntity
  8
GUIDE
100
AcDbLine
 10
-1065.5
 20
-48.26
 30
0.0
 11
-1065.5
 21
-55.78
 31
0.0
  0
LINE
  5
A3B
330
1A
100
AcDbEntity
  8
GUIDE
100
AcDbLine
 10
-1044.5
 20
-48.26
 30
0.0
 11
-1065.5
 21
-48.26
 31
0.0
  0
LINE
  5
A3C
330
1A
100
AcDbEntity
  8
GUIDE
100
AcDbLine
 10
-1044.5
 20
-55.78
 30
0.0
 11
-1065.5
 21
-55.78
 31
0.0
  0
LINE
  5
A3D
330
1A
100
AcDbEntity
  8
GUIDE
100
AcDbLine
 10
-1052.0
 20
-70.5
 30
0.0
 11
-1052.0
 21
-55.78
 31
0.0
  0
LINE
  5
A3E
330
1A
100
AcDbEntity
  8
GUIDE
100
AcDbLine
 10
-1058.0
 20
-70.5
 30
0.0
 11
-1058.0
 21
-55.78
 31
0.0
  0
LINE
  5
A3F
330
1A
100
AcDbEntity
  8
GUIDE
100
AcDbLine
 10
-1058.0
 20
-48.26
 30
0.0
 11
-1058.0
 21
-44.5
 31
0.0
  0
LINE
  5
A40
330
1A
100
AcDbEntity
  8
GUIDE
100
AcDbLine
 10
-1052.0
 20
-48.26
 30
0.0
 11
-1052.0
 21
-44.5
 31
0.0
  0
LINE
  5
A41
330
1A
100
AcDbEntity
  8
GUIDE
100
AcDbLine
 10
-1069.5
 20
-67.09999999999999
 30
0.0
 11
-1069.5
 21
-70.5
 31
0.0
  0
LINE
  5
A42
330
1A
100
AcDbEntity
  8
GUIDE
100
AcDbLine
 10
-1075.5
 20
-67.09999999999999
 30
0.0
 11
-1075.5
 21
-70.5
 31
0.0
  0
LINE
  5
A43
330
1A
100
AcDbEntity
  8
GUIDE
100
AcDbLine
 10
-1062.0
 20
-67.09999999999999
 30
0.0
 11
-1062.0
 21
-59.58
 31
0.0
  0
LINE
  5
A44
330
1A
100
AcDbEntity
  8
GUIDE
100
AcDbLine
 10
-1075.5
 20
-44.5
 30
0.0
 11
-1075.5
 21
-59.58
 31
0.0
  0
LINE
  5
A45
330
1A
100
AcDbEntity
  8
GUIDE
100
AcDbLine
 10
-1069.5
 20
-44.5
 30
0.0
 11
-1069.5
 21
-59.58
 31
0.0
  0
LINE
  5
A46
330
1A
100
AcDbEntity
  8
GUIDE
100
AcDbLine
 10
-1118.0
 20
-67.09999999999999
 30
0.0
 11
-1118.0
 21
-59.58
 31
0.0
  0
LINE
  5
A47
330
1A
100
AcDbEntity
  8
GUIDE
100
AcDbLine
 10
-1097.0
 20
-59.58
 30
0.0
 11
-1118.0
 21
-59.58
 31
0.0
  0
LINE
  5
A48
330
1A
100
AcDbEntity
  8
GUIDE
100
AcDbLine
 10
-1097.0
 20
-67.09999999999999
 30
0.0
 11
-1118.0
 21
-67.09999999999999
 31
0.0
  0
LINE
  5
A49
330
1A
100
AcDbEntity
  8
GUIDE
100
AcDbLine
 10
-1079.5
 20
-48.26
 30
0.0
 11
-1079.5
 21
-55.78
 31
0.0
  0
LINE
  5
A4A
330
1A
100
AcDbEntity
  8
GUIDE
100
AcDbLine
 10
-1100.5
 20
-48.26
 30
0.0
 11
-1100.5
 21
-55.78
 31
0.0
  0
LINE
  5
A4B
330
1A
100
AcDbEntity
  8
GUIDE
100
AcDbLine
 10
-1079.5
 20
-48.26
 30
0.0
 11
-1100.5
 21
-48.26
 31
0.0
  0
LINE
  5
A4C
330
1A
100
AcDbEntity
  8
GUIDE
100
AcDbLine
 10
-1079.5
 20
-55.78
 30
0.0
 11
-1100.5
 21
-55.78
 31
0.0
  0
LINE
  5
A4D
330
1A
100
AcDbEntity
  8
GUIDE
100
AcDbLine
 10
-1087.0
 20
-70.5
 30
0.0
 11
-1087.0
 21
-55.78
 31
0.0
  0
LINE
  5
A4E
330
1A
100
AcDbEntity
  8
GUIDE
100
AcDbLine
 10
-1093.0
 20
-70.5
 30
0.0
 11
-1093.0
 21
-55.78
 31
0.0
  0
LINE
  5
A4F
330
1A
100
AcDbEntity
  8
GUIDE
100
AcDbLine
 10
-1093.0
 20
-48.26
 30
0.0
 11
-1093.0
 21
-44.5
 31
0.0
  0
LINE
  5
A50
330
1A
100
AcDbEntity
  8
GUIDE
100
AcDbLine
 10
-1087.0
 20
-48.26
 30
0.0
 11
-1087.0
 21
-44.5
 31
0.0
  0
LINE
  5
A51
330
1A
100
AcDbEntity
  8
GUIDE
100
AcDbLine
 10
-1104.5
 20
-67.09999999999999
 30
0.0
 11
-1104.5
 21
-70.5
 31
0.0
  0
LINE
  5
A52
330
1A
100
AcDbEntity
  8
GUIDE
100
AcDbLine
 10
-1110.5
 20
-67.09999999999999
 30
0.0
 11
-1110.5
 21
-70.5
 31
0.0
  0
LINE
  5
A53
330
1A
100
AcDbEntity
  8
GUIDE
100
AcDbLine
 10
-1097.0
 20
-67.09999999999999
 30
0.0
 11
-1097.0
 21
-59.58
 31
0.0
  0
LINE
  5
A54
330
1A
100
AcDbEntity
  8
GUIDE
100
AcDbLine
 10
-1110.5
 20
-44.5
 30
0.0
 11
-1110.5
 21
-59.58
 31
0.0
  0
LINE
  5
A55
330
1A
100
AcDbEntity
  8
GUIDE
100
AcDbLine
 10
-1104.5
 20
-44.5
 30
0.0
 11
-1104.5
 21
-59.58
 31
0.0
  0
LINE
  5
A56
330
1A
100
AcDbEntity
  8
GUIDE
100
AcDbLine
 10
-1153.0
 20
-67.09999999999999
 30
0.0
 11
-1153.0
 21
-59.58
 31
0.0
  0
LINE
  5
A57
330
1A
100
AcDbEntity
  8
GUIDE
100
AcDbLine
 10
-1132.0
 20
-59.58
 30
0.0
 11
-1153.0
 21
-59.58
 31
0.0
  0
LINE
  5
A58
330
1A
100
AcDbEntity
  8
GUIDE
100
AcDbLine
 10
-1132.0
 20
-67.09999999999999
 30
0.0
 11
-1153.0
 21
-67.09999999999999
 31
0.0
  0
LINE
  5
A59
330
1A
100
AcDbEntity
  8
GUIDE
100
AcDbLine
 10
-1114.5
 20
-48.26
 30
0.0
 11
-1114.5
 21
-55.78
 31
0.0
  0
LINE
  5
A5A
330
1A
100
AcDbEntity
  8
GUIDE
100
AcDbLine
 10
-1135.5
 20
-48.26
 30
0.0
 11
-1135.5
 21
-55.78
 31
0.0
  0
LINE
  5
A5B
330
1A
100
AcDbEntity
  8
GUIDE
100
AcDbLine
 10
-1114.5
 20
-48.26
 30
0.0
 11
-1135.5
 21
-48.26
 31
0.0
  0
LINE
  5
A5C
330
1A
100
AcDbEntity
  8
GUIDE
100
AcDbLine
 10
-1114.5
 20
-55.78
 30
0.0
 11
-1135.5
 21
-55.78
 31
0.0
  0
LINE
  5
A5D
330
1A
100
AcDbEntity
  8
GUIDE
100
AcDbLine
 10
-1122.0
 20
-70.5
 30
0.0
 11
-1122.0
 21
-55.78
 31
0.0
  0
LINE
  5
A5E
330
1A
100
AcDbEntity
  8
GUIDE
100
AcDbLine
 10
-1128.0
 20
-70.5
 30
0.0
 11
-1128.0
 21
-55.78
 31
0.0
  0
LINE
  5
A5F
330
1A
100
AcDbEntity
  8
GUIDE
100
AcDbLine
 10
-1128.0
 20
-48.26
 30
0.0
 11
-1128.0
 21
-44.5
 31
0.0
  0
LINE
  5
A60
330
1A
100
AcDbEntity
  8
GUIDE
100
AcDbLine
 10
-1122.0
 20
-48.26
 30
0.0
 11
-1122.0
 21
-44.5
 31
0.0
  0
LINE
  5
A61
330
1A
100
AcDbEntity
  8
GUIDE
100
AcDbLine
 10
-1139.5
 20
-67.09999999999999
 30
0.0
 11
-1139.5
 21
-70.5
 31
0.0
  0
LINE
  5
A62
330
1A
100
AcDbEntity
  8
GUIDE
100
AcDbLine
 10
-1145.5
 20
-67.09999999999999
 30
0.0
 11
-1145.5
 21
-70.5
 31
0.0
  0
LINE
  5
A63
330
1A
100
AcDbEntity
  8
GUIDE
100
AcDbLine
 10
-1132.0
 20
-67.09999999999999
 30
0.0
 11
-1132.0
 21
-59.58
 31
0.0
  0
LINE
  5
A64
330
1A
100
AcDbEntity
  8
GUIDE
100
AcDbLine
 10
-1145.5
 20
-44.5
 30
0.0
 11
-1145.5
 21
-59.58
 31
0.0
  0
LINE
  5
A65
330
1A
100
AcDbEntity
  8
GUIDE
100
AcDbLine
 10
-1139.5
 20
-44.5
 30
0.0
 11
-1139.5
 21
-59.58
 31
0.0
  0
LINE
  5
A66
330
1A
100
AcDbEntity
  8
GUIDE
100
AcDbLine
 10
-1188.0
 20
-67.09999999999999
 30
0.0
 11
-1188.0
 21
-59.58
 31
0.0
  0
LINE
  5
A67
330
1A
100
AcDbEntity
  8
GUIDE
100
AcDbLine
 10
-1167.0
 20
-59.58
 30
0.0
 11
-1188.0
 21
-59.58
 31
0.0
  0
LINE
  5
A68
330
1A
100
AcDbEntity
  8
GUIDE
100
AcDbLine
 10
-1167.0
 20
-67.09999999999999
 30
0.0
 11
-1188.0
 21
-67.09999999999999
 31
0.0
  0
LINE
  5
A69
330
1A
100
AcDbEntity
  8
GUIDE
100
AcDbLine
 10
-1149.5
 20
-48.26
 30
0.0
 11
-1149.5
 21
-55.78
 31
0.0
  0
LINE
  5
A6A
330
1A
100
AcDbEntity
  8
GUIDE
100
AcDbLine
 10
-1170.5
 20
-48.26
 30
0.0
 11
-1170.5
 21
-55.78
 31
0.0
  0
LINE
  5
A6B
330
1A
100
AcDbEntity
  8
GUIDE
100
AcDbLine
 10
-1149.5
 20
-48.26
 30
0.0
 11
-1170.5
 21
-48.26
 31
0.0
  0
LINE
  5
A6C
330
1A
100
AcDbEntity
  8
GUIDE
100
AcDbLine
 10
-1149.5
 20
-55.78
 30
0.0
 11
-1170.5
 21
-55.78
 31
0.0
  0
LINE
  5
A6D
330
1A
100
AcDbEntity
  8
GUIDE
100
AcDbLine
 10
-1157.0
 20
-70.5
 30
0.0
 11
-1157.0
 21
-55.78
 31
0.0
  0
LINE
  5
A6E
330
1A
100
AcDbEntity
  8
GUIDE
100
AcDbLine
 10
-1163.0
 20
-70.5
 30
0.0
 11
-1163.0
 21
-55.78
 31
0.0
  0
LINE
  5
A6F
330
1A
100
AcDbEntity
  8
GUIDE
100
AcDbLine
 10
-1163.0
 20
-48.26
 30
0.0
 11
-1163.0
 21
-44.5
 31
0.0
  0
LINE
  5
A70
330
1A
100
AcDbEntity
  8
GUIDE
100
AcDbLine
 10
-1157.0
 20
-48.26
 30
0.0
 11
-1157.0
 21
-44.5
 31
0.0
  0
LINE
  5
A71
330
1A
100
AcDbEntity
  8
GUIDE
100
AcDbLine
 10
-1174.5
 20
-67.09999999999999
 30
0.0
 11
-1174.5
 21
-70.5
 31
0.0
  0
LINE
  5
A72
330
1A
100
AcDbEntity
  8
GUIDE
100
AcDbLine
 10
-1180.5
 20
-67.09999999999999
 30
0.0
 11
-1180.5
 21
-70.5
 31
0.0
  0
LINE
  5
A73
330
1A
100
AcDbEntity
  8
GUIDE
100
AcDbLine
 10
-1167.0
 20
-67.09999999999999
 30
0.0
 11
-1167.0
 21
-59.58
 31
0.0
  0
LINE
  5
A74
330
1A
100
AcDbEntity
  8
GUIDE
100
AcDbLine
 10
-1180.5
 20
-44.5
 30
0.0
 11
-1180.5
 21
-59.58
 31
0.0
  0
LINE
  5
A75
330
1A
100
AcDbEntity
  8
GUIDE
100
AcDbLine
 10
-1174.5
 20
-44.5
 30
0.0
 11
-1174.5
 21
-59.58
 31
0.0
  0
LINE
  5
A76
330
1A
100
AcDbEntity
  8
GUIDE
100
AcDbLine
 10
-1223.0
 20
-67.09999999999999
 30
0.0
 11
-1223.0
 21
-59.58
 31
0.0
  0
LINE
  5
A77
330
1A
100
AcDbEntity
  8
GUIDE
100
AcDbLine
 10
-1202.0
 20
-59.58
 30
0.0
 11
-1223.0
 21
-59.58
 31
0.0
  0
LINE
  5
A78
330
1A
100
AcDbEntity
  8
GUIDE
100
AcDbLine
 10
-1202.0
 20
-67.09999999999999
 30
0.0
 11
-1223.0
 21
-67.09999999999999
 31
0.0
  0
LINE
  5
A79
330
1A
100
AcDbEntity
  8
GUIDE
100
AcDbLine
 10
-1184.5
 20
-48.26
 30
0.0
 11
-1184.5
 21
-55.78
 31
0.0
  0
LINE
  5
A7A
330
1A
100
AcDbEntity
  8
GUIDE
100
AcDbLine
 10
-1205.5
 20
-48.26
 30
0.0
 11
-1205.5
 21
-55.78
 31
0.0
  0
LINE
  5
A7B
330
1A
100
AcDbEntity
  8
GUIDE
100
AcDbLine
 10
-1184.5
 20
-48.26
 30
0.0
 11
-1205.5
 21
-48.26
 31
0.0
  0
LINE
  5
A7C
330
1A
100
AcDbEntity
  8
GUIDE
100
AcDbLine
 10
-1184.5
 20
-55.78
 30
0.0
 11
-1205.5
 21
-55.78
 31
0.0
  0
LINE
  5
A7D
330
1A
100
AcDbEntity
  8
GUIDE
100
AcDbLine
 10
-1192.0
 20
-70.5
 30
0.0
 11
-1192.0
 21
-55.78
 31
0.0
  0
LINE
  5
A7E
330
1A
100
AcDbEntity
  8
GUIDE
100
AcDbLine
 10
-1198.0
 20
-70.5
 30
0.0
 11
-1198.0
 21
-55.78
 31
0.0
  0
LINE
  5
A7F
330
1A
100
AcDbEntity
  8
GUIDE
100
AcDbLine
 10
-1198.0
 20
-48.26
 30
0.0
 11
-1198.0
 21
-44.5
 31
0.0
  0
LINE
  5
A80
330
1A
100
AcDbEntity
  8
GUIDE
100
AcDbLine
 10
-1192.0
 20
-48.26
 30
0.0
 11
-1192.0
 21
-44.5
 31
0.0
  0
LINE
  5
A81
330
1A
100
AcDbEntity
  8
GUIDE
100
AcDbLine
 10
-1209.5
 20
-67.09999999999999
 30
0.0
 11
-1209.5
 21
-70.5
 31
0.0
  0
LINE
  5
A82
330
1A
100
AcDbEntity
  8
GUIDE
100
AcDbLine
 10
-1215.5
 20
-67.09999999999999
 30
0.0
 11
-1215.5
 21
-70.5
 31
0.0
  0
LINE
  5
A83
330
1A
100
AcDbEntity
  8
GUIDE
100
AcDbLine
 10
-1202.0
 20
-67.09999999999999
 30
0.0
 11
-1202.0
 21
-59.58
 31
0.0
  0
LINE
  5
A84
330
1A
100
AcDbEntity
  8
GUIDE
100
AcDbLine
 10
-1215.5
 20
-44.5
 30
0.0
 11
-1215.5
 21
-59.58
 31
0.0
  0
LINE
  5
A85
330
1A
100
AcDbEntity
  8
GUIDE
100
AcDbLine
 10
-1209.5
 20
-44.5
 30
0.0
 11
-1209.5
 21
-59.58
 31
0.0
  0
LINE
  5
A86
330
1A
100
AcDbEntity
  8
GUIDE
100
AcDbLine
 10
-1258.0
 20
-67.09999999999999
 30
0.0
 11
-1258.0
 21
-59.58
 31
0.0
  0
LINE
  5
A87
330
1A
100
AcDbEntity
  8
GUIDE
100
AcDbLine
 10
-1237.0
 20
-59.58
 30
0.0
 11
-1258.0
 21
-59.58
 31
0.0
  0
LINE
  5
A88
330
1A
100
AcDbEntity
  8
GUIDE
100
AcDbLine
 10
-1237.0
 20
-67.09999999999999
 30
0.0
 11
-1258.0
 21
-67.09999999999999
 31
0.0
  0
LINE
  5
A89
330
1A
100
AcDbEntity
  8
GUIDE
100
AcDbLine
 10
-1219.5
 20
-48.26
 30
0.0
 11
-1219.5
 21
-55.78
 31
0.0
  0
LINE
  5
A8A
330
1A
100
AcDbEntity
  8
GUIDE
100
AcDbLine
 10
-1240.5
 20
-48.26
 30
0.0
 11
-1240.5
 21
-55.78
 31
0.0
  0
LINE
  5
A8B
330
1A
100
AcDbEntity
  8
GUIDE
100
AcDbLine
 10
-1219.5
 20
-48.26
 30
0.0
 11
-1240.5
 21
-48.26
 31
0.0
  0
LINE
  5
A8C
330
1A
100
AcDbEntity
  8
GUIDE
100
AcDbLine
 10
-1219.5
 20
-55.78
 30
0.0
 11
-1240.5
 21
-55.78
 31
0.0
  0
LINE
  5
A8D
330
1A
100
AcDbEntity
  8
GUIDE
100
AcDbLine
 10
-1227.0
 20
-70.5
 30
0.0
 11
-1227.0
 21
-55.78
 31
0.0
  0
LINE
  5
A8E
330
1A
100
AcDbEntity
  8
GUIDE
100
AcDbLine
 10
-1233.0
 20
-70.5
 30
0.0
 11
-1233.0
 21
-55.78
 31
0.0
  0
LINE
  5
A8F
330
1A
100
AcDbEntity
  8
GUIDE
100
AcDbLine
 10
-1233.0
 20
-48.26
 30
0.0
 11
-1233.0
 21
-44.5
 31
0.0
  0
LINE
  5
A90
330
1A
100
AcDbEntity
  8
GUIDE
100
AcDbLine
 10
-1227.0
 20
-48.26
 30
0.0
 11
-1227.0
 21
-44.5
 31
0.0
  0
LINE
  5
A91
330
1A
100
AcDbEntity
  8
GUIDE
100
AcDbLine
 10
-1244.5
 20
-67.09999999999999
 30
0.0
 11
-1244.5
 21
-70.5
 31
0.0
  0
LINE
  5
A92
330
1A
100
AcDbEntity
  8
GUIDE
100
AcDbLine
 10
-1250.5
 20
-67.09999999999999
 30
0.0
 11
-1250.5
 21
-70.5
 31
0.0
  0
LINE
  5
A93
330
1A
100
AcDbEntity
  8
GUIDE
100
AcDbLine
 10
-1237.0
 20
-67.09999999999999
 30
0.0
 11
-1237.0
 21
-59.58
 31
0.0
  0
LINE
  5
A94
330
1A
100
AcDbEntity
  8
GUIDE
100
AcDbLine
 10
-1250.5
 20
-44.5
 30
0.0
 11
-1250.5
 21
-59.58
 31
0.0
  0
LINE
  5
A95
330
1A
100
AcDbEntity
  8
GUIDE
100
AcDbLine
 10
-1244.5
 20
-44.5
 30
0.0
 11
-1244.5
 21
-59.58
 31
0.0
  0
LINE
  5
A96
330
1A
100
AcDbEntity
  8
GUIDE
100
AcDbLine
 10
-1293.0
 20
-67.09999999999999
 30
0.0
 11
-1293.0
 21
-59.58
 31
0.0
  0
LINE
  5
A97
330
1A
100
AcDbEntity
  8
GUIDE
100
AcDbLine
 10
-1272.0
 20
-59.58
 30
0.0
 11
-1293.0
 21
-59.58
 31
0.0
  0
LINE
  5
A98
330
1A
100
AcDbEntity
  8
GUIDE
100
AcDbLine
 10
-1272.0
 20
-67.09999999999999
 30
0.0
 11
-1293.0
 21
-67.09999999999999
 31
0.0
  0
LINE
  5
A99
330
1A
100
AcDbEntity
  8
GUIDE
100
AcDbLine
 10
-1254.5
 20
-48.26
 30
0.0
 11
-1254.5
 21
-55.78
 31
0.0
  0
LINE
  5
A9A
330
1A
100
AcDbEntity
  8
GUIDE
100
AcDbLine
 10
-1275.5
 20
-48.26
 30
0.0
 11
-1275.5
 21
-55.78
 31
0.0
  0
LINE
  5
A9B
330
1A
100
AcDbEntity
  8
GUIDE
100
AcDbLine
 10
-1254.5
 20
-48.26
 30
0.0
 11
-1275.5
 21
-48.26
 31
0.0
  0
LINE
  5
A9C
330
1A
100
AcDbEntity
  8
GUIDE
100
AcDbLine
 10
-1254.5
 20
-55.78
 30
0.0
 11
-1275.5
 21
-55.78
 31
0.0
  0
LINE
  5
A9D
330
1A
100
AcDbEntity
  8
GUIDE
100
AcDbLine
 10
-1262.0
 20
-70.5
 30
0.0
 11
-1262.0
 21
-55.78
 31
0.0
  0
LINE
  5
A9E
330
1A
100
AcDbEntity
  8
GUIDE
100
AcDbLine
 10
-1268.0
 20
-70.5
 30
0.0
 11
-1268.0
 21
-55.78
 31
0.0
  0
LINE
  5
A9F
330
1A
100
AcDbEntity
  8
GUIDE
100
AcDbLine
 10
-1268.0
 20
-48.26
 30
0.0
 11
-1268.0
 21
-44.5
 31
0.0
  0
LINE
  5
AA0
330
1A
100
AcDbEntity
  8
GUIDE
100
AcDbLine
 10
-1262.0
 20
-48.26
 30
0.0
 11
-1262.0
 21
-44.5
 31
0.0
  0
LINE
  5
AA1
330
1A
100
AcDbEntity
  8
GUIDE
100
AcDbLine
 10
-1279.5
 20
-67.09999999999999
 30
0.0
 11
-1279.5
 21
-70.5
 31
0.0
  0
LINE
  5
AA2
330
1A
100
AcDbEntity
  8
GUIDE
100
AcDbLine
 10
-1285.5
 20
-67.09999999999999
 30
0.0
 11
-1285.5
 21
-70.5
 31
0.0
  0
LINE
  5
AA3
330
1A
100
AcDbEntity
  8
GUIDE
100
AcDbLine
 10
-1272.0
 20
-67.09999999999999
 30
0.0
 11
-1272.0
 21
-59.58
 31
0.0
  0
LINE
  5
AA4
330
1A
100
AcDbEntity
  8
GUIDE
100
AcDbLine
 10
-1285.5
 20
-44.5
 30
0.0
 11
-1285.5
 21
-59.58
 31
0.0
  0
LINE
  5
AA5
330
1A
100
AcDbEntity
  8
GUIDE
100
AcDbLine
 10
-1279.5
 20
-44.5
 30
0.0
 11
-1279.5
 21
-59.58
 31
0.0
  0
LINE
  5
AA6
330
1A
100
AcDbEntity
  8
GUIDE
100
AcDbLine
 10
-1328.0
 20
-67.09999999999999
 30
0.0
 11
-1328.0
 21
-59.58
 31
0.0
  0
LINE
  5
AA7
330
1A
100
AcDbEntity
  8
GUIDE
100
AcDbLine
 10
-1307.0
 20
-59.58
 30
0.0
 11
-1328.0
 21
-59.58
 31
0.0
  0
LINE
  5
AA8
330
1A
100
AcDbEntity
  8
GUIDE
100
AcDbLine
 10
-1307.0
 20
-67.09999999999999
 30
0.0
 11
-1328.0
 21
-67.09999999999999
 31
0.0
  0
LINE
  5
AA9
330
1A
100
AcDbEntity
  8
GUIDE
100
AcDbLine
 10
-1289.5
 20
-48.26
 30
0.0
 11
-1289.5
 21
-55.78
 31
0.0
  0
LINE
  5
AAA
330
1A
100
AcDbEntity
  8
GUIDE
100
AcDbLine
 10
-1310.5
 20
-48.26
 30
0.0
 11
-1310.5
 21
-55.78
 31
0.0
  0
LINE
  5
AAB
330
1A
100
AcDbEntity
  8
GUIDE
100
AcDbLine
 10
-1289.5
 20
-48.26
 30
0.0
 11
-1310.5
 21
-48.26
 31
0.0
  0
LINE
  5
AAC
330
1A
100
AcDbEntity
  8
GUIDE
100
AcDbLine
 10
-1289.5
 20
-55.78
 30
0.0
 11
-1310.5
 21
-55.78
 31
0.0
  0
LINE
  5
AAD
330
1A
100
AcDbEntity
  8
GUIDE
100
AcDbLine
 10
-1297.0
 20
-70.5
 30
0.0
 11
-1297.0
 21
-55.78
 31
0.0
  0
LINE
  5
AAE
330
1A
100
AcDbEntity
  8
GUIDE
100
AcDbLine
 10
-1303.0
 20
-70.5
 30
0.0
 11
-1303.0
 21
-55.78
 31
0.0
  0
LINE
  5
AAF
330
1A
100
AcDbEntity
  8
GUIDE
100
AcDbLine
 10
-1303.0
 20
-48.26
 30
0.0
 11
-1303.0
 21
-44.5
 31
0.0
  0
LINE
  5
AB0
330
1A
100
AcDbEntity
  8
GUIDE
100
AcDbLine
 10
-1297.0
 20
-48.26
 30
0.0
 11
-1297.0
 21
-44.5
 31
0.0
  0
LINE
  5
AB1
330
1A
100
AcDbEntity
  8
GUIDE
100
AcDbLine
 10
-1314.5
 20
-67.09999999999999
 30
0.0
 11
-1314.5
 21
-70.5
 31
0.0
  0
LINE
  5
AB2
330
1A
100
AcDbEntity
  8
GUIDE
100
AcDbLine
 10
-1320.5
 20
-67.09999999999999
 30
0.0
 11
-1320.5
 21
-70.5
 31
0.0
  0
LINE
  5
AB3
330
1A
100
AcDbEntity
  8
GUIDE
100
AcDbLine
 10
-1307.0
 20
-67.09999999999999
 30
0.0
 11
-1307.0
 21
-59.58
 31
0.0
  0
LINE
  5
AB4
330
1A
100
AcDbEntity
  8
GUIDE
100
AcDbLine
 10
-1320.5
 20
-44.5
 30
0.0
 11
-1320.5
 21
-59.58
 31
0.0
  0
LINE
  5
AB5
330
1A
100
AcDbEntity
  8
GUIDE
100
AcDbLine
 10
-1314.5
 20
-44.5
 30
0.0
 11
-1314.5
 21
-59.58
 31
0.0
  0
LINE
  5
AB6
330
1A
100
AcDbEntity
  8
GUIDE
100
AcDbLine
 10
-1363.0
 20
-67.09999999999999
 30
0.0
 11
-1363.0
 21
-59.58
 31
0.0
  0
LINE
  5
AB7
330
1A
100
AcDbEntity
  8
GUIDE
100
AcDbLine
 10
-1342.0
 20
-59.58
 30
0.0
 11
-1363.0
 21
-59.58
 31
0.0
  0
LINE
  5
AB8
330
1A
100
AcDbEntity
  8
GUIDE
100
AcDbLine
 10
-1342.0
 20
-67.09999999999999
 30
0.0
 11
-1363.0
 21
-67.09999999999999
 31
0.0
  0
LINE
  5
AB9
330
1A
100
AcDbEntity
  8
GUIDE
100
AcDbLine
 10
-1324.5
 20
-48.26
 30
0.0
 11
-1324.5
 21
-55.78
 31
0.0
  0
LINE
  5
ABA
330
1A
100
AcDbEntity
  8
GUIDE
100
AcDbLine
 10
-1345.5
 20
-48.26
 30
0.0
 11
-1345.5
 21
-55.78
 31
0.0
  0
LINE
  5
ABB
330
1A
100
AcDbEntity
  8
GUIDE
100
AcDbLine
 10
-1324.5
 20
-48.26
 30
0.0
 11
-1345.5
 21
-48.26
 31
0.0
  0
LINE
  5
ABC
330
1A
100
AcDbEntity
  8
GUIDE
100
AcDbLine
 10
-1324.5
 20
-55.78
 30
0.0
 11
-1345.5
 21
-55.78
 31
0.0
  0
LINE
  5
ABD
330
1A
100
AcDbEntity
  8
GUIDE
100
AcDbLine
 10
-1332.0
 20
-70.5
 30
0.0
 11
-1332.0
 21
-55.78
 31
0.0
  0
LINE
  5
ABE
330
1A
100
AcDbEntity
  8
GUIDE
100
AcDbLine
 10
-1338.0
 20
-70.5
 30
0.0
 11
-1338.0
 21
-55.78
 31
0.0
  0
LINE
  5
ABF
330
1A
100
AcDbEntity
  8
GUIDE
100
AcDbLine
 10
-1338.0
 20
-48.26
 30
0.0
 11
-1338.0
 21
-44.5
 31
0.0
  0
LINE
  5
AC0
330
1A
100
AcDbEntity
  8
GUIDE
100
AcDbLine
 10
-1332.0
 20
-48.26
 30
0.0
 11
-1332.0
 21
-44.5
 31
0.0
  0
LINE
  5
AC1
330
1A
100
AcDbEntity
  8
GUIDE
100
AcDbLine
 10
-1349.5
 20
-67.09999999999999
 30
0.0
 11
-1349.5
 21
-70.5
 31
0.0
  0
LINE
  5
AC2
330
1A
100
AcDbEntity
  8
GUIDE
100
AcDbLine
 10
-1355.5
 20
-67.09999999999999
 30
0.0
 11
-1355.5
 21
-70.5
 31
0.0
  0
LINE
  5
AC3
330
1A
100
AcDbEntity
  8
GUIDE
100
AcDbLine
 10
-1342.0
 20
-67.09999999999999
 30
0.0
 11
-1342.0
 21
-59.58
 31
0.0
  0
LINE
  5
AC4
330
1A
100
AcDbEntity
  8
GUIDE
100
AcDbLine
 10
-1355.5
 20
-44.5
 30
0.0
 11
-1355.5
 21
-59.58
 31
0.0
  0
LINE
  5
AC5
330
1A
100
AcDbEntity
  8
GUIDE
100
AcDbLine
 10
-1349.5
 20
-44.5
 30
0.0
 11
-1349.5
 21
-59.58
 31
0.0
  0
LINE
  5
AC6
330
1A
100
AcDbEntity
  8
GUIDE
100
AcDbLine
 10
-1398.0
 20
-67.09999999999999
 30
0.0
 11
-1398.0
 21
-59.58
 31
0.0
  0
LINE
  5
AC7
330
1A
100
AcDbEntity
  8
GUIDE
100
AcDbLine
 10
-1377.0
 20
-59.58
 30
0.0
 11
-1398.0
 21
-59.58
 31
0.0
  0
LINE
  5
AC8
330
1A
100
AcDbEntity
  8
GUIDE
100
AcDbLine
 10
-1377.0
 20
-67.09999999999999
 30
0.0
 11
-1398.0
 21
-67.09999999999999
 31
0.0
  0
LINE
  5
AC9
330
1A
100
AcDbEntity
  8
GUIDE
100
AcDbLine
 10
-1359.5
 20
-48.26
 30
0.0
 11
-1359.5
 21
-55.78
 31
0.0
  0
LINE
  5
ACA
330
1A
100
AcDbEntity
  8
GUIDE
100
AcDbLine
 10
-1380.5
 20
-48.26
 30
0.0
 11
-1380.5
 21
-55.78
 31
0.0
  0
LINE
  5
ACB
330
1A
100
AcDbEntity
  8
GUIDE
100
AcDbLine
 10
-1359.5
 20
-48.26
 30
0.0
 11
-1380.5
 21
-48.26
 31
0.0
  0
LINE
  5
ACC
330
1A
100
AcDbEntity
  8
GUIDE
100
AcDbLine
 10
-1359.5
 20
-55.78
 30
0.0
 11
-1380.5
 21
-55.78
 31
0.0
  0
LINE
  5
ACD
330
1A
100
AcDbEntity
  8
GUIDE
100
AcDbLine
 10
-1367.0
 20
-70.5
 30
0.0
 11
-1367.0
 21
-55.78
 31
0.0
  0
LINE
  5
ACE
330
1A
100
AcDbEntity
  8
GUIDE
100
AcDbLine
 10
-1373.0
 20
-70.5
 30
0.0
 11
-1373.0
 21
-55.78
 31
0.0
  0
LINE
  5
ACF
330
1A
100
AcDbEntity
  8
GUIDE
100
AcDbLine
 10
-1373.0
 20
-48.26
 30
0.0
 11
-1373.0
 21
-44.5
 31
0.0
  0
LINE
  5
AD0
330
1A
100
AcDbEntity
  8
GUIDE
100
AcDbLine
 10
-1367.0
 20
-48.26
 30
0.0
 11
-1367.0
 21
-44.5
 31
0.0
  0
LINE
  5
AD1
330
1A
100
AcDbEntity
  8
GUIDE
100
AcDbLine
 10
-1384.5
 20
-67.09999999999999
 30
0.0
 11
-1384.5
 21
-70.5
 31
0.0
  0
LINE
  5
AD2
330
1A
100
AcDbEntity
  8
GUIDE
100
AcDbLine
 10
-1390.5
 20
-67.09999999999999
 30
0.0
 11
-1390.5
 21
-70.5
 31
0.0
  0
LINE
  5
AD3
330
1A
100
AcDbEntity
  8
GUIDE
100
AcDbLine
 10
-1377.0
 20
-67.09999999999999
 30
0.0
 11
-1377.0
 21
-59.58
 31
0.0
  0
LINE
  5
AD4
330
1A
100
AcDbEntity
  8
GUIDE
100
AcDbLine
 10
-1390.5
 20
-44.5
 30
0.0
 11
-1390.5
 21
-59.58
 31
0.0
  0
LINE
  5
AD5
330
1A
100
AcDbEntity
  8
GUIDE
100
AcDbLine
 10
-1384.5
 20
-44.5
 30
0.0
 11
-1384.5
 21
-59.58
 31
0.0
  0
LINE
  5
AD6
330
1A
100
AcDbEntity
  8
GUIDE
100
AcDbLine
 10
-1433.0
 20
-67.09999999999999
 30
0.0
 11
-1433.0
 21
-59.58
 31
0.0
  0
LINE
  5
AD7
330
1A
100
AcDbEntity
  8
GUIDE
100
AcDbLine
 10
-1412.0
 20
-59.58
 30
0.0
 11
-1433.0
 21
-59.58
 31
0.0
  0
LINE
  5
AD8
330
1A
100
AcDbEntity
  8
GUIDE
100
AcDbLine
 10
-1412.0
 20
-67.09999999999999
 30
0.0
 11
-1433.0
 21
-67.09999999999999
 31
0.0
  0
LINE
  5
AD9
330
1A
100
AcDbEntity
  8
GUIDE
100
AcDbLine
 10
-1394.5
 20
-48.26
 30
0.0
 11
-1394.5
 21
-55.78
 31
0.0
  0
LINE
  5
ADA
330
1A
100
AcDbEntity
  8
GUIDE
100
AcDbLine
 10
-1415.5
 20
-48.26
 30
0.0
 11
-1415.5
 21
-55.78
 31
0.0
  0
LINE
  5
ADB
330
1A
100
AcDbEntity
  8
GUIDE
100
AcDbLine
 10
-1394.5
 20
-48.26
 30
0.0
 11
-1415.5
 21
-48.26
 31
0.0
  0
LINE
  5
ADC
330
1A
100
AcDbEntity
  8
GUIDE
100
AcDbLine
 10
-1394.5
 20
-55.78
 30
0.0
 11
-1415.5
 21
-55.78
 31
0.0
  0
LINE
  5
ADD
330
1A
100
AcDbEntity
  8
GUIDE
100
AcDbLine
 10
-1402.0
 20
-70.5
 30
0.0
 11
-1402.0
 21
-55.78
 31
0.0
  0
LINE
  5
ADE
330
1A
100
AcDbEntity
  8
GUIDE
100
AcDbLine
 10
-1408.0
 20
-70.5
 30
0.0
 11
-1408.0
 21
-55.78
 31
0.0
  0
LINE
  5
ADF
330
1A
100
AcDbEntity
  8
GUIDE
100
AcDbLine
 10
-1408.0
 20
-48.26
 30
0.0
 11
-1408.0
 21
-44.5
 31
0.0
  0
LINE
  5
AE0
330
1A
100
AcDbEntity
  8
GUIDE
100
AcDbLine
 10
-1402.0
 20
-48.26
 30
0.0
 11
-1402.0
 21
-44.5
 31
0.0
  0
LINE
  5
AE1
330
1A
100
AcDbEntity
  8
GUIDE
100
AcDbLine
 10
-1419.5
 20
-67.09999999999999
 30
0.0
 11
-1419.5
 21
-70.5
 31
0.0
  0
LINE
  5
AE2
330
1A
100
AcDbEntity
  8
GUIDE
100
AcDbLine
 10
-1425.5
 20
-67.09999999999999
 30
0.0
 11
-1425.5
 21
-70.5
 31
0.0
  0
LINE
  5
AE3
330
1A
100
AcDbEntity
  8
GUIDE
100
AcDbLine
 10
-1412.0
 20
-67.09999999999999
 30
0.0
 11
-1412.0
 21
-59.58
 31
0.0
  0
LINE
  5
AE4
330
1A
100
AcDbEntity
  8
GUIDE
100
AcDbLine
 10
-1425.5
 20
-44.5
 30
0.0
 11
-1425.5
 21
-59.58
 31
0.0
  0
LINE
  5
AE5
330
1A
100
AcDbEntity
  8
GUIDE
100
AcDbLine
 10
-1419.5
 20
-44.5
 30
0.0
 11
-1419.5
 21
-59.58
 31
0.0
  0
LINE
  5
AE6
330
1A
100
AcDbEntity
  8
GUIDE
100
AcDbLine
 10
-1468.0
 20
-67.09999999999999
 30
0.0
 11
-1468.0
 21
-59.58
 31
0.0
  0
LINE
  5
AE7
330
1A
100
AcDbEntity
  8
GUIDE
100
AcDbLine
 10
-1447.0
 20
-59.58
 30
0.0
 11
-1468.0
 21
-59.58
 31
0.0
  0
LINE
  5
AE8
330
1A
100
AcDbEntity
  8
GUIDE
100
AcDbLine
 10
-1447.0
 20
-67.09999999999999
 30
0.0
 11
-1468.0
 21
-67.09999999999999
 31
0.0
  0
LINE
  5
AE9
330
1A
100
AcDbEntity
  8
GUIDE
100
AcDbLine
 10
-1429.5
 20
-48.26
 30
0.0
 11
-1429.5
 21
-55.78
 31
0.0
  0
LINE
  5
AEA
330
1A
100
AcDbEntity
  8
GUIDE
100
AcDbLine
 10
-1450.5
 20
-48.26
 30
0.0
 11
-1450.5
 21
-55.78
 31
0.0
  0
LINE
  5
AEB
330
1A
100
AcDbEntity
  8
GUIDE
100
AcDbLine
 10
-1429.5
 20
-48.26
 30
0.0
 11
-1450.5
 21
-48.26
 31
0.0
  0
LINE
  5
AEC
330
1A
100
AcDbEntity
  8
GUIDE
100
AcDbLine
 10
-1429.5
 20
-55.78
 30
0.0
 11
-1450.5
 21
-55.78
 31
0.0
  0
LINE
  5
AED
330
1A
100
AcDbEntity
  8
GUIDE
100
AcDbLine
 10
-1437.0
 20
-70.5
 30
0.0
 11
-1437.0
 21
-55.78
 31
0.0
  0
LINE
  5
AEE
330
1A
100
AcDbEntity
  8
GUIDE
100
AcDbLine
 10
-1443.0
 20
-70.5
 30
0.0
 11
-1443.0
 21
-55.78
 31
0.0
  0
LINE
  5
AEF
330
1A
100
AcDbEntity
  8
GUIDE
100
AcDbLine
 10
-1443.0
 20
-48.26
 30
0.0
 11
-1443.0
 21
-44.5
 31
0.0
  0
LINE
  5
AF0
330
1A
100
AcDbEntity
  8
GUIDE
100
AcDbLine
 10
-1437.0
 20
-48.26
 30
0.0
 11
-1437.0
 21
-44.5
 31
0.0
  0
LINE
  5
AF1
330
1A
100
AcDbEntity
  8
GUIDE
100
AcDbLine
 10
-1454.5
 20
-67.09999999999999
 30
0.0
 11
-1454.5
 21
-70.5
 31
0.0
  0
LINE
  5
AF2
330
1A
100
AcDbEntity
  8
GUIDE
100
AcDbLine
 10
-1460.5
 20
-67.09999999999999
 30
0.0
 11
-1460.5
 21
-70.5
 31
0.0
  0
LINE
  5
AF3
330
1A
100
AcDbEntity
  8
GUIDE
100
AcDbLine
 10
-1447.0
 20
-67.09999999999999
 30
0.0
 11
-1447.0
 21
-59.58
 31
0.0
  0
LINE
  5
AF4
330
1A
100
AcDbEntity
  8
GUIDE
100
AcDbLine
 10
-1460.5
 20
-44.5
 30
0.0
 11
-1460.5
 21
-59.58
 31
0.0
  0
LINE
  5
AF5
330
1A
100
AcDbEntity
  8
GUIDE
100
AcDbLine
 10
-1454.5
 20
-44.5
 30
0.0
 11
-1454.5
 21
-59.58
 31
0.0
  0
LINE
  5
AF6
330
1A
100
AcDbEntity
  8
GUIDE
100
AcDbLine
 10
-1503.0
 20
-67.09999999999999
 30
0.0
 11
-1503.0
 21
-59.58
 31
0.0
  0
LINE
  5
AF7
330
1A
100
AcDbEntity
  8
GUIDE
100
AcDbLine
 10
-1482.0
 20
-59.58
 30
0.0
 11
-1503.0
 21
-59.58
 31
0.0
  0
LINE
  5
AF8
330
1A
100
AcDbEntity
  8
GUIDE
100
AcDbLine
 10
-1482.0
 20
-67.09999999999999
 30
0.0
 11
-1503.0
 21
-67.09999999999999
 31
0.0
  0
LINE
  5
AF9
330
1A
100
AcDbEntity
  8
GUIDE
100
AcDbLine
 10
-1464.5
 20
-48.26
 30
0.0
 11
-1464.5
 21
-55.78
 31
0.0
  0
LINE
  5
AFA
330
1A
100
AcDbEntity
  8
GUIDE
100
AcDbLine
 10
-1485.5
 20
-48.26
 30
0.0
 11
-1485.5
 21
-55.78
 31
0.0
  0
LINE
  5
AFB
330
1A
100
AcDbEntity
  8
GUIDE
100
AcDbLine
 10
-1464.5
 20
-48.26
 30
0.0
 11
-1485.5
 21
-48.26
 31
0.0
  0
LINE
  5
AFC
330
1A
100
AcDbEntity
  8
GUIDE
100
AcDbLine
 10
-1464.5
 20
-55.78
 30
0.0
 11
-1485.5
 21
-55.78
 31
0.0
  0
LINE
  5
AFD
330
1A
100
AcDbEntity
  8
GUIDE
100
AcDbLine
 10
-1472.0
 20
-70.5
 30
0.0
 11
-1472.0
 21
-55.78
 31
0.0
  0
LINE
  5
AFE
330
1A
100
AcDbEntity
  8
GUIDE
100
AcDbLine
 10
-1478.0
 20
-70.5
 30
0.0
 11
-1478.0
 21
-55.78
 31
0.0
  0
LINE
  5
AFF
330
1A
100
AcDbEntity
  8
GUIDE
100
AcDbLine
 10
-1478.0
 20
-48.26
 30
0.0
 11
-1478.0
 21
-44.5
 31
0.0
  0
LINE
  5
B00
330
1A
100
AcDbEntity
  8
GUIDE
100
AcDbLine
 10
-1472.0
 20
-48.26
 30
0.0
 11
-1472.0
 21
-44.5
 31
0.0
  0
LINE
  5
B01
330
1A
100
AcDbEntity
  8
GUIDE
100
AcDbLine
 10
-1489.5
 20
-67.09999999999999
 30
0.0
 11
-1489.5
 21
-70.5
 31
0.0
  0
LINE
  5
B02
330
1A
100
AcDbEntity
  8
GUIDE
100
AcDbLine
 10
-1495.5
 20
-67.09999999999999
 30
0.0
 11
-1495.5
 21
-70.5
 31
0.0
  0
LINE
  5
B03
330
1A
100
AcDbEntity
  8
GUIDE
100
AcDbLine
 10
-1482.0
 20
-67.09999999999999
 30
0.0
 11
-1482.0
 21
-59.58
 31
0.0
  0
LINE
  5
B04
330
1A
100
AcDbEntity
  8
GUIDE
100
AcDbLine
 10
-1495.5
 20
-44.5
 30
0.0
 11
-1495.5
 21
-59.58
 31
0.0
  0
LINE
  5
B05
330
1A
100
AcDbEntity
  8
GUIDE
100
AcDbLine
 10
-1489.5
 20
-44.5
 30
0.0
 11
-1489.5
 21
-59.58
 31
0.0
  0
LINE
  5
B06
330
1A
100
AcDbEntity
  8
GUIDE
100
AcDbLine
 10
-1538.0
 20
-67.09999999999999
 30
0.0
 11
-1538.0
 21
-59.58
 31
0.0
  0
LINE
  5
B07
330
1A
100
AcDbEntity
  8
GUIDE
100
AcDbLine
 10
-1517.0
 20
-59.58
 30
0.0
 11
-1538.0
 21
-59.58
 31
0.0
  0
LINE
  5
B08
330
1A
100
AcDbEntity
  8
GUIDE
100
AcDbLine
 10
-1517.0
 20
-67.09999999999999
 30
0.0
 11
-1538.0
 21
-67.09999999999999
 31
0.0
  0
LINE
  5
B09
330
1A
100
AcDbEntity
  8
GUIDE
100
AcDbLine
 10
-1499.5
 20
-48.26
 30
0.0
 11
-1499.5
 21
-55.78
 31
0.0
  0
LINE
  5
B0A
330
1A
100
AcDbEntity
  8
GUIDE
100
AcDbLine
 10
-1520.5
 20
-48.26
 30
0.0
 11
-1520.5
 21
-55.78
 31
0.0
  0
LINE
  5
B0B
330
1A
100
AcDbEntity
  8
GUIDE
100
AcDbLine
 10
-1499.5
 20
-48.26
 30
0.0
 11
-1520.5
 21
-48.26
 31
0.0
  0
LINE
  5
B0C
330
1A
100
AcDbEntity
  8
GUIDE
100
AcDbLine
 10
-1499.5
 20
-55.78
 30
0.0
 11
-1520.5
 21
-55.78
 31
0.0
  0
LINE
  5
B0D
330
1A
100
AcDbEntity
  8
GUIDE
100
AcDbLine
 10
-1507.0
 20
-70.5
 30
0.0
 11
-1507.0
 21
-55.78
 31
0.0
  0
LINE
  5
B0E
330
1A
100
AcDbEntity
  8
GUIDE
100
AcDbLine
 10
-1513.0
 20
-70.5
 30
0.0
 11
-1513.0
 21
-55.78
 31
0.0
  0
LINE
  5
B0F
330
1A
100
AcDbEntity
  8
GUIDE
100
AcDbLine
 10
-1513.0
 20
-48.26
 30
0.0
 11
-1513.0
 21
-44.5
 31
0.0
  0
LINE
  5
B10
330
1A
100
AcDbEntity
  8
GUIDE
100
AcDbLine
 10
-1507.0
 20
-48.26
 30
0.0
 11
-1507.0
 21
-44.5
 31
0.0
  0
LINE
  5
B11
330
1A
100
AcDbEntity
  8
GUIDE
100
AcDbLine
 10
-1524.5
 20
-67.09999999999999
 30
0.0
 11
-1524.5
 21
-70.5
 31
0.0
  0
LINE
  5
B12
330
1A
100
AcDbEntity
  8
GUIDE
100
AcDbLine
 10
-1530.5
 20
-67.09999999999999
 30
0.0
 11
-1530.5
 21
-70.5
 31
0.0
  0
LINE
  5
B13
330
1A
100
AcDbEntity
  8
GUIDE
100
AcDbLine
 10
-1517.0
 20
-67.09999999999999
 30
0.0
 11
-1517.0
 21
-59.58
 31
0.0
  0
LINE
  5
B14
330
1A
100
AcDbEntity
  8
GUIDE
100
AcDbLine
 10
-1530.5
 20
-44.5
 30
0.0
 11
-1530.5
 21
-59.58
 31
0.0
  0
LINE
  5
B15
330
1A
100
AcDbEntity
  8
GUIDE
100
AcDbLine
 10
-1524.5
 20
-44.5
 30
0.0
 11
-1524.5
 21
-59.58
 31
0.0
  0
LINE
  5
B16
330
1A
100
AcDbEntity
  8
GUIDE
100
AcDbLine
 10
-1573.0
 20
-67.09999999999999
 30
0.0
 11
-1573.0
 21
-59.58
 31
0.0
  0
LINE
  5
B17
330
1A
100
AcDbEntity
  8
GUIDE
100
AcDbLine
 10
-1552.0
 20
-59.58
 30
0.0
 11
-1573.0
 21
-59.58
 31
0.0
  0
LINE
  5
B18
330
1A
100
AcDbEntity
  8
GUIDE
100
AcDbLine
 10
-1552.0
 20
-67.09999999999999
 30
0.0
 11
-1573.0
 21
-67.09999999999999
 31
0.0
  0
LINE
  5
B19
330
1A
100
AcDbEntity
  8
GUIDE
100
AcDbLine
 10
-1534.5
 20
-48.26
 30
0.0
 11
-1534.5
 21
-55.78
 31
0.0
  0
LINE
  5
B1A
330
1A
100
AcDbEntity
  8
GUIDE
100
AcDbLine
 10
-1555.5
 20
-48.26
 30
0.0
 11
-1555.5
 21
-55.78
 31
0.0
  0
LINE
  5
B1B
330
1A
100
AcDbEntity
  8
GUIDE
100
AcDbLine
 10
-1534.5
 20
-48.26
 30
0.0
 11
-1555.5
 21
-48.26
 31
0.0
  0
LINE
  5
B1C
330
1A
100
AcDbEntity
  8
GUIDE
100
AcDbLine
 10
-1534.5
 20
-55.78
 30
0.0
 11
-1555.5
 21
-55.78
 31
0.0
  0
LINE
  5
B1D
330
1A
100
AcDbEntity
  8
GUIDE
100
AcDbLine
 10
-1542.0
 20
-70.5
 30
0.0
 11
-1542.0
 21
-55.78
 31
0.0
  0
LINE
  5
B1E
330
1A
100
AcDbEntity
  8
GUIDE
100
AcDbLine
 10
-1548.0
 20
-70.5
 30
0.0
 11
-1548.0
 21
-55.78
 31
0.0
  0
LINE
  5
B1F
330
1A
100
AcDbEntity
  8
GUIDE
100
AcDbLine
 10
-1548.0
 20
-48.26
 30
0.0
 11
-1548.0
 21
-44.5
 31
0.0
  0
LINE
  5
B20
330
1A
100
AcDbEntity
  8
GUIDE
100
AcDbLine
 10
-1542.0
 20
-48.26
 30
0.0
 11
-1542.0
 21
-44.5
 31
0.0
  0
LINE
  5
B21
330
1A
100
AcDbEntity
  8
GUIDE
100
AcDbLine
 10
-1559.5
 20
-67.09999999999999
 30
0.0
 11
-1559.5
 21
-70.5
 31
0.0
  0
LINE
  5
B22
330
1A
100
AcDbEntity
  8
GUIDE
100
AcDbLine
 10
-1565.5
 20
-67.09999999999999
 30
0.0
 11
-1565.5
 21
-70.5
 31
0.0
  0
LINE
  5
B23
330
1A
100
AcDbEntity
  8
GUIDE
100
AcDbLine
 10
-1552.0
 20
-67.09999999999999
 30
0.0
 11
-1552.0
 21
-59.58
 31
0.0
  0
LINE
  5
B24
330
1A
100
AcDbEntity
  8
GUIDE
100
AcDbLine
 10
-1565.5
 20
-44.5
 30
0.0
 11
-1565.5
 21
-59.58
 31
0.0
  0
LINE
  5
B25
330
1A
100
AcDbEntity
  8
GUIDE
100
AcDbLine
 10
-1559.5
 20
-44.5
 30
0.0
 11
-1559.5
 21
-59.58
 31
0.0
  0
LINE
  5
B26
330
1A
100
AcDbEntity
  8
GUIDE
100
AcDbLine
 10
-1608.0
 20
-67.09999999999999
 30
0.0
 11
-1608.0
 21
-59.58
 31
0.0
  0
LINE
  5
B27
330
1A
100
AcDbEntity
  8
GUIDE
100
AcDbLine
 10
-1587.0
 20
-59.58
 30
0.0
 11
-1608.0
 21
-59.58
 31
0.0
  0
LINE
  5
B28
330
1A
100
AcDbEntity
  8
GUIDE
100
AcDbLine
 10
-1587.0
 20
-67.09999999999999
 30
0.0
 11
-1608.0
 21
-67.09999999999999
 31
0.0
  0
LINE
  5
B29
330
1A
100
AcDbEntity
  8
GUIDE
100
AcDbLine
 10
-1569.5
 20
-48.26
 30
0.0
 11
-1569.5
 21
-55.78
 31
0.0
  0
LINE
  5
B2A
330
1A
100
AcDbEntity
  8
GUIDE
100
AcDbLine
 10
-1590.5
 20
-48.26
 30
0.0
 11
-1590.5
 21
-55.78
 31
0.0
  0
LINE
  5
B2B
330
1A
100
AcDbEntity
  8
GUIDE
100
AcDbLine
 10
-1569.5
 20
-48.26
 30
0.0
 11
-1590.5
 21
-48.26
 31
0.0
  0
LINE
  5
B2C
330
1A
100
AcDbEntity
  8
GUIDE
100
AcDbLine
 10
-1569.5
 20
-55.78
 30
0.0
 11
-1590.5
 21
-55.78
 31
0.0
  0
LINE
  5
B2D
330
1A
100
AcDbEntity
  8
GUIDE
100
AcDbLine
 10
-1577.0
 20
-70.5
 30
0.0
 11
-1577.0
 21
-55.78
 31
0.0
  0
LINE
  5
B2E
330
1A
100
AcDbEntity
  8
GUIDE
100
AcDbLine
 10
-1583.0
 20
-70.5
 30
0.0
 11
-1583.0
 21
-55.78
 31
0.0
  0
LINE
  5
B2F
330
1A
100
AcDbEntity
  8
GUIDE
100
AcDbLine
 10
-1583.0
 20
-48.26
 30
0.0
 11
-1583.0
 21
-44.5
 31
0.0
  0
LINE
  5
B30
330
1A
100
AcDbEntity
  8
GUIDE
100
AcDbLine
 10
-1577.0
 20
-48.26
 30
0.0
 11
-1577.0
 21
-44.5
 31
0.0
  0
LINE
  5
B31
330
1A
100
AcDbEntity
  8
GUIDE
100
AcDbLine
 10
-1594.5
 20
-67.09999999999999
 30
0.0
 11
-1594.5
 21
-70.5
 31
0.0
  0
LINE
  5
B32
330
1A
100
AcDbEntity
  8
GUIDE
100
AcDbLine
 10
-1600.5
 20
-67.09999999999999
 30
0.0
 11
-1600.5
 21
-70.5
 31
0.0
  0
LINE
  5
B33
330
1A
100
AcDbEntity
  8
GUIDE
100
AcDbLine
 10
-1587.0
 20
-67.09999999999999
 30
0.0
 11
-1587.0
 21
-59.58
 31
0.0
  0
LINE
  5
B34
330
1A
100
AcDbEntity
  8
GUIDE
100
AcDbLine
 10
-1600.5
 20
-44.5
 30
0.0
 11
-1600.5
 21
-59.58
 31
0.0
  0
LINE
  5
B35
330
1A
100
AcDbEntity
  8
GUIDE
100
AcDbLine
 10
-1594.5
 20
-44.5
 30
0.0
 11
-1594.5
 21
-59.58
 31
0.0
  0
LINE
  5
B36
330
1A
100
AcDbEntity
  8
GUIDE
100
AcDbLine
 10
-1643.0
 20
-67.09999999999999
 30
0.0
 11
-1643.0
 21
-59.58
 31
0.0
  0
LINE
  5
B37
330
1A
100
AcDbEntity
  8
GUIDE
100
AcDbLine
 10
-1622.0
 20
-59.58
 30
0.0
 11
-1643.0
 21
-59.58
 31
0.0
  0
LINE
  5
B38
330
1A
100
AcDbEntity
  8
GUIDE
100
AcDbLine
 10
-1622.0
 20
-67.09999999999999
 30
0.0
 11
-1643.0
 21
-67.09999999999999
 31
0.0
  0
LINE
  5
B39
330
1A
100
AcDbEntity
  8
GUIDE
100
AcDbLine
 10
-1604.5
 20
-48.26
 30
0.0
 11
-1604.5
 21
-55.78
 31
0.0
  0
LINE
  5
B3A
330
1A
100
AcDbEntity
  8
GUIDE
100
AcDbLine
 10
-1625.5
 20
-48.26
 30
0.0
 11
-1625.5
 21
-55.78
 31
0.0
  0
LINE
  5
B3B
330
1A
100
AcDbEntity
  8
GUIDE
100
AcDbLine
 10
-1604.5
 20
-48.26
 30
0.0
 11
-1625.5
 21
-48.26
 31
0.0
  0
LINE
  5
B3C
330
1A
100
AcDbEntity
  8
GUIDE
100
AcDbLine
 10
-1604.5
 20
-55.78
 30
0.0
 11
-1625.5
 21
-55.78
 31
0.0
  0
LINE
  5
B3D
330
1A
100
AcDbEntity
  8
GUIDE
100
AcDbLine
 10
-1612.0
 20
-70.5
 30
0.0
 11
-1612.0
 21
-55.78
 31
0.0
  0
LINE
  5
B3E
330
1A
100
AcDbEntity
  8
GUIDE
100
AcDbLine
 10
-1618.0
 20
-70.5
 30
0.0
 11
-1618.0
 21
-55.78
 31
0.0
  0
LINE
  5
B3F
330
1A
100
AcDbEntity
  8
GUIDE
100
AcDbLine
 10
-1618.0
 20
-48.26
 30
0.0
 11
-1618.0
 21
-44.5
 31
0.0
  0
LINE
  5
B40
330
1A
100
AcDbEntity
  8
GUIDE
100
AcDbLine
 10
-1612.0
 20
-48.26
 30
0.0
 11
-1612.0
 21
-44.5
 31
0.0
  0
LINE
  5
B41
330
1A
100
AcDbEntity
  8
GUIDE
100
AcDbLine
 10
-1629.5
 20
-67.09999999999999
 30
0.0
 11
-1629.5
 21
-70.5
 31
0.0
  0
LINE
  5
B42
330
1A
100
AcDbEntity
  8
GUIDE
100
AcDbLine
 10
-1635.5
 20
-67.09999999999999
 30
0.0
 11
-1635.5
 21
-70.5
 31
0.0
  0
LINE
  5
B43
330
1A
100
AcDbEntity
  8
GUIDE
100
AcDbLine
 10
-1622.0
 20
-67.09999999999999
 30
0.0
 11
-1622.0
 21
-59.58
 31
0.0
  0
LINE
  5
B44
330
1A
100
AcDbEntity
  8
GUIDE
100
AcDbLine
 10
-1635.5
 20
-44.5
 30
0.0
 11
-1635.5
 21
-59.58
 31
0.0
  0
LINE
  5
B45
330
1A
100
AcDbEntity
  8
GUIDE
100
AcDbLine
 10
-1629.5
 20
-44.5
 30
0.0
 11
-1629.5
 21
-59.58
 31
0.0
  0
LINE
  5
B46
330
1A
100
AcDbEntity
  8
GUIDE
100
AcDbLine
 10
-2654.0
 20
-70.5
 30
0.0
 11
483.0
 21
-70.5
 31
0.0
  0
LINE
  5
B47
330
1A
100
AcDbEntity
  8
GUIDE
100
AcDbLine
 10
-2654.0
 20
-80.5
 30
0.0
 11
483.0
 21
-80.5
 31
0.0
  0
LINE
  5
B48
330
1A
100
AcDbEntity
  8
GUIDE
100
AcDbLine
 10
-1664.5
 20
-44.5
 30
0.0
 11
-1664.5
 21
-59.58
 31
0.0
  0
LINE
  5
B49
330
1A
100
AcDbEntity
  8
GUIDE
100
AcDbLine
 10
-1670.5
 20
-44.5
 30
0.0
 11
-1670.5
 21
-59.58
 31
0.0
  0
LINE
  5
B4A
330
1A
100
AcDbEntity
  8
GUIDE
100
AcDbLine
 10
-1657.0
 20
-67.09999999999999
 30
0.0
 11
-1678.0
 21
-67.09999999999999
 31
0.0
  0
LINE
  5
B4B
330
1A
100
AcDbEntity
  8
GUIDE
100
AcDbLine
 10
-1657.0
 20
-59.58
 30
0.0
 11
-1678.0
 21
-59.58
 31
0.0
  0
LINE
  5
B4C
330
1A
100
AcDbEntity
  8
GUIDE
100
AcDbLine
 10
-1678.0
 20
-67.09999999999999
 30
0.0
 11
-1678.0
 21
-59.58
 31
0.0
  0
LINE
  5
B4D
330
1A
100
AcDbEntity
  8
GUIDE
100
AcDbLine
 10
-1657.0
 20
-67.09999999999999
 30
0.0
 11
-1657.0
 21
-59.58
 31
0.0
  0
LINE
  5
B4E
330
1A
100
AcDbEntity
  8
GUIDE
100
AcDbLine
 10
-1670.5
 20
-67.09999999999999
 30
0.0
 11
-1670.5
 21
-70.5
 31
0.0
  0
LINE
  5
B4F
330
1A
100
AcDbEntity
  8
GUIDE
100
AcDbLine
 10
-1664.5
 20
-67.09999999999999
 30
0.0
 11
-1664.5
 21
-70.5
 31
0.0
  0
LINE
  5
B50
330
1A
100
AcDbEntity
  8
GUIDE
100
AcDbLine
 10
-1647.0
 20
-48.26
 30
0.0
 11
-1647.0
 21
-44.5
 31
0.0
  0
LINE
  5
B51
330
1A
100
AcDbEntity
  8
GUIDE
100
AcDbLine
 10
-1653.0
 20
-48.26
 30
0.0
 11
-1653.0
 21
-44.5
 31
0.0
  0
LINE
  5
B52
330
1A
100
AcDbEntity
  8
GUIDE
100
AcDbLine
 10
-1653.0
 20
-70.5
 30
0.0
 11
-1653.0
 21
-55.78
 31
0.0
  0
LINE
  5
B53
330
1A
100
AcDbEntity
  8
GUIDE
100
AcDbLine
 10
-1647.0
 20
-70.5
 30
0.0
 11
-1647.0
 21
-55.78
 31
0.0
  0
LINE
  5
B54
330
1A
100
AcDbEntity
  8
GUIDE
100
AcDbLine
 10
-1639.5
 20
-55.78
 30
0.0
 11
-1660.5
 21
-55.78
 31
0.0
  0
LINE
  5
B55
330
1A
100
AcDbEntity
  8
GUIDE
100
AcDbLine
 10
-1639.5
 20
-48.26
 30
0.0
 11
-1660.5
 21
-48.26
 31
0.0
  0
LINE
  5
B56
330
1A
100
AcDbEntity
  8
GUIDE
100
AcDbLine
 10
-1660.5
 20
-48.26
 30
0.0
 11
-1660.5
 21
-55.78
 31
0.0
  0
LINE
  5
B57
330
1A
100
AcDbEntity
  8
GUIDE
100
AcDbLine
 10
-1639.5
 20
-48.26
 30
0.0
 11
-1639.5
 21
-55.78
 31
0.0
  0
LINE
  5
B58
330
1A
100
AcDbEntity
  8
GUIDE
100
AcDbLine
 10
-1699.5
 20
-44.5
 30
0.0
 11
-1699.5
 21
-59.58
 31
0.0
  0
LINE
  5
B59
330
1A
100
AcDbEntity
  8
GUIDE
100
AcDbLine
 10
-1705.5
 20
-44.5
 30
0.0
 11
-1705.5
 21
-59.58
 31
0.0
  0
LINE
  5
B5A
330
1A
100
AcDbEntity
  8
GUIDE
100
AcDbLine
 10
-1692.0
 20
-67.09999999999999
 30
0.0
 11
-1713.0
 21
-67.09999999999999
 31
0.0
  0
LINE
  5
B5B
330
1A
100
AcDbEntity
  8
GUIDE
100
AcDbLine
 10
-1692.0
 20
-59.58
 30
0.0
 11
-1713.0
 21
-59.58
 31
0.0
  0
LINE
  5
B5C
330
1A
100
AcDbEntity
  8
GUIDE
100
AcDbLine
 10
-1713.0
 20
-67.09999999999999
 30
0.0
 11
-1713.0
 21
-59.58
 31
0.0
  0
LINE
  5
B5D
330
1A
100
AcDbEntity
  8
GUIDE
100
AcDbLine
 10
-1692.0
 20
-67.09999999999999
 30
0.0
 11
-1692.0
 21
-59.58
 31
0.0
  0
LINE
  5
B5E
330
1A
100
AcDbEntity
  8
GUIDE
100
AcDbLine
 10
-1705.5
 20
-67.09999999999999
 30
0.0
 11
-1705.5
 21
-70.5
 31
0.0
  0
LINE
  5
B5F
330
1A
100
AcDbEntity
  8
GUIDE
100
AcDbLine
 10
-1699.5
 20
-67.09999999999999
 30
0.0
 11
-1699.5
 21
-70.5
 31
0.0
  0
LINE
  5
B60
330
1A
100
AcDbEntity
  8
GUIDE
100
AcDbLine
 10
-1682.0
 20
-48.26
 30
0.0
 11
-1682.0
 21
-44.5
 31
0.0
  0
LINE
  5
B61
330
1A
100
AcDbEntity
  8
GUIDE
100
AcDbLine
 10
-1688.0
 20
-48.26
 30
0.0
 11
-1688.0
 21
-44.5
 31
0.0
  0
LINE
  5
B62
330
1A
100
AcDbEntity
  8
GUIDE
100
AcDbLine
 10
-1688.0
 20
-70.5
 30
0.0
 11
-1688.0
 21
-55.78
 31
0.0
  0
LINE
  5
B63
330
1A
100
AcDbEntity
  8
GUIDE
100
AcDbLine
 10
-1682.0
 20
-70.5
 30
0.0
 11
-1682.0
 21
-55.78
 31
0.0
  0
LINE
  5
B64
330
1A
100
AcDbEntity
  8
GUIDE
100
AcDbLine
 10
-1674.5
 20
-55.78
 30
0.0
 11
-1695.5
 21
-55.78
 31
0.0
  0
LINE
  5
B65
330
1A
100
AcDbEntity
  8
GUIDE
100
AcDbLine
 10
-1674.5
 20
-48.26
 30
0.0
 11
-1695.5
 21
-48.26
 31
0.0
  0
LINE
  5
B66
330
1A
100
AcDbEntity
  8
GUIDE
100
AcDbLine
 10
-1695.5
 20
-48.26
 30
0.0
 11
-1695.5
 21
-55.78
 31
0.0
  0
LINE
  5
B67
330
1A
100
AcDbEntity
  8
GUIDE
100
AcDbLine
 10
-1674.5
 20
-48.26
 30
0.0
 11
-1674.5
 21
-55.78
 31
0.0
  0
LINE
  5
B68
330
1A
100
AcDbEntity
  8
GUIDE
100
AcDbLine
 10
-1734.5
 20
-44.5
 30
0.0
 11
-1734.5
 21
-59.58
 31
0.0
  0
LINE
  5
B69
330
1A
100
AcDbEntity
  8
GUIDE
100
AcDbLine
 10
-1740.5
 20
-44.5
 30
0.0
 11
-1740.5
 21
-59.58
 31
0.0
  0
LINE
  5
B6A
330
1A
100
AcDbEntity
  8
GUIDE
100
AcDbLine
 10
-1727.0
 20
-67.09999999999999
 30
0.0
 11
-1748.0
 21
-67.09999999999999
 31
0.0
  0
LINE
  5
B6B
330
1A
100
AcDbEntity
  8
GUIDE
100
AcDbLine
 10
-1727.0
 20
-59.58
 30
0.0
 11
-1748.0
 21
-59.58
 31
0.0
  0
LINE
  5
B6C
330
1A
100
AcDbEntity
  8
GUIDE
100
AcDbLine
 10
-1748.0
 20
-67.09999999999999
 30
0.0
 11
-1748.0
 21
-59.58
 31
0.0
  0
LINE
  5
B6D
330
1A
100
AcDbEntity
  8
GUIDE
100
AcDbLine
 10
-1727.0
 20
-67.09999999999999
 30
0.0
 11
-1727.0
 21
-59.58
 31
0.0
  0
LINE
  5
B6E
330
1A
100
AcDbEntity
  8
GUIDE
100
AcDbLine
 10
-1740.5
 20
-67.09999999999999
 30
0.0
 11
-1740.5
 21
-70.5
 31
0.0
  0
LINE
  5
B6F
330
1A
100
AcDbEntity
  8
GUIDE
100
AcDbLine
 10
-1734.5
 20
-67.09999999999999
 30
0.0
 11
-1734.5
 21
-70.5
 31
0.0
  0
LINE
  5
B70
330
1A
100
AcDbEntity
  8
GUIDE
100
AcDbLine
 10
-1717.0
 20
-48.26
 30
0.0
 11
-1717.0
 21
-44.5
 31
0.0
  0
LINE
  5
B71
330
1A
100
AcDbEntity
  8
GUIDE
100
AcDbLine
 10
-1723.0
 20
-48.26
 30
0.0
 11
-1723.0
 21
-44.5
 31
0.0
  0
LINE
  5
B72
330
1A
100
AcDbEntity
  8
GUIDE
100
AcDbLine
 10
-1723.0
 20
-70.5
 30
0.0
 11
-1723.0
 21
-55.78
 31
0.0
  0
LINE
  5
B73
330
1A
100
AcDbEntity
  8
GUIDE
100
AcDbLine
 10
-1717.0
 20
-70.5
 30
0.0
 11
-1717.0
 21
-55.78
 31
0.0
  0
LINE
  5
B74
330
1A
100
AcDbEntity
  8
GUIDE
100
AcDbLine
 10
-1709.5
 20
-55.78
 30
0.0
 11
-1730.5
 21
-55.78
 31
0.0
  0
LINE
  5
B75
330
1A
100
AcDbEntity
  8
GUIDE
100
AcDbLine
 10
-1709.5
 20
-48.26
 30
0.0
 11
-1730.5
 21
-48.26
 31
0.0
  0
LINE
  5
B76
330
1A
100
AcDbEntity
  8
GUIDE
100
AcDbLine
 10
-1730.5
 20
-48.26
 30
0.0
 11
-1730.5
 21
-55.78
 31
0.0
  0
LINE
  5
B77
330
1A
100
AcDbEntity
  8
GUIDE
100
AcDbLine
 10
-1709.5
 20
-48.26
 30
0.0
 11
-1709.5
 21
-55.78
 31
0.0
  0
LINE
  5
B78
330
1A
100
AcDbEntity
  8
GUIDE
100
AcDbLine
 10
-1769.5
 20
-44.5
 30
0.0
 11
-1769.5
 21
-59.58
 31
0.0
  0
LINE
  5
B79
330
1A
100
AcDbEntity
  8
GUIDE
100
AcDbLine
 10
-1775.5
 20
-44.5
 30
0.0
 11
-1775.5
 21
-59.58
 31
0.0
  0
LINE
  5
B7A
330
1A
100
AcDbEntity
  8
GUIDE
100
AcDbLine
 10
-1762.0
 20
-67.09999999999999
 30
0.0
 11
-1783.0
 21
-67.09999999999999
 31
0.0
  0
LINE
  5
B7B
330
1A
100
AcDbEntity
  8
GUIDE
100
AcDbLine
 10
-1762.0
 20
-59.58
 30
0.0
 11
-1783.0
 21
-59.58
 31
0.0
  0
LINE
  5
B7C
330
1A
100
AcDbEntity
  8
GUIDE
100
AcDbLine
 10
-1783.0
 20
-67.09999999999999
 30
0.0
 11
-1783.0
 21
-59.58
 31
0.0
  0
LINE
  5
B7D
330
1A
100
AcDbEntity
  8
GUIDE
100
AcDbLine
 10
-1762.0
 20
-67.09999999999999
 30
0.0
 11
-1762.0
 21
-59.58
 31
0.0
  0
LINE
  5
B7E
330
1A
100
AcDbEntity
  8
GUIDE
100
AcDbLine
 10
-1775.5
 20
-67.09999999999999
 30
0.0
 11
-1775.5
 21
-70.5
 31
0.0
  0
LINE
  5
B7F
330
1A
100
AcDbEntity
  8
GUIDE
100
AcDbLine
 10
-1769.5
 20
-67.09999999999999
 30
0.0
 11
-1769.5
 21
-70.5
 31
0.0
  0
LINE
  5
B80
330
1A
100
AcDbEntity
  8
GUIDE
100
AcDbLine
 10
-1752.0
 20
-48.26
 30
0.0
 11
-1752.0
 21
-44.5
 31
0.0
  0
LINE
  5
B81
330
1A
100
AcDbEntity
  8
GUIDE
100
AcDbLine
 10
-1758.0
 20
-48.26
 30
0.0
 11
-1758.0
 21
-44.5
 31
0.0
  0
LINE
  5
B82
330
1A
100
AcDbEntity
  8
GUIDE
100
AcDbLine
 10
-1758.0
 20
-70.5
 30
0.0
 11
-1758.0
 21
-55.78
 31
0.0
  0
LINE
  5
B83
330
1A
100
AcDbEntity
  8
GUIDE
100
AcDbLine
 10
-1752.0
 20
-70.5
 30
0.0
 11
-1752.0
 21
-55.78
 31
0.0
  0
LINE
  5
B84
330
1A
100
AcDbEntity
  8
GUIDE
100
AcDbLine
 10
-1744.5
 20
-55.78
 30
0.0
 11
-1765.5
 21
-55.78
 31
0.0
  0
LINE
  5
B85
330
1A
100
AcDbEntity
  8
GUIDE
100
AcDbLine
 10
-1744.5
 20
-48.26
 30
0.0
 11
-1765.5
 21
-48.26
 31
0.0
  0
LINE
  5
B86
330
1A
100
AcDbEntity
  8
GUIDE
100
AcDbLine
 10
-1765.5
 20
-48.26
 30
0.0
 11
-1765.5
 21
-55.78
 31
0.0
  0
LINE
  5
B87
330
1A
100
AcDbEntity
  8
GUIDE
100
AcDbLine
 10
-1744.5
 20
-48.26
 30
0.0
 11
-1744.5
 21
-55.78
 31
0.0
  0
LINE
  5
B88
330
1A
100
AcDbEntity
  8
GUIDE
100
AcDbLine
 10
-1804.5
 20
-44.5
 30
0.0
 11
-1804.5
 21
-59.58
 31
0.0
  0
LINE
  5
B89
330
1A
100
AcDbEntity
  8
GUIDE
100
AcDbLine
 10
-1810.5
 20
-44.5
 30
0.0
 11
-1810.5
 21
-59.58
 31
0.0
  0
LINE
  5
B8A
330
1A
100
AcDbEntity
  8
GUIDE
100
AcDbLine
 10
-1797.0
 20
-67.09999999999999
 30
0.0
 11
-1818.0
 21
-67.09999999999999
 31
0.0
  0
LINE
  5
B8B
330
1A
100
AcDbEntity
  8
GUIDE
100
AcDbLine
 10
-1797.0
 20
-59.58
 30
0.0
 11
-1818.0
 21
-59.58
 31
0.0
  0
LINE
  5
B8C
330
1A
100
AcDbEntity
  8
GUIDE
100
AcDbLine
 10
-1818.0
 20
-67.09999999999999
 30
0.0
 11
-1818.0
 21
-59.58
 31
0.0
  0
LINE
  5
B8D
330
1A
100
AcDbEntity
  8
GUIDE
100
AcDbLine
 10
-1797.0
 20
-67.09999999999999
 30
0.0
 11
-1797.0
 21
-59.58
 31
0.0
  0
LINE
  5
B8E
330
1A
100
AcDbEntity
  8
GUIDE
100
AcDbLine
 10
-1810.5
 20
-67.09999999999999
 30
0.0
 11
-1810.5
 21
-70.5
 31
0.0
  0
LINE
  5
B8F
330
1A
100
AcDbEntity
  8
GUIDE
100
AcDbLine
 10
-1804.5
 20
-67.09999999999999
 30
0.0
 11
-1804.5
 21
-70.5
 31
0.0
  0
LINE
  5
B90
330
1A
100
AcDbEntity
  8
GUIDE
100
AcDbLine
 10
-1787.0
 20
-48.26
 30
0.0
 11
-1787.0
 21
-44.5
 31
0.0
  0
LINE
  5
B91
330
1A
100
AcDbEntity
  8
GUIDE
100
AcDbLine
 10
-1793.0
 20
-48.26
 30
0.0
 11
-1793.0
 21
-44.5
 31
0.0
  0
LINE
  5
B92
330
1A
100
AcDbEntity
  8
GUIDE
100
AcDbLine
 10
-1793.0
 20
-70.5
 30
0.0
 11
-1793.0
 21
-55.78
 31
0.0
  0
LINE
  5
B93
330
1A
100
AcDbEntity
  8
GUIDE
100
AcDbLine
 10
-1787.0
 20
-70.5
 30
0.0
 11
-1787.0
 21
-55.78
 31
0.0
  0
LINE
  5
B94
330
1A
100
AcDbEntity
  8
GUIDE
100
AcDbLine
 10
-1779.5
 20
-55.78
 30
0.0
 11
-1800.5
 21
-55.78
 31
0.0
  0
LINE
  5
B95
330
1A
100
AcDbEntity
  8
GUIDE
100
AcDbLine
 10
-1779.5
 20
-48.26
 30
0.0
 11
-1800.5
 21
-48.26
 31
0.0
  0
LINE
  5
B96
330
1A
100
AcDbEntity
  8
GUIDE
100
AcDbLine
 10
-1800.5
 20
-48.26
 30
0.0
 11
-1800.5
 21
-55.78
 31
0.0
  0
LINE
  5
B97
330
1A
100
AcDbEntity
  8
GUIDE
100
AcDbLine
 10
-1779.5
 20
-48.26
 30
0.0
 11
-1779.5
 21
-55.78
 31
0.0
  0
LINE
  5
B98
330
1A
100
AcDbEntity
  8
GUIDE
100
AcDbLine
 10
-1839.5
 20
-44.5
 30
0.0
 11
-1839.5
 21
-59.58
 31
0.0
  0
LINE
  5
B99
330
1A
100
AcDbEntity
  8
GUIDE
100
AcDbLine
 10
-1845.5
 20
-44.5
 30
0.0
 11
-1845.5
 21
-59.58
 31
0.0
  0
LINE
  5
B9A
330
1A
100
AcDbEntity
  8
GUIDE
100
AcDbLine
 10
-1832.0
 20
-67.09999999999999
 30
0.0
 11
-1853.0
 21
-67.09999999999999
 31
0.0
  0
LINE
  5
B9B
330
1A
100
AcDbEntity
  8
GUIDE
100
AcDbLine
 10
-1832.0
 20
-59.58
 30
0.0
 11
-1853.0
 21
-59.58
 31
0.0
  0
LINE
  5
B9C
330
1A
100
AcDbEntity
  8
GUIDE
100
AcDbLine
 10
-1853.0
 20
-67.09999999999999
 30
0.0
 11
-1853.0
 21
-59.58
 31
0.0
  0
LINE
  5
B9D
330
1A
100
AcDbEntity
  8
GUIDE
100
AcDbLine
 10
-1832.0
 20
-67.09999999999999
 30
0.0
 11
-1832.0
 21
-59.58
 31
0.0
  0
LINE
  5
B9E
330
1A
100
AcDbEntity
  8
GUIDE
100
AcDbLine
 10
-1845.5
 20
-67.09999999999999
 30
0.0
 11
-1845.5
 21
-70.5
 31
0.0
  0
LINE
  5
B9F
330
1A
100
AcDbEntity
  8
GUIDE
100
AcDbLine
 10
-1839.5
 20
-67.09999999999999
 30
0.0
 11
-1839.5
 21
-70.5
 31
0.0
  0
LINE
  5
BA0
330
1A
100
AcDbEntity
  8
GUIDE
100
AcDbLine
 10
-1822.0
 20
-48.26
 30
0.0
 11
-1822.0
 21
-44.5
 31
0.0
  0
LINE
  5
BA1
330
1A
100
AcDbEntity
  8
GUIDE
100
AcDbLine
 10
-1828.0
 20
-48.26
 30
0.0
 11
-1828.0
 21
-44.5
 31
0.0
  0
LINE
  5
BA2
330
1A
100
AcDbEntity
  8
GUIDE
100
AcDbLine
 10
-1828.0
 20
-70.5
 30
0.0
 11
-1828.0
 21
-55.78
 31
0.0
  0
LINE
  5
BA3
330
1A
100
AcDbEntity
  8
GUIDE
100
AcDbLine
 10
-1822.0
 20
-70.5
 30
0.0
 11
-1822.0
 21
-55.78
 31
0.0
  0
LINE
  5
BA4
330
1A
100
AcDbEntity
  8
GUIDE
100
AcDbLine
 10
-1814.5
 20
-55.78
 30
0.0
 11
-1835.5
 21
-55.78
 31
0.0
  0
LINE
  5
BA5
330
1A
100
AcDbEntity
  8
GUIDE
100
AcDbLine
 10
-1814.5
 20
-48.26
 30
0.0
 11
-1835.5
 21
-48.26
 31
0.0
  0
LINE
  5
BA6
330
1A
100
AcDbEntity
  8
GUIDE
100
AcDbLine
 10
-1835.5
 20
-48.26
 30
0.0
 11
-1835.5
 21
-55.78
 31
0.0
  0
LINE
  5
BA7
330
1A
100
AcDbEntity
  8
GUIDE
100
AcDbLine
 10
-1814.5
 20
-48.26
 30
0.0
 11
-1814.5
 21
-55.78
 31
0.0
  0
LINE
  5
BA8
330
1A
100
AcDbEntity
  8
GUIDE
100
AcDbLine
 10
-1874.5
 20
-44.5
 30
0.0
 11
-1874.5
 21
-59.58
 31
0.0
  0
LINE
  5
BA9
330
1A
100
AcDbEntity
  8
GUIDE
100
AcDbLine
 10
-1880.5
 20
-44.5
 30
0.0
 11
-1880.5
 21
-59.58
 31
0.0
  0
LINE
  5
BAA
330
1A
100
AcDbEntity
  8
GUIDE
100
AcDbLine
 10
-1867.0
 20
-67.09999999999999
 30
0.0
 11
-1888.0
 21
-67.09999999999999
 31
0.0
  0
LINE
  5
BAB
330
1A
100
AcDbEntity
  8
GUIDE
100
AcDbLine
 10
-1867.0
 20
-59.58
 30
0.0
 11
-1888.0
 21
-59.58
 31
0.0
  0
LINE
  5
BAC
330
1A
100
AcDbEntity
  8
GUIDE
100
AcDbLine
 10
-1888.0
 20
-67.09999999999999
 30
0.0
 11
-1888.0
 21
-59.58
 31
0.0
  0
LINE
  5
BAD
330
1A
100
AcDbEntity
  8
GUIDE
100
AcDbLine
 10
-1867.0
 20
-67.09999999999999
 30
0.0
 11
-1867.0
 21
-59.58
 31
0.0
  0
LINE
  5
BAE
330
1A
100
AcDbEntity
  8
GUIDE
100
AcDbLine
 10
-1880.5
 20
-67.09999999999999
 30
0.0
 11
-1880.5
 21
-70.5
 31
0.0
  0
LINE
  5
BAF
330
1A
100
AcDbEntity
  8
GUIDE
100
AcDbLine
 10
-1874.5
 20
-67.09999999999999
 30
0.0
 11
-1874.5
 21
-70.5
 31
0.0
  0
LINE
  5
BB0
330
1A
100
AcDbEntity
  8
GUIDE
100
AcDbLine
 10
-1857.0
 20
-48.26
 30
0.0
 11
-1857.0
 21
-44.5
 31
0.0
  0
LINE
  5
BB1
330
1A
100
AcDbEntity
  8
GUIDE
100
AcDbLine
 10
-1863.0
 20
-48.26
 30
0.0
 11
-1863.0
 21
-44.5
 31
0.0
  0
LINE
  5
BB2
330
1A
100
AcDbEntity
  8
GUIDE
100
AcDbLine
 10
-1863.0
 20
-70.5
 30
0.0
 11
-1863.0
 21
-55.78
 31
0.0
  0
LINE
  5
BB3
330
1A
100
AcDbEntity
  8
GUIDE
100
AcDbLine
 10
-1857.0
 20
-70.5
 30
0.0
 11
-1857.0
 21
-55.78
 31
0.0
  0
LINE
  5
BB4
330
1A
100
AcDbEntity
  8
GUIDE
100
AcDbLine
 10
-1849.5
 20
-55.78
 30
0.0
 11
-1870.5
 21
-55.78
 31
0.0
  0
LINE
  5
BB5
330
1A
100
AcDbEntity
  8
GUIDE
100
AcDbLine
 10
-1849.5
 20
-48.26
 30
0.0
 11
-1870.5
 21
-48.26
 31
0.0
  0
LINE
  5
BB6
330
1A
100
AcDbEntity
  8
GUIDE
100
AcDbLine
 10
-1870.5
 20
-48.26
 30
0.0
 11
-1870.5
 21
-55.78
 31
0.0
  0
LINE
  5
BB7
330
1A
100
AcDbEntity
  8
GUIDE
100
AcDbLine
 10
-1849.5
 20
-48.26
 30
0.0
 11
-1849.5
 21
-55.78
 31
0.0
  0
LINE
  5
BB8
330
1A
100
AcDbEntity
  8
GUIDE
100
AcDbLine
 10
-1909.5
 20
-44.5
 30
0.0
 11
-1909.5
 21
-59.58
 31
0.0
  0
LINE
  5
BB9
330
1A
100
AcDbEntity
  8
GUIDE
100
AcDbLine
 10
-1915.5
 20
-44.5
 30
0.0
 11
-1915.5
 21
-59.58
 31
0.0
  0
LINE
  5
BBA
330
1A
100
AcDbEntity
  8
GUIDE
100
AcDbLine
 10
-1902.0
 20
-67.09999999999999
 30
0.0
 11
-1923.0
 21
-67.09999999999999
 31
0.0
  0
LINE
  5
BBB
330
1A
100
AcDbEntity
  8
GUIDE
100
AcDbLine
 10
-1902.0
 20
-59.58
 30
0.0
 11
-1923.0
 21
-59.58
 31
0.0
  0
LINE
  5
BBC
330
1A
100
AcDbEntity
  8
GUIDE
100
AcDbLine
 10
-1923.0
 20
-67.09999999999999
 30
0.0
 11
-1923.0
 21
-59.58
 31
0.0
  0
LINE
  5
BBD
330
1A
100
AcDbEntity
  8
GUIDE
100
AcDbLine
 10
-1902.0
 20
-67.09999999999999
 30
0.0
 11
-1902.0
 21
-59.58
 31
0.0
  0
LINE
  5
BBE
330
1A
100
AcDbEntity
  8
GUIDE
100
AcDbLine
 10
-1915.5
 20
-67.09999999999999
 30
0.0
 11
-1915.5
 21
-70.5
 31
0.0
  0
LINE
  5
BBF
330
1A
100
AcDbEntity
  8
GUIDE
100
AcDbLine
 10
-1909.5
 20
-67.09999999999999
 30
0.0
 11
-1909.5
 21
-70.5
 31
0.0
  0
LINE
  5
BC0
330
1A
100
AcDbEntity
  8
GUIDE
100
AcDbLine
 10
-1892.0
 20
-48.26
 30
0.0
 11
-1892.0
 21
-44.5
 31
0.0
  0
LINE
  5
BC1
330
1A
100
AcDbEntity
  8
GUIDE
100
AcDbLine
 10
-1898.0
 20
-48.26
 30
0.0
 11
-1898.0
 21
-44.5
 31
0.0
  0
LINE
  5
BC2
330
1A
100
AcDbEntity
  8
GUIDE
100
AcDbLine
 10
-1898.0
 20
-70.5
 30
0.0
 11
-1898.0
 21
-55.78
 31
0.0
  0
LINE
  5
BC3
330
1A
100
AcDbEntity
  8
GUIDE
100
AcDbLine
 10
-1892.0
 20
-70.5
 30
0.0
 11
-1892.0
 21
-55.78
 31
0.0
  0
LINE
  5
BC4
330
1A
100
AcDbEntity
  8
GUIDE
100
AcDbLine
 10
-1884.5
 20
-55.78
 30
0.0
 11
-1905.5
 21
-55.78
 31
0.0
  0
LINE
  5
BC5
330
1A
100
AcDbEntity
  8
GUIDE
100
AcDbLine
 10
-1884.5
 20
-48.26
 30
0.0
 11
-1905.5
 21
-48.26
 31
0.0
  0
LINE
  5
BC6
330
1A
100
AcDbEntity
  8
GUIDE
100
AcDbLine
 10
-1905.5
 20
-48.26
 30
0.0
 11
-1905.5
 21
-55.78
 31
0.0
  0
LINE
  5
BC7
330
1A
100
AcDbEntity
  8
GUIDE
100
AcDbLine
 10
-1884.5
 20
-48.26
 30
0.0
 11
-1884.5
 21
-55.78
 31
0.0
  0
LINE
  5
BC8
330
1A
100
AcDbEntity
  8
GUIDE
100
AcDbLine
 10
-1944.5
 20
-44.5
 30
0.0
 11
-1944.5
 21
-59.58
 31
0.0
  0
LINE
  5
BC9
330
1A
100
AcDbEntity
  8
GUIDE
100
AcDbLine
 10
-1950.5
 20
-44.5
 30
0.0
 11
-1950.5
 21
-59.58
 31
0.0
  0
LINE
  5
BCA
330
1A
100
AcDbEntity
  8
GUIDE
100
AcDbLine
 10
-1937.0
 20
-67.09999999999999
 30
0.0
 11
-1958.0
 21
-67.09999999999999
 31
0.0
  0
LINE
  5
BCB
330
1A
100
AcDbEntity
  8
GUIDE
100
AcDbLine
 10
-1937.0
 20
-59.58
 30
0.0
 11
-1958.0
 21
-59.58
 31
0.0
  0
LINE
  5
BCC
330
1A
100
AcDbEntity
  8
GUIDE
100
AcDbLine
 10
-1958.0
 20
-67.09999999999999
 30
0.0
 11
-1958.0
 21
-59.58
 31
0.0
  0
LINE
  5
BCD
330
1A
100
AcDbEntity
  8
GUIDE
100
AcDbLine
 10
-1937.0
 20
-67.09999999999999
 30
0.0
 11
-1937.0
 21
-59.58
 31
0.0
  0
LINE
  5
BCE
330
1A
100
AcDbEntity
  8
GUIDE
100
AcDbLine
 10
-1950.5
 20
-67.09999999999999
 30
0.0
 11
-1950.5
 21
-70.5
 31
0.0
  0
LINE
  5
BCF
330
1A
100
AcDbEntity
  8
GUIDE
100
AcDbLine
 10
-1944.5
 20
-67.09999999999999
 30
0.0
 11
-1944.5
 21
-70.5
 31
0.0
  0
LINE
  5
BD0
330
1A
100
AcDbEntity
  8
GUIDE
100
AcDbLine
 10
-1927.0
 20
-48.26
 30
0.0
 11
-1927.0
 21
-44.5
 31
0.0
  0
LINE
  5
BD1
330
1A
100
AcDbEntity
  8
GUIDE
100
AcDbLine
 10
-1933.0
 20
-48.26
 30
0.0
 11
-1933.0
 21
-44.5
 31
0.0
  0
LINE
  5
BD2
330
1A
100
AcDbEntity
  8
GUIDE
100
AcDbLine
 10
-1933.0
 20
-70.5
 30
0.0
 11
-1933.0
 21
-55.78
 31
0.0
  0
LINE
  5
BD3
330
1A
100
AcDbEntity
  8
GUIDE
100
AcDbLine
 10
-1927.0
 20
-70.5
 30
0.0
 11
-1927.0
 21
-55.78
 31
0.0
  0
LINE
  5
BD4
330
1A
100
AcDbEntity
  8
GUIDE
100
AcDbLine
 10
-1919.5
 20
-55.78
 30
0.0
 11
-1940.5
 21
-55.78
 31
0.0
  0
LINE
  5
BD5
330
1A
100
AcDbEntity
  8
GUIDE
100
AcDbLine
 10
-1919.5
 20
-48.26
 30
0.0
 11
-1940.5
 21
-48.26
 31
0.0
  0
LINE
  5
BD6
330
1A
100
AcDbEntity
  8
GUIDE
100
AcDbLine
 10
-1940.5
 20
-48.26
 30
0.0
 11
-1940.5
 21
-55.78
 31
0.0
  0
LINE
  5
BD7
330
1A
100
AcDbEntity
  8
GUIDE
100
AcDbLine
 10
-1919.5
 20
-48.26
 30
0.0
 11
-1919.5
 21
-55.78
 31
0.0
  0
LINE
  5
BD8
330
1A
100
AcDbEntity
  8
GUIDE
100
AcDbLine
 10
-1979.5
 20
-44.5
 30
0.0
 11
-1979.5
 21
-59.58
 31
0.0
  0
LINE
  5
BD9
330
1A
100
AcDbEntity
  8
GUIDE
100
AcDbLine
 10
-1985.5
 20
-44.5
 30
0.0
 11
-1985.5
 21
-59.58
 31
0.0
  0
LINE
  5
BDA
330
1A
100
AcDbEntity
  8
GUIDE
100
AcDbLine
 10
-1972.0
 20
-67.09999999999999
 30
0.0
 11
-1993.0
 21
-67.09999999999999
 31
0.0
  0
LINE
  5
BDB
330
1A
100
AcDbEntity
  8
GUIDE
100
AcDbLine
 10
-1972.0
 20
-59.58
 30
0.0
 11
-1993.0
 21
-59.58
 31
0.0
  0
LINE
  5
BDC
330
1A
100
AcDbEntity
  8
GUIDE
100
AcDbLine
 10
-1993.0
 20
-67.09999999999999
 30
0.0
 11
-1993.0
 21
-59.58
 31
0.0
  0
LINE
  5
BDD
330
1A
100
AcDbEntity
  8
GUIDE
100
AcDbLine
 10
-1972.0
 20
-67.09999999999999
 30
0.0
 11
-1972.0
 21
-59.58
 31
0.0
  0
LINE
  5
BDE
330
1A
100
AcDbEntity
  8
GUIDE
100
AcDbLine
 10
-1985.5
 20
-67.09999999999999
 30
0.0
 11
-1985.5
 21
-70.5
 31
0.0
  0
LINE
  5
BDF
330
1A
100
AcDbEntity
  8
GUIDE
100
AcDbLine
 10
-1979.5
 20
-67.09999999999999
 30
0.0
 11
-1979.5
 21
-70.5
 31
0.0
  0
LINE
  5
BE0
330
1A
100
AcDbEntity
  8
GUIDE
100
AcDbLine
 10
-1962.0
 20
-48.26
 30
0.0
 11
-1962.0
 21
-44.5
 31
0.0
  0
LINE
  5
BE1
330
1A
100
AcDbEntity
  8
GUIDE
100
AcDbLine
 10
-1968.0
 20
-48.26
 30
0.0
 11
-1968.0
 21
-44.5
 31
0.0
  0
LINE
  5
BE2
330
1A
100
AcDbEntity
  8
GUIDE
100
AcDbLine
 10
-1968.0
 20
-70.5
 30
0.0
 11
-1968.0
 21
-55.78
 31
0.0
  0
LINE
  5
BE3
330
1A
100
AcDbEntity
  8
GUIDE
100
AcDbLine
 10
-1962.0
 20
-70.5
 30
0.0
 11
-1962.0
 21
-55.78
 31
0.0
  0
LINE
  5
BE4
330
1A
100
AcDbEntity
  8
GUIDE
100
AcDbLine
 10
-1954.5
 20
-55.78
 30
0.0
 11
-1975.5
 21
-55.78
 31
0.0
  0
LINE
  5
BE5
330
1A
100
AcDbEntity
  8
GUIDE
100
AcDbLine
 10
-1954.5
 20
-48.26
 30
0.0
 11
-1975.5
 21
-48.26
 31
0.0
  0
LINE
  5
BE6
330
1A
100
AcDbEntity
  8
GUIDE
100
AcDbLine
 10
-1975.5
 20
-48.26
 30
0.0
 11
-1975.5
 21
-55.78
 31
0.0
  0
LINE
  5
BE7
330
1A
100
AcDbEntity
  8
GUIDE
100
AcDbLine
 10
-1954.5
 20
-48.26
 30
0.0
 11
-1954.5
 21
-55.78
 31
0.0
  0
LINE
  5
BE8
330
1A
100
AcDbEntity
  8
GUIDE
100
AcDbLine
 10
-2014.5
 20
-44.5
 30
0.0
 11
-2014.5
 21
-59.58
 31
0.0
  0
LINE
  5
BE9
330
1A
100
AcDbEntity
  8
GUIDE
100
AcDbLine
 10
-2020.5
 20
-44.5
 30
0.0
 11
-2020.5
 21
-59.58
 31
0.0
  0
LINE
  5
BEA
330
1A
100
AcDbEntity
  8
GUIDE
100
AcDbLine
 10
-2007.0
 20
-67.09999999999999
 30
0.0
 11
-2028.0
 21
-67.09999999999999
 31
0.0
  0
LINE
  5
BEB
330
1A
100
AcDbEntity
  8
GUIDE
100
AcDbLine
 10
-2007.0
 20
-59.58
 30
0.0
 11
-2028.0
 21
-59.58
 31
0.0
  0
LINE
  5
BEC
330
1A
100
AcDbEntity
  8
GUIDE
100
AcDbLine
 10
-2028.0
 20
-67.09999999999999
 30
0.0
 11
-2028.0
 21
-59.58
 31
0.0
  0
LINE
  5
BED
330
1A
100
AcDbEntity
  8
GUIDE
100
AcDbLine
 10
-2007.0
 20
-67.09999999999999
 30
0.0
 11
-2007.0
 21
-59.58
 31
0.0
  0
LINE
  5
BEE
330
1A
100
AcDbEntity
  8
GUIDE
100
AcDbLine
 10
-2020.5
 20
-67.09999999999999
 30
0.0
 11
-2020.5
 21
-70.5
 31
0.0
  0
LINE
  5
BEF
330
1A
100
AcDbEntity
  8
GUIDE
100
AcDbLine
 10
-2014.5
 20
-67.09999999999999
 30
0.0
 11
-2014.5
 21
-70.5
 31
0.0
  0
LINE
  5
BF0
330
1A
100
AcDbEntity
  8
GUIDE
100
AcDbLine
 10
-1997.0
 20
-48.26
 30
0.0
 11
-1997.0
 21
-44.5
 31
0.0
  0
LINE
  5
BF1
330
1A
100
AcDbEntity
  8
GUIDE
100
AcDbLine
 10
-2003.0
 20
-48.26
 30
0.0
 11
-2003.0
 21
-44.5
 31
0.0
  0
LINE
  5
BF2
330
1A
100
AcDbEntity
  8
GUIDE
100
AcDbLine
 10
-2003.0
 20
-70.5
 30
0.0
 11
-2003.0
 21
-55.78
 31
0.0
  0
LINE
  5
BF3
330
1A
100
AcDbEntity
  8
GUIDE
100
AcDbLine
 10
-1997.0
 20
-70.5
 30
0.0
 11
-1997.0
 21
-55.78
 31
0.0
  0
LINE
  5
BF4
330
1A
100
AcDbEntity
  8
GUIDE
100
AcDbLine
 10
-1989.5
 20
-55.78
 30
0.0
 11
-2010.5
 21
-55.78
 31
0.0
  0
LINE
  5
BF5
330
1A
100
AcDbEntity
  8
GUIDE
100
AcDbLine
 10
-1989.5
 20
-48.26
 30
0.0
 11
-2010.5
 21
-48.26
 31
0.0
  0
LINE
  5
BF6
330
1A
100
AcDbEntity
  8
GUIDE
100
AcDbLine
 10
-2010.5
 20
-48.26
 30
0.0
 11
-2010.5
 21
-55.78
 31
0.0
  0
LINE
  5
BF7
330
1A
100
AcDbEntity
  8
GUIDE
100
AcDbLine
 10
-1989.5
 20
-48.26
 30
0.0
 11
-1989.5
 21
-55.78
 31
0.0
  0
LINE
  5
BF8
330
1A
100
AcDbEntity
  8
GUIDE
100
AcDbLine
 10
-2049.5
 20
-44.5
 30
0.0
 11
-2049.5
 21
-59.58
 31
0.0
  0
LINE
  5
BF9
330
1A
100
AcDbEntity
  8
GUIDE
100
AcDbLine
 10
-2055.5
 20
-44.5
 30
0.0
 11
-2055.5
 21
-59.58
 31
0.0
  0
LINE
  5
BFA
330
1A
100
AcDbEntity
  8
GUIDE
100
AcDbLine
 10
-2042.0
 20
-67.09999999999999
 30
0.0
 11
-2063.0
 21
-67.09999999999999
 31
0.0
  0
LINE
  5
BFB
330
1A
100
AcDbEntity
  8
GUIDE
100
AcDbLine
 10
-2042.0
 20
-59.58
 30
0.0
 11
-2063.0
 21
-59.58
 31
0.0
  0
LINE
  5
BFC
330
1A
100
AcDbEntity
  8
GUIDE
100
AcDbLine
 10
-2063.0
 20
-67.09999999999999
 30
0.0
 11
-2063.0
 21
-59.58
 31
0.0
  0
LINE
  5
BFD
330
1A
100
AcDbEntity
  8
GUIDE
100
AcDbLine
 10
-2042.0
 20
-67.09999999999999
 30
0.0
 11
-2042.0
 21
-59.58
 31
0.0
  0
LINE
  5
BFE
330
1A
100
AcDbEntity
  8
GUIDE
100
AcDbLine
 10
-2055.5
 20
-67.09999999999999
 30
0.0
 11
-2055.5
 21
-70.5
 31
0.0
  0
LINE
  5
BFF
330
1A
100
AcDbEntity
  8
GUIDE
100
AcDbLine
 10
-2049.5
 20
-67.09999999999999
 30
0.0
 11
-2049.5
 21
-70.5
 31
0.0
  0
LINE
  5
C00
330
1A
100
AcDbEntity
  8
GUIDE
100
AcDbLine
 10
-2032.0
 20
-48.26
 30
0.0
 11
-2032.0
 21
-44.5
 31
0.0
  0
LINE
  5
C01
330
1A
100
AcDbEntity
  8
GUIDE
100
AcDbLine
 10
-2038.0
 20
-48.26
 30
0.0
 11
-2038.0
 21
-44.5
 31
0.0
  0
LINE
  5
C02
330
1A
100
AcDbEntity
  8
GUIDE
100
AcDbLine
 10
-2038.0
 20
-70.5
 30
0.0
 11
-2038.0
 21
-55.78
 31
0.0
  0
LINE
  5
C03
330
1A
100
AcDbEntity
  8
GUIDE
100
AcDbLine
 10
-2032.0
 20
-70.5
 30
0.0
 11
-2032.0
 21
-55.78
 31
0.0
  0
LINE
  5
C04
330
1A
100
AcDbEntity
  8
GUIDE
100
AcDbLine
 10
-2024.5
 20
-55.78
 30
0.0
 11
-2045.5
 21
-55.78
 31
0.0
  0
LINE
  5
C05
330
1A
100
AcDbEntity
  8
GUIDE
100
AcDbLine
 10
-2024.5
 20
-48.26
 30
0.0
 11
-2045.5
 21
-48.26
 31
0.0
  0
LINE
  5
C06
330
1A
100
AcDbEntity
  8
GUIDE
100
AcDbLine
 10
-2045.5
 20
-48.26
 30
0.0
 11
-2045.5
 21
-55.78
 31
0.0
  0
LINE
  5
C07
330
1A
100
AcDbEntity
  8
GUIDE
100
AcDbLine
 10
-2024.5
 20
-48.26
 30
0.0
 11
-2024.5
 21
-55.78
 31
0.0
  0
LINE
  5
C08
330
1A
100
AcDbEntity
  8
GUIDE
100
AcDbLine
 10
-2084.5
 20
-44.5
 30
0.0
 11
-2084.5
 21
-59.58
 31
0.0
  0
LINE
  5
C09
330
1A
100
AcDbEntity
  8
GUIDE
100
AcDbLine
 10
-2090.5
 20
-44.5
 30
0.0
 11
-2090.5
 21
-59.58
 31
0.0
  0
LINE
  5
C0A
330
1A
100
AcDbEntity
  8
GUIDE
100
AcDbLine
 10
-2077.0
 20
-67.09999999999999
 30
0.0
 11
-2098.0
 21
-67.09999999999999
 31
0.0
  0
LINE
  5
C0B
330
1A
100
AcDbEntity
  8
GUIDE
100
AcDbLine
 10
-2077.0
 20
-59.58
 30
0.0
 11
-2098.0
 21
-59.58
 31
0.0
  0
LINE
  5
C0C
330
1A
100
AcDbEntity
  8
GUIDE
100
AcDbLine
 10
-2098.0
 20
-67.09999999999999
 30
0.0
 11
-2098.0
 21
-59.58
 31
0.0
  0
LINE
  5
C0D
330
1A
100
AcDbEntity
  8
GUIDE
100
AcDbLine
 10
-2077.0
 20
-67.09999999999999
 30
0.0
 11
-2077.0
 21
-59.58
 31
0.0
  0
LINE
  5
C0E
330
1A
100
AcDbEntity
  8
GUIDE
100
AcDbLine
 10
-2090.5
 20
-67.09999999999999
 30
0.0
 11
-2090.5
 21
-70.5
 31
0.0
  0
LINE
  5
C0F
330
1A
100
AcDbEntity
  8
GUIDE
100
AcDbLine
 10
-2084.5
 20
-67.09999999999999
 30
0.0
 11
-2084.5
 21
-70.5
 31
0.0
  0
LINE
  5
C10
330
1A
100
AcDbEntity
  8
GUIDE
100
AcDbLine
 10
-2067.0
 20
-48.26
 30
0.0
 11
-2067.0
 21
-44.5
 31
0.0
  0
LINE
  5
C11
330
1A
100
AcDbEntity
  8
GUIDE
100
AcDbLine
 10
-2073.0
 20
-48.26
 30
0.0
 11
-2073.0
 21
-44.5
 31
0.0
  0
LINE
  5
C12
330
1A
100
AcDbEntity
  8
GUIDE
100
AcDbLine
 10
-2073.0
 20
-70.5
 30
0.0
 11
-2073.0
 21
-55.78
 31
0.0
  0
LINE
  5
C13
330
1A
100
AcDbEntity
  8
GUIDE
100
AcDbLine
 10
-2067.0
 20
-70.5
 30
0.0
 11
-2067.0
 21
-55.78
 31
0.0
  0
LINE
  5
C14
330
1A
100
AcDbEntity
  8
GUIDE
100
AcDbLine
 10
-2059.5
 20
-55.78
 30
0.0
 11
-2080.5
 21
-55.78
 31
0.0
  0
LINE
  5
C15
330
1A
100
AcDbEntity
  8
GUIDE
100
AcDbLine
 10
-2059.5
 20
-48.26
 30
0.0
 11
-2080.5
 21
-48.26
 31
0.0
  0
LINE
  5
C16
330
1A
100
AcDbEntity
  8
GUIDE
100
AcDbLine
 10
-2080.5
 20
-48.26
 30
0.0
 11
-2080.5
 21
-55.78
 31
0.0
  0
LINE
  5
C17
330
1A
100
AcDbEntity
  8
GUIDE
100
AcDbLine
 10
-2059.5
 20
-48.26
 30
0.0
 11
-2059.5
 21
-55.78
 31
0.0
  0
LINE
  5
C18
330
1A
100
AcDbEntity
  8
GUIDE
100
AcDbLine
 10
-2119.5
 20
-44.5
 30
0.0
 11
-2119.5
 21
-59.58
 31
0.0
  0
LINE
  5
C19
330
1A
100
AcDbEntity
  8
GUIDE
100
AcDbLine
 10
-2125.5
 20
-44.5
 30
0.0
 11
-2125.5
 21
-59.58
 31
0.0
  0
LINE
  5
C1A
330
1A
100
AcDbEntity
  8
GUIDE
100
AcDbLine
 10
-2112.0
 20
-67.09999999999999
 30
0.0
 11
-2133.0
 21
-67.09999999999999
 31
0.0
  0
LINE
  5
C1B
330
1A
100
AcDbEntity
  8
GUIDE
100
AcDbLine
 10
-2112.0
 20
-59.58
 30
0.0
 11
-2133.0
 21
-59.58
 31
0.0
  0
LINE
  5
C1C
330
1A
100
AcDbEntity
  8
GUIDE
100
AcDbLine
 10
-2133.0
 20
-67.09999999999999
 30
0.0
 11
-2133.0
 21
-59.58
 31
0.0
  0
LINE
  5
C1D
330
1A
100
AcDbEntity
  8
GUIDE
100
AcDbLine
 10
-2112.0
 20
-67.09999999999999
 30
0.0
 11
-2112.0
 21
-59.58
 31
0.0
  0
LINE
  5
C1E
330
1A
100
AcDbEntity
  8
GUIDE
100
AcDbLine
 10
-2125.5
 20
-67.09999999999999
 30
0.0
 11
-2125.5
 21
-70.5
 31
0.0
  0
LINE
  5
C1F
330
1A
100
AcDbEntity
  8
GUIDE
100
AcDbLine
 10
-2119.5
 20
-67.09999999999999
 30
0.0
 11
-2119.5
 21
-70.5
 31
0.0
  0
LINE
  5
C20
330
1A
100
AcDbEntity
  8
GUIDE
100
AcDbLine
 10
-2102.0
 20
-48.26
 30
0.0
 11
-2102.0
 21
-44.5
 31
0.0
  0
LINE
  5
C21
330
1A
100
AcDbEntity
  8
GUIDE
100
AcDbLine
 10
-2108.0
 20
-48.26
 30
0.0
 11
-2108.0
 21
-44.5
 31
0.0
  0
LINE
  5
C22
330
1A
100
AcDbEntity
  8
GUIDE
100
AcDbLine
 10
-2108.0
 20
-70.5
 30
0.0
 11
-2108.0
 21
-55.78
 31
0.0
  0
LINE
  5
C23
330
1A
100
AcDbEntity
  8
GUIDE
100
AcDbLine
 10
-2102.0
 20
-70.5
 30
0.0
 11
-2102.0
 21
-55.78
 31
0.0
  0
LINE
  5
C24
330
1A
100
AcDbEntity
  8
GUIDE
100
AcDbLine
 10
-2094.5
 20
-55.78
 30
0.0
 11
-2115.5
 21
-55.78
 31
0.0
  0
LINE
  5
C25
330
1A
100
AcDbEntity
  8
GUIDE
100
AcDbLine
 10
-2094.5
 20
-48.26
 30
0.0
 11
-2115.5
 21
-48.26
 31
0.0
  0
LINE
  5
C26
330
1A
100
AcDbEntity
  8
GUIDE
100
AcDbLine
 10
-2115.5
 20
-48.26
 30
0.0
 11
-2115.5
 21
-55.78
 31
0.0
  0
LINE
  5
C27
330
1A
100
AcDbEntity
  8
GUIDE
100
AcDbLine
 10
-2094.5
 20
-48.26
 30
0.0
 11
-2094.5
 21
-55.78
 31
0.0
  0
LINE
  5
C28
330
1A
100
AcDbEntity
  8
GUIDE
100
AcDbLine
 10
-2154.5
 20
-44.5
 30
0.0
 11
-2154.5
 21
-59.58
 31
0.0
  0
LINE
  5
C29
330
1A
100
AcDbEntity
  8
GUIDE
100
AcDbLine
 10
-2160.5
 20
-44.5
 30
0.0
 11
-2160.5
 21
-59.58
 31
0.0
  0
LINE
  5
C2A
330
1A
100
AcDbEntity
  8
GUIDE
100
AcDbLine
 10
-2147.0
 20
-67.09999999999999
 30
0.0
 11
-2168.0
 21
-67.09999999999999
 31
0.0
  0
LINE
  5
C2B
330
1A
100
AcDbEntity
  8
GUIDE
100
AcDbLine
 10
-2147.0
 20
-59.58
 30
0.0
 11
-2168.0
 21
-59.58
 31
0.0
  0
LINE
  5
C2C
330
1A
100
AcDbEntity
  8
GUIDE
100
AcDbLine
 10
-2168.0
 20
-67.09999999999999
 30
0.0
 11
-2168.0
 21
-59.58
 31
0.0
  0
LINE
  5
C2D
330
1A
100
AcDbEntity
  8
GUIDE
100
AcDbLine
 10
-2147.0
 20
-67.09999999999999
 30
0.0
 11
-2147.0
 21
-59.58
 31
0.0
  0
LINE
  5
C2E
330
1A
100
AcDbEntity
  8
GUIDE
100
AcDbLine
 10
-2160.5
 20
-67.09999999999999
 30
0.0
 11
-2160.5
 21
-70.5
 31
0.0
  0
LINE
  5
C2F
330
1A
100
AcDbEntity
  8
GUIDE
100
AcDbLine
 10
-2154.5
 20
-67.09999999999999
 30
0.0
 11
-2154.5
 21
-70.5
 31
0.0
  0
LINE
  5
C30
330
1A
100
AcDbEntity
  8
GUIDE
100
AcDbLine
 10
-2137.0
 20
-48.26
 30
0.0
 11
-2137.0
 21
-44.5
 31
0.0
  0
LINE
  5
C31
330
1A
100
AcDbEntity
  8
GUIDE
100
AcDbLine
 10
-2143.0
 20
-48.26
 30
0.0
 11
-2143.0
 21
-44.5
 31
0.0
  0
LINE
  5
C32
330
1A
100
AcDbEntity
  8
GUIDE
100
AcDbLine
 10
-2143.0
 20
-70.5
 30
0.0
 11
-2143.0
 21
-55.78
 31
0.0
  0
LINE
  5
C33
330
1A
100
AcDbEntity
  8
GUIDE
100
AcDbLine
 10
-2137.0
 20
-70.5
 30
0.0
 11
-2137.0
 21
-55.78
 31
0.0
  0
LINE
  5
C34
330
1A
100
AcDbEntity
  8
GUIDE
100
AcDbLine
 10
-2129.5
 20
-55.78
 30
0.0
 11
-2150.5
 21
-55.78
 31
0.0
  0
LINE
  5
C35
330
1A
100
AcDbEntity
  8
GUIDE
100
AcDbLine
 10
-2129.5
 20
-48.26
 30
0.0
 11
-2150.5
 21
-48.26
 31
0.0
  0
LINE
  5
C36
330
1A
100
AcDbEntity
  8
GUIDE
100
AcDbLine
 10
-2150.5
 20
-48.26
 30
0.0
 11
-2150.5
 21
-55.78
 31
0.0
  0
LINE
  5
C37
330
1A
100
AcDbEntity
  8
GUIDE
100
AcDbLine
 10
-2129.5
 20
-48.26
 30
0.0
 11
-2129.5
 21
-55.78
 31
0.0
  0
LINE
  5
C38
330
1A
100
AcDbEntity
  8
GUIDE
100
AcDbLine
 10
-2189.5
 20
-44.5
 30
0.0
 11
-2189.5
 21
-59.58
 31
0.0
  0
LINE
  5
C39
330
1A
100
AcDbEntity
  8
GUIDE
100
AcDbLine
 10
-2195.5
 20
-44.5
 30
0.0
 11
-2195.5
 21
-59.58
 31
0.0
  0
LINE
  5
C3A
330
1A
100
AcDbEntity
  8
GUIDE
100
AcDbLine
 10
-2182.0
 20
-67.09999999999999
 30
0.0
 11
-2203.0
 21
-67.09999999999999
 31
0.0
  0
LINE
  5
C3B
330
1A
100
AcDbEntity
  8
GUIDE
100
AcDbLine
 10
-2182.0
 20
-59.58
 30
0.0
 11
-2203.0
 21
-59.58
 31
0.0
  0
LINE
  5
C3C
330
1A
100
AcDbEntity
  8
GUIDE
100
AcDbLine
 10
-2203.0
 20
-67.09999999999999
 30
0.0
 11
-2203.0
 21
-59.58
 31
0.0
  0
LINE
  5
C3D
330
1A
100
AcDbEntity
  8
GUIDE
100
AcDbLine
 10
-2182.0
 20
-67.09999999999999
 30
0.0
 11
-2182.0
 21
-59.58
 31
0.0
  0
LINE
  5
C3E
330
1A
100
AcDbEntity
  8
GUIDE
100
AcDbLine
 10
-2195.5
 20
-67.09999999999999
 30
0.0
 11
-2195.5
 21
-70.5
 31
0.0
  0
LINE
  5
C3F
330
1A
100
AcDbEntity
  8
GUIDE
100
AcDbLine
 10
-2189.5
 20
-67.09999999999999
 30
0.0
 11
-2189.5
 21
-70.5
 31
0.0
  0
LINE
  5
C40
330
1A
100
AcDbEntity
  8
GUIDE
100
AcDbLine
 10
-2172.0
 20
-48.26
 30
0.0
 11
-2172.0
 21
-44.5
 31
0.0
  0
LINE
  5
C41
330
1A
100
AcDbEntity
  8
GUIDE
100
AcDbLine
 10
-2178.0
 20
-48.26
 30
0.0
 11
-2178.0
 21
-44.5
 31
0.0
  0
LINE
  5
C42
330
1A
100
AcDbEntity
  8
GUIDE
100
AcDbLine
 10
-2178.0
 20
-70.5
 30
0.0
 11
-2178.0
 21
-55.78
 31
0.0
  0
LINE
  5
C43
330
1A
100
AcDbEntity
  8
GUIDE
100
AcDbLine
 10
-2172.0
 20
-70.5
 30
0.0
 11
-2172.0
 21
-55.78
 31
0.0
  0
LINE
  5
C44
330
1A
100
AcDbEntity
  8
GUIDE
100
AcDbLine
 10
-2164.5
 20
-55.78
 30
0.0
 11
-2185.5
 21
-55.78
 31
0.0
  0
LINE
  5
C45
330
1A
100
AcDbEntity
  8
GUIDE
100
AcDbLine
 10
-2164.5
 20
-48.26
 30
0.0
 11
-2185.5
 21
-48.26
 31
0.0
  0
LINE
  5
C46
330
1A
100
AcDbEntity
  8
GUIDE
100
AcDbLine
 10
-2185.5
 20
-48.26
 30
0.0
 11
-2185.5
 21
-55.78
 31
0.0
  0
LINE
  5
C47
330
1A
100
AcDbEntity
  8
GUIDE
100
AcDbLine
 10
-2164.5
 20
-48.26
 30
0.0
 11
-2164.5
 21
-55.78
 31
0.0
  0
LINE
  5
C48
330
1A
100
AcDbEntity
  8
GUIDE
100
AcDbLine
 10
-2224.5
 20
-44.5
 30
0.0
 11
-2224.5
 21
-59.58
 31
0.0
  0
LINE
  5
C49
330
1A
100
AcDbEntity
  8
GUIDE
100
AcDbLine
 10
-2230.5
 20
-44.5
 30
0.0
 11
-2230.5
 21
-59.58
 31
0.0
  0
LINE
  5
C4A
330
1A
100
AcDbEntity
  8
GUIDE
100
AcDbLine
 10
-2217.0
 20
-67.09999999999999
 30
0.0
 11
-2238.0
 21
-67.09999999999999
 31
0.0
  0
LINE
  5
C4B
330
1A
100
AcDbEntity
  8
GUIDE
100
AcDbLine
 10
-2217.0
 20
-59.58
 30
0.0
 11
-2238.0
 21
-59.58
 31
0.0
  0
LINE
  5
C4C
330
1A
100
AcDbEntity
  8
GUIDE
100
AcDbLine
 10
-2238.0
 20
-67.09999999999999
 30
0.0
 11
-2238.0
 21
-59.58
 31
0.0
  0
LINE
  5
C4D
330
1A
100
AcDbEntity
  8
GUIDE
100
AcDbLine
 10
-2217.0
 20
-67.09999999999999
 30
0.0
 11
-2217.0
 21
-59.58
 31
0.0
  0
LINE
  5
C4E
330
1A
100
AcDbEntity
  8
GUIDE
100
AcDbLine
 10
-2230.5
 20
-67.09999999999999
 30
0.0
 11
-2230.5
 21
-70.5
 31
0.0
  0
LINE
  5
C4F
330
1A
100
AcDbEntity
  8
GUIDE
100
AcDbLine
 10
-2224.5
 20
-67.09999999999999
 30
0.0
 11
-2224.5
 21
-70.5
 31
0.0
  0
LINE
  5
C50
330
1A
100
AcDbEntity
  8
GUIDE
100
AcDbLine
 10
-2207.0
 20
-48.26
 30
0.0
 11
-2207.0
 21
-44.5
 31
0.0
  0
LINE
  5
C51
330
1A
100
AcDbEntity
  8
GUIDE
100
AcDbLine
 10
-2213.0
 20
-48.26
 30
0.0
 11
-2213.0
 21
-44.5
 31
0.0
  0
LINE
  5
C52
330
1A
100
AcDbEntity
  8
GUIDE
100
AcDbLine
 10
-2213.0
 20
-70.5
 30
0.0
 11
-2213.0
 21
-55.78
 31
0.0
  0
LINE
  5
C53
330
1A
100
AcDbEntity
  8
GUIDE
100
AcDbLine
 10
-2207.0
 20
-70.5
 30
0.0
 11
-2207.0
 21
-55.78
 31
0.0
  0
LINE
  5
C54
330
1A
100
AcDbEntity
  8
GUIDE
100
AcDbLine
 10
-2199.5
 20
-55.78
 30
0.0
 11
-2220.5
 21
-55.78
 31
0.0
  0
LINE
  5
C55
330
1A
100
AcDbEntity
  8
GUIDE
100
AcDbLine
 10
-2199.5
 20
-48.26
 30
0.0
 11
-2220.5
 21
-48.26
 31
0.0
  0
LINE
  5
C56
330
1A
100
AcDbEntity
  8
GUIDE
100
AcDbLine
 10
-2220.5
 20
-48.26
 30
0.0
 11
-2220.5
 21
-55.78
 31
0.0
  0
LINE
  5
C57
330
1A
100
AcDbEntity
  8
GUIDE
100
AcDbLine
 10
-2199.5
 20
-48.26
 30
0.0
 11
-2199.5
 21
-55.78
 31
0.0
  0
LINE
  5
C58
330
1A
100
AcDbEntity
  8
GUIDE
100
AcDbLine
 10
-2259.5
 20
-44.5
 30
0.0
 11
-2259.5
 21
-59.58
 31
0.0
  0
LINE
  5
C59
330
1A
100
AcDbEntity
  8
GUIDE
100
AcDbLine
 10
-2265.5
 20
-44.5
 30
0.0
 11
-2265.5
 21
-59.58
 31
0.0
  0
LINE
  5
C5A
330
1A
100
AcDbEntity
  8
GUIDE
100
AcDbLine
 10
-2252.0
 20
-67.09999999999999
 30
0.0
 11
-2273.0
 21
-67.09999999999999
 31
0.0
  0
LINE
  5
C5B
330
1A
100
AcDbEntity
  8
GUIDE
100
AcDbLine
 10
-2252.0
 20
-59.58
 30
0.0
 11
-2273.0
 21
-59.58
 31
0.0
  0
LINE
  5
C5C
330
1A
100
AcDbEntity
  8
GUIDE
100
AcDbLine
 10
-2273.0
 20
-67.09999999999999
 30
0.0
 11
-2273.0
 21
-59.58
 31
0.0
  0
LINE
  5
C5D
330
1A
100
AcDbEntity
  8
GUIDE
100
AcDbLine
 10
-2252.0
 20
-67.09999999999999
 30
0.0
 11
-2252.0
 21
-59.58
 31
0.0
  0
LINE
  5
C5E
330
1A
100
AcDbEntity
  8
GUIDE
100
AcDbLine
 10
-2265.5
 20
-67.09999999999999
 30
0.0
 11
-2265.5
 21
-70.5
 31
0.0
  0
LINE
  5
C5F
330
1A
100
AcDbEntity
  8
GUIDE
100
AcDbLine
 10
-2259.5
 20
-67.09999999999999
 30
0.0
 11
-2259.5
 21
-70.5
 31
0.0
  0
LINE
  5
C60
330
1A
100
AcDbEntity
  8
GUIDE
100
AcDbLine
 10
-2242.0
 20
-48.26
 30
0.0
 11
-2242.0
 21
-44.5
 31
0.0
  0
LINE
  5
C61
330
1A
100
AcDbEntity
  8
GUIDE
100
AcDbLine
 10
-2248.0
 20
-48.26
 30
0.0
 11
-2248.0
 21
-44.5
 31
0.0
  0
LINE
  5
C62
330
1A
100
AcDbEntity
  8
GUIDE
100
AcDbLine
 10
-2248.0
 20
-70.5
 30
0.0
 11
-2248.0
 21
-55.78
 31
0.0
  0
LINE
  5
C63
330
1A
100
AcDbEntity
  8
GUIDE
100
AcDbLine
 10
-2242.0
 20
-70.5
 30
0.0
 11
-2242.0
 21
-55.78
 31
0.0
  0
LINE
  5
C64
330
1A
100
AcDbEntity
  8
GUIDE
100
AcDbLine
 10
-2234.5
 20
-55.78
 30
0.0
 11
-2255.5
 21
-55.78
 31
0.0
  0
LINE
  5
C65
330
1A
100
AcDbEntity
  8
GUIDE
100
AcDbLine
 10
-2234.5
 20
-48.26
 30
0.0
 11
-2255.5
 21
-48.26
 31
0.0
  0
LINE
  5
C66
330
1A
100
AcDbEntity
  8
GUIDE
100
AcDbLine
 10
-2255.5
 20
-48.26
 30
0.0
 11
-2255.5
 21
-55.78
 31
0.0
  0
LINE
  5
C67
330
1A
100
AcDbEntity
  8
GUIDE
100
AcDbLine
 10
-2234.5
 20
-48.26
 30
0.0
 11
-2234.5
 21
-55.78
 31
0.0
  0
LINE
  5
C68
330
1A
100
AcDbEntity
  8
GUIDE
100
AcDbLine
 10
-2294.5
 20
-44.5
 30
0.0
 11
-2294.5
 21
-59.58
 31
0.0
  0
LINE
  5
C69
330
1A
100
AcDbEntity
  8
GUIDE
100
AcDbLine
 10
-2300.5
 20
-44.5
 30
0.0
 11
-2300.5
 21
-59.58
 31
0.0
  0
LINE
  5
C6A
330
1A
100
AcDbEntity
  8
GUIDE
100
AcDbLine
 10
-2287.0
 20
-67.09999999999999
 30
0.0
 11
-2308.0
 21
-67.09999999999999
 31
0.0
  0
LINE
  5
C6B
330
1A
100
AcDbEntity
  8
GUIDE
100
AcDbLine
 10
-2287.0
 20
-59.58
 30
0.0
 11
-2308.0
 21
-59.58
 31
0.0
  0
LINE
  5
C6C
330
1A
100
AcDbEntity
  8
GUIDE
100
AcDbLine
 10
-2308.0
 20
-67.09999999999999
 30
0.0
 11
-2308.0
 21
-59.58
 31
0.0
  0
LINE
  5
C6D
330
1A
100
AcDbEntity
  8
GUIDE
100
AcDbLine
 10
-2287.0
 20
-67.09999999999999
 30
0.0
 11
-2287.0
 21
-59.58
 31
0.0
  0
LINE
  5
C6E
330
1A
100
AcDbEntity
  8
GUIDE
100
AcDbLine
 10
-2300.5
 20
-67.09999999999999
 30
0.0
 11
-2300.5
 21
-70.5
 31
0.0
  0
LINE
  5
C6F
330
1A
100
AcDbEntity
  8
GUIDE
100
AcDbLine
 10
-2294.5
 20
-67.09999999999999
 30
0.0
 11
-2294.5
 21
-70.5
 31
0.0
  0
LINE
  5
C70
330
1A
100
AcDbEntity
  8
GUIDE
100
AcDbLine
 10
-2277.0
 20
-48.26
 30
0.0
 11
-2277.0
 21
-44.5
 31
0.0
  0
LINE
  5
C71
330
1A
100
AcDbEntity
  8
GUIDE
100
AcDbLine
 10
-2283.0
 20
-48.26
 30
0.0
 11
-2283.0
 21
-44.5
 31
0.0
  0
LINE
  5
C72
330
1A
100
AcDbEntity
  8
GUIDE
100
AcDbLine
 10
-2283.0
 20
-70.5
 30
0.0
 11
-2283.0
 21
-55.78
 31
0.0
  0
LINE
  5
C73
330
1A
100
AcDbEntity
  8
GUIDE
100
AcDbLine
 10
-2277.0
 20
-70.5
 30
0.0
 11
-2277.0
 21
-55.78
 31
0.0
  0
LINE
  5
C74
330
1A
100
AcDbEntity
  8
GUIDE
100
AcDbLine
 10
-2269.5
 20
-55.78
 30
0.0
 11
-2290.5
 21
-55.78
 31
0.0
  0
LINE
  5
C75
330
1A
100
AcDbEntity
  8
GUIDE
100
AcDbLine
 10
-2269.5
 20
-48.26
 30
0.0
 11
-2290.5
 21
-48.26
 31
0.0
  0
LINE
  5
C76
330
1A
100
AcDbEntity
  8
GUIDE
100
AcDbLine
 10
-2290.5
 20
-48.26
 30
0.0
 11
-2290.5
 21
-55.78
 31
0.0
  0
LINE
  5
C77
330
1A
100
AcDbEntity
  8
GUIDE
100
AcDbLine
 10
-2269.5
 20
-48.26
 30
0.0
 11
-2269.5
 21
-55.78
 31
0.0
  0
LINE
  5
C78
330
1A
100
AcDbEntity
  8
GUIDE
100
AcDbLine
 10
-2329.5
 20
-44.5
 30
0.0
 11
-2329.5
 21
-59.58
 31
0.0
  0
LINE
  5
C79
330
1A
100
AcDbEntity
  8
GUIDE
100
AcDbLine
 10
-2335.5
 20
-44.5
 30
0.0
 11
-2335.5
 21
-59.58
 31
0.0
  0
LINE
  5
C7A
330
1A
100
AcDbEntity
  8
GUIDE
100
AcDbLine
 10
-2322.0
 20
-67.09999999999999
 30
0.0
 11
-2343.0
 21
-67.09999999999999
 31
0.0
  0
LINE
  5
C7B
330
1A
100
AcDbEntity
  8
GUIDE
100
AcDbLine
 10
-2322.0
 20
-59.58
 30
0.0
 11
-2343.0
 21
-59.58
 31
0.0
  0
LINE
  5
C7C
330
1A
100
AcDbEntity
  8
GUIDE
100
AcDbLine
 10
-2343.0
 20
-67.09999999999999
 30
0.0
 11
-2343.0
 21
-59.58
 31
0.0
  0
LINE
  5
C7D
330
1A
100
AcDbEntity
  8
GUIDE
100
AcDbLine
 10
-2322.0
 20
-67.09999999999999
 30
0.0
 11
-2322.0
 21
-59.58
 31
0.0
  0
LINE
  5
C7E
330
1A
100
AcDbEntity
  8
GUIDE
100
AcDbLine
 10
-2335.5
 20
-67.09999999999999
 30
0.0
 11
-2335.5
 21
-70.5
 31
0.0
  0
LINE
  5
C7F
330
1A
100
AcDbEntity
  8
GUIDE
100
AcDbLine
 10
-2329.5
 20
-67.09999999999999
 30
0.0
 11
-2329.5
 21
-70.5
 31
0.0
  0
LINE
  5
C80
330
1A
100
AcDbEntity
  8
GUIDE
100
AcDbLine
 10
-2312.0
 20
-48.26
 30
0.0
 11
-2312.0
 21
-44.5
 31
0.0
  0
LINE
  5
C81
330
1A
100
AcDbEntity
  8
GUIDE
100
AcDbLine
 10
-2318.0
 20
-48.26
 30
0.0
 11
-2318.0
 21
-44.5
 31
0.0
  0
LINE
  5
C82
330
1A
100
AcDbEntity
  8
GUIDE
100
AcDbLine
 10
-2318.0
 20
-70.5
 30
0.0
 11
-2318.0
 21
-55.78
 31
0.0
  0
LINE
  5
C83
330
1A
100
AcDbEntity
  8
GUIDE
100
AcDbLine
 10
-2312.0
 20
-70.5
 30
0.0
 11
-2312.0
 21
-55.78
 31
0.0
  0
LINE
  5
C84
330
1A
100
AcDbEntity
  8
GUIDE
100
AcDbLine
 10
-2304.5
 20
-55.78
 30
0.0
 11
-2325.5
 21
-55.78
 31
0.0
  0
LINE
  5
C85
330
1A
100
AcDbEntity
  8
GUIDE
100
AcDbLine
 10
-2304.5
 20
-48.26
 30
0.0
 11
-2325.5
 21
-48.26
 31
0.0
  0
LINE
  5
C86
330
1A
100
AcDbEntity
  8
GUIDE
100
AcDbLine
 10
-2325.5
 20
-48.26
 30
0.0
 11
-2325.5
 21
-55.78
 31
0.0
  0
LINE
  5
C87
330
1A
100
AcDbEntity
  8
GUIDE
100
AcDbLine
 10
-2304.5
 20
-48.26
 30
0.0
 11
-2304.5
 21
-55.78
 31
0.0
  0
LINE
  5
C88
330
1A
100
AcDbEntity
  8
GUIDE
100
AcDbLine
 10
-2364.5
 20
-44.5
 30
0.0
 11
-2364.5
 21
-59.58
 31
0.0
  0
LINE
  5
C89
330
1A
100
AcDbEntity
  8
GUIDE
100
AcDbLine
 10
-2370.5
 20
-44.5
 30
0.0
 11
-2370.5
 21
-59.58
 31
0.0
  0
LINE
  5
C8A
330
1A
100
AcDbEntity
  8
GUIDE
100
AcDbLine
 10
-2357.0
 20
-67.09999999999999
 30
0.0
 11
-2378.0
 21
-67.09999999999999
 31
0.0
  0
LINE
  5
C8B
330
1A
100
AcDbEntity
  8
GUIDE
100
AcDbLine
 10
-2357.0
 20
-59.58
 30
0.0
 11
-2378.0
 21
-59.58
 31
0.0
  0
LINE
  5
C8C
330
1A
100
AcDbEntity
  8
GUIDE
100
AcDbLine
 10
-2378.0
 20
-67.09999999999999
 30
0.0
 11
-2378.0
 21
-59.58
 31
0.0
  0
LINE
  5
C8D
330
1A
100
AcDbEntity
  8
GUIDE
100
AcDbLine
 10
-2357.0
 20
-67.09999999999999
 30
0.0
 11
-2357.0
 21
-59.58
 31
0.0
  0
LINE
  5
C8E
330
1A
100
AcDbEntity
  8
GUIDE
100
AcDbLine
 10
-2370.5
 20
-67.09999999999999
 30
0.0
 11
-2370.5
 21
-70.5
 31
0.0
  0
LINE
  5
C8F
330
1A
100
AcDbEntity
  8
GUIDE
100
AcDbLine
 10
-2364.5
 20
-67.09999999999999
 30
0.0
 11
-2364.5
 21
-70.5
 31
0.0
  0
LINE
  5
C90
330
1A
100
AcDbEntity
  8
GUIDE
100
AcDbLine
 10
-2347.0
 20
-48.26
 30
0.0
 11
-2347.0
 21
-44.5
 31
0.0
  0
LINE
  5
C91
330
1A
100
AcDbEntity
  8
GUIDE
100
AcDbLine
 10
-2353.0
 20
-48.26
 30
0.0
 11
-2353.0
 21
-44.5
 31
0.0
  0
LINE
  5
C92
330
1A
100
AcDbEntity
  8
GUIDE
100
AcDbLine
 10
-2353.0
 20
-70.5
 30
0.0
 11
-2353.0
 21
-55.78
 31
0.0
  0
LINE
  5
C93
330
1A
100
AcDbEntity
  8
GUIDE
100
AcDbLine
 10
-2347.0
 20
-70.5
 30
0.0
 11
-2347.0
 21
-55.78
 31
0.0
  0
LINE
  5
C94
330
1A
100
AcDbEntity
  8
GUIDE
100
AcDbLine
 10
-2339.5
 20
-55.78
 30
0.0
 11
-2360.5
 21
-55.78
 31
0.0
  0
LINE
  5
C95
330
1A
100
AcDbEntity
  8
GUIDE
100
AcDbLine
 10
-2339.5
 20
-48.26
 30
0.0
 11
-2360.5
 21
-48.26
 31
0.0
  0
LINE
  5
C96
330
1A
100
AcDbEntity
  8
GUIDE
100
AcDbLine
 10
-2360.5
 20
-48.26
 30
0.0
 11
-2360.5
 21
-55.78
 31
0.0
  0
LINE
  5
C97
330
1A
100
AcDbEntity
  8
GUIDE
100
AcDbLine
 10
-2339.5
 20
-48.26
 30
0.0
 11
-2339.5
 21
-55.78
 31
0.0
  0
LINE
  5
C98
330
1A
100
AcDbEntity
  8
GUIDE
100
AcDbLine
 10
-2399.5
 20
-44.5
 30
0.0
 11
-2399.5
 21
-59.58
 31
0.0
  0
LINE
  5
C99
330
1A
100
AcDbEntity
  8
GUIDE
100
AcDbLine
 10
-2405.5
 20
-44.5
 30
0.0
 11
-2405.5
 21
-59.58
 31
0.0
  0
LINE
  5
C9A
330
1A
100
AcDbEntity
  8
GUIDE
100
AcDbLine
 10
-2392.0
 20
-67.09999999999999
 30
0.0
 11
-2413.0
 21
-67.09999999999999
 31
0.0
  0
LINE
  5
C9B
330
1A
100
AcDbEntity
  8
GUIDE
100
AcDbLine
 10
-2392.0
 20
-59.58
 30
0.0
 11
-2413.0
 21
-59.58
 31
0.0
  0
LINE
  5
C9C
330
1A
100
AcDbEntity
  8
GUIDE
100
AcDbLine
 10
-2413.0
 20
-67.09999999999999
 30
0.0
 11
-2413.0
 21
-59.58
 31
0.0
  0
LINE
  5
C9D
330
1A
100
AcDbEntity
  8
GUIDE
100
AcDbLine
 10
-2392.0
 20
-67.09999999999999
 30
0.0
 11
-2392.0
 21
-59.58
 31
0.0
  0
LINE
  5
C9E
330
1A
100
AcDbEntity
  8
GUIDE
100
AcDbLine
 10
-2405.5
 20
-67.09999999999999
 30
0.0
 11
-2405.5
 21
-70.5
 31
0.0
  0
LINE
  5
C9F
330
1A
100
AcDbEntity
  8
GUIDE
100
AcDbLine
 10
-2399.5
 20
-67.09999999999999
 30
0.0
 11
-2399.5
 21
-70.5
 31
0.0
  0
LINE
  5
CA0
330
1A
100
AcDbEntity
  8
GUIDE
100
AcDbLine
 10
-2382.0
 20
-48.26
 30
0.0
 11
-2382.0
 21
-44.5
 31
0.0
  0
LINE
  5
CA1
330
1A
100
AcDbEntity
  8
GUIDE
100
AcDbLine
 10
-2388.0
 20
-48.26
 30
0.0
 11
-2388.0
 21
-44.5
 31
0.0
  0
LINE
  5
CA2
330
1A
100
AcDbEntity
  8
GUIDE
100
AcDbLine
 10
-2388.0
 20
-70.5
 30
0.0
 11
-2388.0
 21
-55.78
 31
0.0
  0
LINE
  5
CA3
330
1A
100
AcDbEntity
  8
GUIDE
100
AcDbLine
 10
-2382.0
 20
-70.5
 30
0.0
 11
-2382.0
 21
-55.78
 31
0.0
  0
LINE
  5
CA4
330
1A
100
AcDbEntity
  8
GUIDE
100
AcDbLine
 10
-2374.5
 20
-55.78
 30
0.0
 11
-2395.5
 21
-55.78
 31
0.0
  0
LINE
  5
CA5
330
1A
100
AcDbEntity
  8
GUIDE
100
AcDbLine
 10
-2374.5
 20
-48.26
 30
0.0
 11
-2395.5
 21
-48.26
 31
0.0
  0
LINE
  5
CA6
330
1A
100
AcDbEntity
  8
GUIDE
100
AcDbLine
 10
-2395.5
 20
-48.26
 30
0.0
 11
-2395.5
 21
-55.78
 31
0.0
  0
LINE
  5
CA7
330
1A
100
AcDbEntity
  8
GUIDE
100
AcDbLine
 10
-2374.5
 20
-48.26
 30
0.0
 11
-2374.5
 21
-55.78
 31
0.0
  0
LINE
  5
CA8
330
1A
100
AcDbEntity
  8
GUIDE
100
AcDbLine
 10
-2434.5
 20
-44.5
 30
0.0
 11
-2434.5
 21
-59.58
 31
0.0
  0
LINE
  5
CA9
330
1A
100
AcDbEntity
  8
GUIDE
100
AcDbLine
 10
-2440.5
 20
-44.5
 30
0.0
 11
-2440.5
 21
-59.58
 31
0.0
  0
LINE
  5
CAA
330
1A
100
AcDbEntity
  8
GUIDE
100
AcDbLine
 10
-2427.0
 20
-67.09999999999999
 30
0.0
 11
-2448.0
 21
-67.09999999999999
 31
0.0
  0
LINE
  5
CAB
330
1A
100
AcDbEntity
  8
GUIDE
100
AcDbLine
 10
-2427.0
 20
-59.58
 30
0.0
 11
-2448.0
 21
-59.58
 31
0.0
  0
LINE
  5
CAC
330
1A
100
AcDbEntity
  8
GUIDE
100
AcDbLine
 10
-2448.0
 20
-67.09999999999999
 30
0.0
 11
-2448.0
 21
-59.58
 31
0.0
  0
LINE
  5
CAD
330
1A
100
AcDbEntity
  8
GUIDE
100
AcDbLine
 10
-2427.0
 20
-67.09999999999999
 30
0.0
 11
-2427.0
 21
-59.58
 31
0.0
  0
LINE
  5
CAE
330
1A
100
AcDbEntity
  8
GUIDE
100
AcDbLine
 10
-2440.5
 20
-67.09999999999999
 30
0.0
 11
-2440.5
 21
-70.5
 31
0.0
  0
LINE
  5
CAF
330
1A
100
AcDbEntity
  8
GUIDE
100
AcDbLine
 10
-2434.5
 20
-67.09999999999999
 30
0.0
 11
-2434.5
 21
-70.5
 31
0.0
  0
LINE
  5
CB0
330
1A
100
AcDbEntity
  8
GUIDE
100
AcDbLine
 10
-2417.0
 20
-48.26
 30
0.0
 11
-2417.0
 21
-44.5
 31
0.0
  0
LINE
  5
CB1
330
1A
100
AcDbEntity
  8
GUIDE
100
AcDbLine
 10
-2423.0
 20
-48.26
 30
0.0
 11
-2423.0
 21
-44.5
 31
0.0
  0
LINE
  5
CB2
330
1A
100
AcDbEntity
  8
GUIDE
100
AcDbLine
 10
-2423.0
 20
-70.5
 30
0.0
 11
-2423.0
 21
-55.78
 31
0.0
  0
LINE
  5
CB3
330
1A
100
AcDbEntity
  8
GUIDE
100
AcDbLine
 10
-2417.0
 20
-70.5
 30
0.0
 11
-2417.0
 21
-55.78
 31
0.0
  0
LINE
  5
CB4
330
1A
100
AcDbEntity
  8
GUIDE
100
AcDbLine
 10
-2409.5
 20
-55.78
 30
0.0
 11
-2430.5
 21
-55.78
 31
0.0
  0
LINE
  5
CB5
330
1A
100
AcDbEntity
  8
GUIDE
100
AcDbLine
 10
-2409.5
 20
-48.26
 30
0.0
 11
-2430.5
 21
-48.26
 31
0.0
  0
LINE
  5
CB6
330
1A
100
AcDbEntity
  8
GUIDE
100
AcDbLine
 10
-2430.5
 20
-48.26
 30
0.0
 11
-2430.5
 21
-55.78
 31
0.0
  0
LINE
  5
CB7
330
1A
100
AcDbEntity
  8
GUIDE
100
AcDbLine
 10
-2409.5
 20
-48.26
 30
0.0
 11
-2409.5
 21
-55.78
 31
0.0
  0
LINE
  5
CB8
330
1A
100
AcDbEntity
  8
GUIDE
100
AcDbLine
 10
-2469.5
 20
-44.5
 30
0.0
 11
-2469.5
 21
-59.58
 31
0.0
  0
LINE
  5
CB9
330
1A
100
AcDbEntity
  8
GUIDE
100
AcDbLine
 10
-2475.5
 20
-44.5
 30
0.0
 11
-2475.5
 21
-59.58
 31
0.0
  0
LINE
  5
CBA
330
1A
100
AcDbEntity
  8
GUIDE
100
AcDbLine
 10
-2462.0
 20
-67.09999999999999
 30
0.0
 11
-2483.0
 21
-67.09999999999999
 31
0.0
  0
LINE
  5
CBB
330
1A
100
AcDbEntity
  8
GUIDE
100
AcDbLine
 10
-2462.0
 20
-59.58
 30
0.0
 11
-2483.0
 21
-59.58
 31
0.0
  0
LINE
  5
CBC
330
1A
100
AcDbEntity
  8
GUIDE
100
AcDbLine
 10
-2483.0
 20
-67.09999999999999
 30
0.0
 11
-2483.0
 21
-59.58
 31
0.0
  0
LINE
  5
CBD
330
1A
100
AcDbEntity
  8
GUIDE
100
AcDbLine
 10
-2462.0
 20
-67.09999999999999
 30
0.0
 11
-2462.0
 21
-59.58
 31
0.0
  0
LINE
  5
CBE
330
1A
100
AcDbEntity
  8
GUIDE
100
AcDbLine
 10
-2475.5
 20
-67.09999999999999
 30
0.0
 11
-2475.5
 21
-70.5
 31
0.0
  0
LINE
  5
CBF
330
1A
100
AcDbEntity
  8
GUIDE
100
AcDbLine
 10
-2469.5
 20
-67.09999999999999
 30
0.0
 11
-2469.5
 21
-70.5
 31
0.0
  0
LINE
  5
CC0
330
1A
100
AcDbEntity
  8
GUIDE
100
AcDbLine
 10
-2452.0
 20
-48.26
 30
0.0
 11
-2452.0
 21
-44.5
 31
0.0
  0
LINE
  5
CC1
330
1A
100
AcDbEntity
  8
GUIDE
100
AcDbLine
 10
-2458.0
 20
-48.26
 30
0.0
 11
-2458.0
 21
-44.5
 31
0.0
  0
LINE
  5
CC2
330
1A
100
AcDbEntity
  8
GUIDE
100
AcDbLine
 10
-2458.0
 20
-70.5
 30
0.0
 11
-2458.0
 21
-55.78
 31
0.0
  0
LINE
  5
CC3
330
1A
100
AcDbEntity
  8
GUIDE
100
AcDbLine
 10
-2452.0
 20
-70.5
 30
0.0
 11
-2452.0
 21
-55.78
 31
0.0
  0
LINE
  5
CC4
330
1A
100
AcDbEntity
  8
GUIDE
100
AcDbLine
 10
-2444.5
 20
-55.78
 30
0.0
 11
-2465.5
 21
-55.78
 31
0.0
  0
LINE
  5
CC5
330
1A
100
AcDbEntity
  8
GUIDE
100
AcDbLine
 10
-2444.5
 20
-48.26
 30
0.0
 11
-2465.5
 21
-48.26
 31
0.0
  0
LINE
  5
CC6
330
1A
100
AcDbEntity
  8
GUIDE
100
AcDbLine
 10
-2465.5
 20
-48.26
 30
0.0
 11
-2465.5
 21
-55.78
 31
0.0
  0
LINE
  5
CC7
330
1A
100
AcDbEntity
  8
GUIDE
100
AcDbLine
 10
-2444.5
 20
-48.26
 30
0.0
 11
-2444.5
 21
-55.78
 31
0.0
  0
LINE
  5
CC8
330
1A
100
AcDbEntity
  8
GUIDE
100
AcDbLine
 10
-2504.5
 20
-44.5
 30
0.0
 11
-2504.5
 21
-59.58
 31
0.0
  0
LINE
  5
CC9
330
1A
100
AcDbEntity
  8
GUIDE
100
AcDbLine
 10
-2510.5
 20
-44.5
 30
0.0
 11
-2510.5
 21
-59.58
 31
0.0
  0
LINE
  5
CCA
330
1A
100
AcDbEntity
  8
GUIDE
100
AcDbLine
 10
-2497.0
 20
-67.09999999999999
 30
0.0
 11
-2518.0
 21
-67.09999999999999
 31
0.0
  0
LINE
  5
CCB
330
1A
100
AcDbEntity
  8
GUIDE
100
AcDbLine
 10
-2497.0
 20
-59.58
 30
0.0
 11
-2518.0
 21
-59.58
 31
0.0
  0
LINE
  5
CCC
330
1A
100
AcDbEntity
  8
GUIDE
100
AcDbLine
 10
-2518.0
 20
-67.09999999999999
 30
0.0
 11
-2518.0
 21
-59.58
 31
0.0
  0
LINE
  5
CCD
330
1A
100
AcDbEntity
  8
GUIDE
100
AcDbLine
 10
-2497.0
 20
-67.09999999999999
 30
0.0
 11
-2497.0
 21
-59.58
 31
0.0
  0
LINE
  5
CCE
330
1A
100
AcDbEntity
  8
GUIDE
100
AcDbLine
 10
-2510.5
 20
-67.09999999999999
 30
0.0
 11
-2510.5
 21
-70.5
 31
0.0
  0
LINE
  5
CCF
330
1A
100
AcDbEntity
  8
GUIDE
100
AcDbLine
 10
-2504.5
 20
-67.09999999999999
 30
0.0
 11
-2504.5
 21
-70.5
 31
0.0
  0
LINE
  5
CD0
330
1A
100
AcDbEntity
  8
GUIDE
100
AcDbLine
 10
-2487.0
 20
-48.26
 30
0.0
 11
-2487.0
 21
-44.5
 31
0.0
  0
LINE
  5
CD1
330
1A
100
AcDbEntity
  8
GUIDE
100
AcDbLine
 10
-2493.0
 20
-48.26
 30
0.0
 11
-2493.0
 21
-44.5
 31
0.0
  0
LINE
  5
CD2
330
1A
100
AcDbEntity
  8
GUIDE
100
AcDbLine
 10
-2493.0
 20
-70.5
 30
0.0
 11
-2493.0
 21
-55.78
 31
0.0
  0
LINE
  5
CD3
330
1A
100
AcDbEntity
  8
GUIDE
100
AcDbLine
 10
-2487.0
 20
-70.5
 30
0.0
 11
-2487.0
 21
-55.78
 31
0.0
  0
LINE
  5
CD4
330
1A
100
AcDbEntity
  8
GUIDE
100
AcDbLine
 10
-2479.5
 20
-55.78
 30
0.0
 11
-2500.5
 21
-55.78
 31
0.0
  0
LINE
  5
CD5
330
1A
100
AcDbEntity
  8
GUIDE
100
AcDbLine
 10
-2479.5
 20
-48.26
 30
0.0
 11
-2500.5
 21
-48.26
 31
0.0
  0
LINE
  5
CD6
330
1A
100
AcDbEntity
  8
GUIDE
100
AcDbLine
 10
-2500.5
 20
-48.26
 30
0.0
 11
-2500.5
 21
-55.78
 31
0.0
  0
LINE
  5
CD7
330
1A
100
AcDbEntity
  8
GUIDE
100
AcDbLine
 10
-2479.5
 20
-48.26
 30
0.0
 11
-2479.5
 21
-55.78
 31
0.0
  0
LINE
  5
CD8
330
1A
100
AcDbEntity
  8
GUIDE
100
AcDbLine
 10
-2539.5
 20
-44.5
 30
0.0
 11
-2539.5
 21
-59.58
 31
0.0
  0
LINE
  5
CD9
330
1A
100
AcDbEntity
  8
GUIDE
100
AcDbLine
 10
-2545.5
 20
-44.5
 30
0.0
 11
-2545.5
 21
-59.58
 31
0.0
  0
LINE
  5
CDA
330
1A
100
AcDbEntity
  8
GUIDE
100
AcDbLine
 10
-2532.0
 20
-67.09999999999999
 30
0.0
 11
-2553.0
 21
-67.09999999999999
 31
0.0
  0
LINE
  5
CDB
330
1A
100
AcDbEntity
  8
GUIDE
100
AcDbLine
 10
-2532.0
 20
-59.58
 30
0.0
 11
-2553.0
 21
-59.58
 31
0.0
  0
LINE
  5
CDC
330
1A
100
AcDbEntity
  8
GUIDE
100
AcDbLine
 10
-2553.0
 20
-67.09999999999999
 30
0.0
 11
-2553.0
 21
-59.58
 31
0.0
  0
LINE
  5
CDD
330
1A
100
AcDbEntity
  8
GUIDE
100
AcDbLine
 10
-2532.0
 20
-67.09999999999999
 30
0.0
 11
-2532.0
 21
-59.58
 31
0.0
  0
LINE
  5
CDE
330
1A
100
AcDbEntity
  8
GUIDE
100
AcDbLine
 10
-2545.5
 20
-67.09999999999999
 30
0.0
 11
-2545.5
 21
-70.5
 31
0.0
  0
LINE
  5
CDF
330
1A
100
AcDbEntity
  8
GUIDE
100
AcDbLine
 10
-2539.5
 20
-67.09999999999999
 30
0.0
 11
-2539.5
 21
-70.5
 31
0.0
  0
LINE
  5
CE0
330
1A
100
AcDbEntity
  8
GUIDE
100
AcDbLine
 10
-2522.0
 20
-48.26
 30
0.0
 11
-2522.0
 21
-44.5
 31
0.0
  0
LINE
  5
CE1
330
1A
100
AcDbEntity
  8
GUIDE
100
AcDbLine
 10
-2528.0
 20
-48.26
 30
0.0
 11
-2528.0
 21
-44.5
 31
0.0
  0
LINE
  5
CE2
330
1A
100
AcDbEntity
  8
GUIDE
100
AcDbLine
 10
-2528.0
 20
-70.5
 30
0.0
 11
-2528.0
 21
-55.78
 31
0.0
  0
LINE
  5
CE3
330
1A
100
AcDbEntity
  8
GUIDE
100
AcDbLine
 10
-2522.0
 20
-70.5
 30
0.0
 11
-2522.0
 21
-55.78
 31
0.0
  0
LINE
  5
CE4
330
1A
100
AcDbEntity
  8
GUIDE
100
AcDbLine
 10
-2514.5
 20
-55.78
 30
0.0
 11
-2535.5
 21
-55.78
 31
0.0
  0
LINE
  5
CE5
330
1A
100
AcDbEntity
  8
GUIDE
100
AcDbLine
 10
-2514.5
 20
-48.26
 30
0.0
 11
-2535.5
 21
-48.26
 31
0.0
  0
LINE
  5
CE6
330
1A
100
AcDbEntity
  8
GUIDE
100
AcDbLine
 10
-2535.5
 20
-48.26
 30
0.0
 11
-2535.5
 21
-55.78
 31
0.0
  0
LINE
  5
CE7
330
1A
100
AcDbEntity
  8
GUIDE
100
AcDbLine
 10
-2514.5
 20
-48.26
 30
0.0
 11
-2514.5
 21
-55.78
 31
0.0
  0
LINE
  5
CE8
330
1A
100
AcDbEntity
  8
GUIDE
100
AcDbLine
 10
-2574.5
 20
-44.5
 30
0.0
 11
-2574.5
 21
-59.58
 31
0.0
  0
LINE
  5
CE9
330
1A
100
AcDbEntity
  8
GUIDE
100
AcDbLine
 10
-2580.5
 20
-44.5
 30
0.0
 11
-2580.5
 21
-59.58
 31
0.0
  0
LINE
  5
CEA
330
1A
100
AcDbEntity
  8
GUIDE
100
AcDbLine
 10
-2567.0
 20
-67.09999999999999
 30
0.0
 11
-2588.0
 21
-67.09999999999999
 31
0.0
  0
LINE
  5
CEB
330
1A
100
AcDbEntity
  8
GUIDE
100
AcDbLine
 10
-2567.0
 20
-59.58
 30
0.0
 11
-2588.0
 21
-59.58
 31
0.0
  0
LINE
  5
CEC
330
1A
100
AcDbEntity
  8
GUIDE
100
AcDbLine
 10
-2588.0
 20
-67.09999999999999
 30
0.0
 11
-2588.0
 21
-59.58
 31
0.0
  0
LINE
  5
CED
330
1A
100
AcDbEntity
  8
GUIDE
100
AcDbLine
 10
-2567.0
 20
-67.09999999999999
 30
0.0
 11
-2567.0
 21
-59.58
 31
0.0
  0
LINE
  5
CEE
330
1A
100
AcDbEntity
  8
GUIDE
100
AcDbLine
 10
-2580.5
 20
-67.09999999999999
 30
0.0
 11
-2580.5
 21
-70.5
 31
0.0
  0
LINE
  5
CEF
330
1A
100
AcDbEntity
  8
GUIDE
100
AcDbLine
 10
-2574.5
 20
-67.09999999999999
 30
0.0
 11
-2574.5
 21
-70.5
 31
0.0
  0
LINE
  5
CF0
330
1A
100
AcDbEntity
  8
GUIDE
100
AcDbLine
 10
-2557.0
 20
-48.26
 30
0.0
 11
-2557.0
 21
-44.5
 31
0.0
  0
LINE
  5
CF1
330
1A
100
AcDbEntity
  8
GUIDE
100
AcDbLine
 10
-2563.0
 20
-48.26
 30
0.0
 11
-2563.0
 21
-44.5
 31
0.0
  0
LINE
  5
CF2
330
1A
100
AcDbEntity
  8
GUIDE
100
AcDbLine
 10
-2563.0
 20
-70.5
 30
0.0
 11
-2563.0
 21
-55.78
 31
0.0
  0
LINE
  5
CF3
330
1A
100
AcDbEntity
  8
GUIDE
100
AcDbLine
 10
-2557.0
 20
-70.5
 30
0.0
 11
-2557.0
 21
-55.78
 31
0.0
  0
LINE
  5
CF4
330
1A
100
AcDbEntity
  8
GUIDE
100
AcDbLine
 10
-2549.5
 20
-55.78
 30
0.0
 11
-2570.5
 21
-55.78
 31
0.0
  0
LINE
  5
CF5
330
1A
100
AcDbEntity
  8
GUIDE
100
AcDbLine
 10
-2549.5
 20
-48.26
 30
0.0
 11
-2570.5
 21
-48.26
 31
0.0
  0
LINE
  5
CF6
330
1A
100
AcDbEntity
  8
GUIDE
100
AcDbLine
 10
-2570.5
 20
-48.26
 30
0.0
 11
-2570.5
 21
-55.78
 31
0.0
  0
LINE
  5
CF7
330
1A
100
AcDbEntity
  8
GUIDE
100
AcDbLine
 10
-2549.5
 20
-48.26
 30
0.0
 11
-2549.5
 21
-55.78
 31
0.0
  0
LINE
  5
CF8
330
1A
100
AcDbEntity
  8
GUIDE
100
AcDbLine
 10
-2609.5
 20
-44.5
 30
0.0
 11
-2609.5
 21
-59.58
 31
0.0
  0
LINE
  5
CF9
330
1A
100
AcDbEntity
  8
GUIDE
100
AcDbLine
 10
-2615.5
 20
-44.5
 30
0.0
 11
-2615.5
 21
-59.58
 31
0.0
  0
LINE
  5
CFA
330
1A
100
AcDbEntity
  8
GUIDE
100
AcDbLine
 10
-2602.0
 20
-67.09999999999999
 30
0.0
 11
-2623.0
 21
-67.09999999999999
 31
0.0
  0
LINE
  5
CFB
330
1A
100
AcDbEntity
  8
GUIDE
100
AcDbLine
 10
-2602.0
 20
-59.58
 30
0.0
 11
-2623.0
 21
-59.58
 31
0.0
  0
LINE
  5
CFC
330
1A
100
AcDbEntity
  8
GUIDE
100
AcDbLine
 10
-2623.0
 20
-67.09999999999999
 30
0.0
 11
-2623.0
 21
-59.58
 31
0.0
  0
LINE
  5
CFD
330
1A
100
AcDbEntity
  8
GUIDE
100
AcDbLine
 10
-2602.0
 20
-67.09999999999999
 30
0.0
 11
-2602.0
 21
-59.58
 31
0.0
  0
LINE
  5
CFE
330
1A
100
AcDbEntity
  8
GUIDE
100
AcDbLine
 10
-2615.5
 20
-67.09999999999999
 30
0.0
 11
-2615.5
 21
-70.5
 31
0.0
  0
LINE
  5
CFF
330
1A
100
AcDbEntity
  8
GUIDE
100
AcDbLine
 10
-2609.5
 20
-67.09999999999999
 30
0.0
 11
-2609.5
 21
-70.5
 31
0.0
  0
LINE
  5
D00
330
1A
100
AcDbEntity
  8
GUIDE
100
AcDbLine
 10
-2592.0
 20
-48.26
 30
0.0
 11
-2592.0
 21
-44.5
 31
0.0
  0
LINE
  5
D01
330
1A
100
AcDbEntity
  8
GUIDE
100
AcDbLine
 10
-2598.0
 20
-48.26
 30
0.0
 11
-2598.0
 21
-44.5
 31
0.0
  0
LINE
  5
D02
330
1A
100
AcDbEntity
  8
GUIDE
100
AcDbLine
 10
-2598.0
 20
-70.5
 30
0.0
 11
-2598.0
 21
-55.78
 31
0.0
  0
LINE
  5
D03
330
1A
100
AcDbEntity
  8
GUIDE
100
AcDbLine
 10
-2592.0
 20
-70.5
 30
0.0
 11
-2592.0
 21
-55.78
 31
0.0
  0
LINE
  5
D04
330
1A
100
AcDbEntity
  8
GUIDE
100
AcDbLine
 10
-2584.5
 20
-55.78
 30
0.0
 11
-2605.5
 21
-55.78
 31
0.0
  0
LINE
  5
D05
330
1A
100
AcDbEntity
  8
GUIDE
100
AcDbLine
 10
-2584.5
 20
-48.26
 30
0.0
 11
-2605.5
 21
-48.26
 31
0.0
  0
LINE
  5
D06
330
1A
100
AcDbEntity
  8
GUIDE
100
AcDbLine
 10
-2605.5
 20
-48.26
 30
0.0
 11
-2605.5
 21
-55.78
 31
0.0
  0
LINE
  5
D07
330
1A
100
AcDbEntity
  8
GUIDE
100
AcDbLine
 10
-2584.5
 20
-48.26
 30
0.0
 11
-2584.5
 21
-55.78
 31
0.0
  0
LINE
  5
D08
330
1A
100
AcDbEntity
  8
GUIDE
100
AcDbLine
 10
-2619.5
 20
-48.26
 30
0.0
 11
-2619.5
 21
-55.78
 31
0.0
  0
LINE
  5
D09
330
1A
100
AcDbEntity
  8
GUIDE
100
AcDbLine
 10
-2640.5
 20
-48.26
 30
0.0
 11
-2640.5
 21
-55.78
 31
0.0
  0
LINE
  5
D0A
330
1A
100
AcDbEntity
  8
GUIDE
100
AcDbLine
 10
-2619.5
 20
-48.26
 30
0.0
 11
-2640.5
 21
-48.26
 31
0.0
  0
LINE
  5
D0B
330
1A
100
AcDbEntity
  8
GUIDE
100
AcDbLine
 10
-2619.5
 20
-55.78
 30
0.0
 11
-2640.5
 21
-55.78
 31
0.0
  0
LINE
  5
D0C
330
1A
100
AcDbEntity
  8
GUIDE
100
AcDbLine
 10
-2627.0
 20
-70.5
 30
0.0
 11
-2627.0
 21
-55.78
 31
0.0
  0
LINE
  5
D0D
330
1A
100
AcDbEntity
  8
GUIDE
100
AcDbLine
 10
-2633.0
 20
-70.5
 30
0.0
 11
-2633.0
 21
-55.78
 31
0.0
  0
LINE
  5
D0E
330
1A
100
AcDbEntity
  8
GUIDE
100
AcDbLine
 10
-2633.0
 20
-48.26
 30
0.0
 11
-2633.0
 21
-44.5
 31
0.0
  0
LINE
  5
D0F
330
1A
100
AcDbEntity
  8
GUIDE
100
AcDbLine
 10
-2627.0
 20
-48.26
 30
0.0
 11
-2627.0
 21
-44.5
 31
0.0
  0
LINE
  5
D10
330
1A
100
AcDbEntity
  8
GUIDE
100
AcDbLine
 10
-2654.0
 20
-67.09999999999999
 30
0.0
 11
-2654.0
 21
-80.5
 31
0.0
  0
LINE
  5
D11
330
1A
100
AcDbEntity
  8
GUIDE
100
AcDbLine
 10
-2644.5
 20
-67.09999999999999
 30
0.0
 11
-2644.5
 21
-70.5
 31
0.0
  0
LINE
  5
D12
330
1A
100
AcDbEntity
  8
GUIDE
100
AcDbLine
 10
-2650.5
 20
-67.09999999999999
 30
0.0
 11
-2650.5
 21
-70.5
 31
0.0
  0
LINE
  5
D13
330
1A
100
AcDbEntity
  8
GUIDE
100
AcDbLine
 10
-2637.0
 20
-67.09999999999999
 30
0.0
 11
-2637.0
 21
-59.58
 31
0.0
  0
LINE
  5
D14
330
1A
100
AcDbEntity
  8
GUIDE
100
AcDbLine
 10
-2658.0
 20
-67.09999999999999
 30
0.0
 11
-2658.0
 21
-59.58
 31
0.0
  0
LINE
  5
D15
330
1A
100
AcDbEntity
  8
GUIDE
100
AcDbLine
 10
-2637.0
 20
-59.58
 30
0.0
 11
-2658.0
 21
-59.58
 31
0.0
  0
LINE
  5
D16
330
1A
100
AcDbEntity
  8
GUIDE
100
AcDbLine
 10
-2637.0
 20
-67.09999999999999
 30
0.0
 11
-2658.0
 21
-67.09999999999999
 31
0.0
  0
LINE
  5
D17
330
1A
100
AcDbEntity
  8
GUIDE
100
AcDbLine
 10
-2654.0
 20
-44.5
 30
0.0
 11
483.0
 21
-44.5
 31
0.0
  0
LINE
  5
D18
330
1A
100
AcDbEntity
  8
GUIDE
100
AcDbLine
 10
-2650.5
 20
-44.5
 30
0.0
 11
-2650.5
 21
-59.58
 31
0.0
  0
LINE
  5
D19
330
1A
100
AcDbEntity
  8
GUIDE
100
AcDbLine
 10
-2644.5
 20
-44.5
 30
0.0
 11
-2644.5
 21
-59.58
 31
0.0
  0
LINE
  5
D1A
330
1A
100
AcDbEntity
  8
GUIDE
100
AcDbLine
 10
-2654.0
 20
-34.5
 30
0.0
 11
483.0
 21
-34.5
 31
0.0
  0
LINE
  5
D1B
330
1A
100
AcDbEntity
  8
GUIDE
100
AcDbLine
 10
-2654.0
 20
-34.5
 30
0.0
 11
-2654.0
 21
-59.58
 31
0.0
  0
LINE
  5
D1C
330
1A
100
AcDbEntity
  8
GUIDE
100
AcDbLine
 10
-2654.0
 20
-36.9
 30
0.0
 11
483.0
 21
-36.9
 31
0.0
  0
LINE
  5
D1D
330
1A
100
AcDbEntity
  8
GUIDE
100
AcDbLine
 10
-2654.0
 20
-78.09999999999999
 30
0.0
 11
483.0
 21
-78.09999999999999
 31
0.0
  0
LINE
  5
D1E
330
1A
100
AcDbEntity
  8
GUIDE
100
AcDbLine
 10
522.884945
 20
-44.5
 30
0.0
 11
525.884945
 21
-41.5
 31
0.0
  0
LINE
  5
D1F
330
1A
100
AcDbEntity
  8
GUIDE
100
AcDbLine
 10
525.884945
 20
-47.5
 30
0.0
 11
528.884945
 21
-44.5
 31
0.0
  0
LINE
  5
D20
330
1A
100
AcDbEntity
  8
GUIDE
100
AcDbLine
 10
528.884945
 20
-70.5
 30
0.0
 11
525.884945
 21
-67.5
 31
0.0
  0
LINE
  5
D21
330
1A
100
AcDbEntity
  8
GUIDE
100
AcDbLine
 10
522.884945
 20
-70.5
 30
0.0
 11
525.884945
 21
-73.5
 31
0.0
  0
LINE
  5
D22
330
1A
100
AcDbEntity
  8
GUIDE
100
AcDbLine
 10
549.884945
 20
-67.09999999999999
 30
0.0
 11
557.384945
 21
-67.09999999999999
 31
0.0
  0
LINE
  5
D23
330
1A
100
AcDbEntity
  8
GUIDE
100
AcDbLine
 10
549.884945
 20
-59.58
 30
0.0
 11
557.384945
 21
-59.58
 31
0.0
  0
LINE
  5
D24
330
1A
100
AcDbEntity
  8
GUIDE
100
AcDbLine
 10
536.384945
 20
-59.58
 30
0.0
 11
543.884945
 21
-59.58
 31
0.0
  0
LINE
  5
D25
330
1A
100
AcDbEntity
  8
GUIDE
100
AcDbLine
 10
536.384945
 20
-67.09999999999999
 30
0.0
 11
543.884945
 21
-67.09999999999999
 31
0.0
  0
LINE
  5
D26
330
1A
100
AcDbEntity
  8
GUIDE
100
AcDbLine
 10
557.384945
 20
-48.26
 30
0.0
 11
557.384945
 21
-55.78
 31
0.0
  0
LINE
  5
D27
330
1A
100
AcDbEntity
  8
GUIDE
100
AcDbLine
 10
536.384945
 20
-48.26
 30
0.0
 11
536.384945
 21
-55.78
 31
0.0
  0
LINE
  5
D28
330
1A
100
AcDbEntity
  8
GUIDE
100
AcDbLine
 10
557.384945
 20
-48.26
 30
0.0
 11
536.384945
 21
-48.26
 31
0.0
  0
LINE
  5
D29
330
1A
100
AcDbEntity
  8
GUIDE
100
AcDbLine
 10
557.384945
 20
-55.78
 30
0.0
 11
536.384945
 21
-55.78
 31
0.0
  0
LINE
  5
D2A
330
1A
100
AcDbEntity
  8
GUIDE
100
AcDbLine
 10
549.884945
 20
-70.5
 30
0.0
 11
549.884945
 21
-55.78
 31
0.0
  0
LINE
  5
D2B
330
1A
100
AcDbEntity
  8
GUIDE
100
AcDbLine
 10
543.884945
 20
-70.5
 30
0.0
 11
543.884945
 21
-55.78
 31
0.0
  0
LINE
  5
D2C
330
1A
100
AcDbEntity
  8
GUIDE
100
AcDbLine
 10
543.884945
 20
-48.26
 30
0.0
 11
543.884945
 21
-44.5
 31
0.0
  0
LINE
  5
D2D
330
1A
100
AcDbEntity
  8
GUIDE
100
AcDbLine
 10
549.884945
 20
-48.26
 30
0.0
 11
549.884945
 21
-44.5
 31
0.0
  0
LINE
  5
D2E
330
1A
100
AcDbEntity
  8
GUIDE
100
AcDbLine
 10
536.384945
 20
-67.09999999999999
 30
0.0
 11
536.384945
 21
-59.58
 31
0.0
  0
LINE
  5
D2F
330
1A
100
AcDbEntity
  8
GUIDE
100
AcDbLine
 10
557.384945
 20
-59.58
 30
0.0
 11
557.384945
 21
-67.09999999999999
 31
0.0
  0
LINE
  5
D30
330
1A
100
AcDbEntity
  8
GUIDE
100
AcDbLine
 10
532.884945
 20
-73.5
 30
0.0
 11
532.884945
 21
-80.5
 31
0.0
  0
LINE
  5
D31
330
1A
100
AcDbEntity
  8
GUIDE
100
AcDbLine
 10
543.884945
 20
-70.5
 30
0.0
 11
543.884945
 21
-73.5
 31
0.0
  0
LINE
  5
D32
330
1A
100
AcDbEntity
  8
GUIDE
100
AcDbLine
 10
543.884945
 20
-41.5
 30
0.0
 11
543.884945
 21
-44.5
 31
0.0
  0
LINE
  5
D33
330
1A
100
AcDbEntity
  8
GUIDE
100
AcDbLine
 10
543.884945
 20
-73.5
 30
0.0
 11
525.884945
 21
-73.5
 31
0.0
  0
LINE
  5
D34
330
1A
100
AcDbEntity
  8
GUIDE
100
AcDbLine
 10
525.884945
 20
-47.5
 30
0.0
 11
525.884945
 21
-67.5
 31
0.0
  0
LINE
  5
D35
330
1A
100
AcDbEntity
  8
GUIDE
100
AcDbLine
 10
543.884945
 20
-41.5
 30
0.0
 11
525.884945
 21
-41.5
 31
0.0
  0
LINE
  5
D36
330
1A
100
AcDbEntity
  8
GUIDE
100
AcDbLine
 10
553.384945
 20
-70.5
 30
0.0
 11
553.384945
 21
-78.09999999999999
 31
0.0
  0
LINE
  5
D37
330
1A
100
AcDbEntity
  8
GUIDE
100
AcDbLine
 10
553.384945
 20
-36.9
 30
0.0
 11
553.384945
 21
-44.5
 31
0.0
  0
LINE
  5
D38
330
1A
100
AcDbEntity
  8
GUIDE
100
AcDbLine
 10
553.384945
 20
-70.5
 30
0.0
 11
528.884945
 21
-70.5
 31
0.0
  0
LINE
  5
D39
330
1A
100
AcDbEntity
  8
GUIDE
100
AcDbLine
 10
553.384945
 20
-44.5
 30
0.0
 11
528.884945
 21
-44.5
 31
0.0
  0
LINE
  5
D3A
330
1A
100
AcDbEntity
  8
GUIDE
100
AcDbLine
 10
549.384945
 20
-80.5
 30
0.0
 11
532.884945
 21
-80.5
 31
0.0
  0
LINE
  5
D3B
330
1A
100
AcDbEntity
  8
GUIDE
100
AcDbLine
 10
549.384945
 20
-34.5
 30
0.0
 11
532.884945
 21
-34.5
 31
0.0
  0
LINE
  5
D3C
330
1A
100
AcDbEntity
  8
GUIDE
100
AcDbLine
 10
532.884945
 20
-34.5
 30
0.0
 11
532.884945
 21
-41.5
 31
0.0
  0
LINE
  5
D3D
330
1A
100
AcDbEntity
  8
GUIDE
100
AcDbLine
 10
522.884945
 20
-44.5
 30
0.0
 11
522.884945
 21
-70.5
 31
0.0
  0
LWPOLYLINE
  5
D3E
330
1A
100
AcDbEntity
  8
0
100
AcDbPolyline
 90
        2
 70
     0
 43
0.0
 10
512.884945
 20
-31.0
 10
512.884945
 20
-31.0
  0
LWPOLYLINE
  5
D41
330
1A
100
AcDbEntity
  8
GUIDE
100
AcDbPolyline
 90
        3
 70
     0
 43
0.0
 10
553.384945
 20
-36.9
 10
549.384945
 20
-36.9
 10
549.384945
 20
-34.5
  0
LWPOLYLINE
  5
D46
330
1A
100
AcDbEntity
  8
GUIDE
100
AcDbPolyline
 90
        2
 70
     0
 43
0.0
 10
549.384945
 20
-78.09999999999999
 10
553.384945
 20
-78.09999999999999
  0
LWPOLYLINE
  5
D4A
330
1A
100
AcDbEntity
  8
GUIDE
100
AcDbPolyline
 90
        2
 70
     0
 43
0.0
 10
549.384945
 20
-80.5
 10
549.384945
 20
-78.09999999999999
  0
ENDSEC
  0
SECTION
  2
OBJECTS
  0
DICTIONARY
  5
C
330
0
100
AcDbDictionary
  3
ACAD_GROUP
350
D
  3
ACAD_LAYOUT
350
D4F
  3
ACAD_MLINESTYLE
350
E
  3
ACDBHEADERROUNDTRIPXREC
350
D8A
1001
ACAD
1000
TREAT_AS_HARD
1070
     0
  0
DICTIONARY
  5
DA9
330
D89
100
AcDbDictionary
280
     1
  3
ACAD_XREC_ROUNDTRIP
360
DAA
  0
DICTIONARY
  5
D
102
{ACAD_REACTORS
330
C
102
}
330
C
100
AcDbDictionary
1001
ACAD
1000
TREAT_AS_HARD
1070
     0
  0
DICTIONARY
  5
D4F
102
{ACAD_REACTORS
330
C
102
}
330
C
100
AcDbDictionary
1001
ACAD
1000
TREAT_AS_HARD
1070
     0
  0
DICTIONARY
  5
E
102
{ACAD_REACTORS
330
C
102
}
330
C
100
AcDbDictionary
  3
STANDARD
350
13
1001
ACAD
1000
TREAT_AS_HARD
1070
     0
  0
DICTIONARY
  5
D8A
102
{ACAD_REACTORS
330
C
102
}
330
C
100
AcDbDictionary
  3
CEPSNTYPE
350
D92
  3
DIMSTYLEDATA
350
DA8
  3
FINGERPRINTGUID
350
D93
  3
HYPERLINKBASE
350
D8D
  3
INSUNITS
350
D91
  3
LAYOUTDICT
350
D8F
  3
LWETCUNION
350
D90
  3
PSVPSCALE
350
D95
  3
PUCSBASE
350
D98
  3
PUCSORGBACK
350
D9E
  3
PUCSORGBOTTOM
350
D9A
  3
PUCSORGFRONT
350
D9D
  3
PUCSORGLEFT
350
D9B
  3
PUCSORGRIGHT
350
D9C
  3
PUCSORGTOP
350
D99
  3
PUCSORTHOREF
350
D96
  3
PUCSORTHOVIEW
350
D97
  3
STYLESHEET
350
D8E
  3
TSTACKALIGN
350
D8B
  3
TSTACKSIZE
350
D8C
  3
UCSBASE
350
DA1
  3
UCSORGBACK
350
DA7
  3
UCSORGBOTTOM
350
DA3
  3
UCSORGFRONT
350
DA6
  3
UCSORGLEFT
350
DA4
  3
UCSORGRIGHT
350
DA5
  3
UCSORGTOP
350
DA2
  3
UCSORTHOREF
350
D9F
  3
UCSORTHOVIEW
350
DA0
  3
VERSIONGUID
350
D94
  0
XRECORD
  5
DAA
102
{ACAD_REACTORS
330
DA9
102
}
330
DA9
100
AcDbXrecord
102
UCS
 74
     0
 71
     1
 10
0.0
 20
0.0
 30
0.0
 10
1.0
 20
0.0
 30
0.0
 10
0.0
 20
1.0
 30
0.0
146
0.0
 79
     0
102
VIEW
281
     0
  0
MLINESTYLE
  5
13
102
{ACAD_REACTORS
330
E
102
}
330
E
100
AcDbMlineStyle
  2
STANDARD
 70
     0
  3

 62
     0
 51
90.0
 52
90.0
 71
     2
 49
0.5
 62
   256
  6
BYLAYER
 49
-0.5
 62
   256
  6
BYLAYER
  0
XRECORD
  5
D92
102
{ACAD_REACTORS
330
D8A
102
}
330
D8A
100
AcDbXrecord
 90
        0
  0
XRECORD
  5
DA8
102
{ACAD_REACTORS
330
D8A
102
}
330
D8A
100
AcDbXrecord
1000
DSTYLE
1002
{
1070
   340
340
10
1002
}
  0
XRECORD
  5
D93
102
{ACAD_REACTORS
330
D8A
102
}
330
D8A
100
AcDbXrecord
  1
{FAEB1C30-E019-11D5-929B-00C0DF256EC4}
  0
XRECORD
  5
D8D
102
{ACAD_REACTORS
330
D8A
102
}
330
D8A
100
AcDbXrecord
  1

  0
XRECORD
  5
D91
102
{ACAD_REACTORS
330
D8A
102
}
330
D8A
100
AcDbXrecord
 90
        0
  0
XRECORD
  5
D8F
102
{ACAD_REACTORS
330
D8A
102
}
330
D8A
100
AcDbXrecord
340
D4F
  0
XRECORD
  5
D90
102
{ACAD_REACTORS
330
D8A
102
}
330
D8A
100
AcDbXrecord
 90
    10781
  0
XRECORD
  5
D95
102
{ACAD_REACTORS
330
D8A
102
}
330
D8A
100
AcDbXrecord
 40
0.0
  0
XRECORD
  5
D98
102
{ACAD_REACTORS
330
D8A
102
}
330
D8A
100
AcDbXrecord
340
0
  0
XRECORD
  5
D9E
102
{ACAD_REACTORS
330
D8A
102
}
330
D8A
100
AcDbXrecord
 10
0.0
 20
0.0
 30
0.0
  0
XRECORD
  5
D9A
102
{ACAD_REACTORS
330
D8A
102
}
330
D8A
100
AcDbXrecord
 10
0.0
 20
0.0
 30
0.0
  0
XRECORD
  5
D9D
102
{ACAD_REACTORS
330
D8A
102
}
330
D8A
100
AcDbXrecord
 10
0.0
 20
0.0
 30
0.0
  0
XRECORD
  5
D9B
102
{ACAD_REACTORS
330
D8A
102
}
330
D8A
100
AcDbXrecord
 10
0.0
 20
0.0
 30
0.0
  0
XRECORD
  5
D9C
102
{ACAD_REACTORS
330
D8A
102
}
330
D8A
100
AcDbXrecord
 10
0.0
 20
0.0
 30
0.0
  0
XRECORD
  5
D99
102
{ACAD_REACTORS
330
D8A
102
}
330
D8A
100
AcDbXrecord
 10
0.0
 20
0.0
 30
0.0
  0
XRECORD
  5
D96
102
{ACAD_REACTORS
330
D8A
102
}
330
D8A
100
AcDbXrecord
340
0
  0
XRECORD
  5
D97
102
{ACAD_REACTORS
330
D8A
102
}
330
D8A
100
AcDbXrecord
 70
     0
  0
XRECORD
  5
D8E
102
{ACAD_REACTORS
330
D8A
102
}
330
D8A
100
AcDbXrecord
  1

  0
XRECORD
  5
D8B
102
{ACAD_REACTORS
330
D8A
102
}
330
D8A
100
AcDbXrecord
 90
        1
  0
XRECORD
  5
D8C
102
{ACAD_REACTORS
330
D8A
102
}
330
D8A
100
AcDbXrecord
 90
       70
  0
XRECORD
  5
DA1
102
{ACAD_REACTORS
330
D8A
102
}
330
D8A
100
AcDbXrecord
340
0
  0
XRECORD
  5
DA7
102
{ACAD_REACTORS
330
D8A
102
}
330
D8A
100
AcDbXrecord
 10
0.0
 20
0.0
 30
0.0
  0
XRECORD
  5
DA3
102
{ACAD_REACTORS
330
D8A
102
}
330
D8A
100
AcDbXrecord
 10
0.0
 20
0.0
 30
0.0
  0
XRECORD
  5
DA6
102
{ACAD_REACTORS
330
D8A
102
}
330
D8A
100
AcDbXrecord
 10
0.0
 20
0.0
 30
0.0
  0
XRECORD
  5
DA4
102
{ACAD_REACTORS
330
D8A
102
}
330
D8A
100
AcDbXrecord
 10
0.0
 20
0.0
 30
0.0
  0
XRECORD
  5
DA5
102
{ACAD_REACTORS
330
D8A
102
}
330
D8A
100
AcDbXrecord
 10
0.0
 20
0.0
 30
0.0
  0
XRECORD
  5
DA2
102
{ACAD_REACTORS
330
D8A
102
}
330
D8A
100
AcDbXrecord
 10
0.0
 20
0.0
 30
0.0
  0
XRECORD
  5
D9F
102
{ACAD_REACTORS
330
D8A
102
}
330
D8A
100
AcDbXrecord
340
0
  0
XRECORD
  5
DA0
102
{ACAD_REACTORS
330
D8A
102
}
330
D8A
100
AcDbXrecord
 70
     0
  0
XRECORD
  5
D94
102
{ACAD_REACTORS
330
D8A
102
}
330
D8A
100
AcDbXrecord
  1
{FAEB1C32-E019-11D5-929B-00C0DF256EC4}
  0
ENDSEC
  0
EOF
