  0
SECTION
  2
HEADER
  9
$ACADVER
  1
AC1012
  9
$DWGCODEPAGE
  3
ansi_1252
  9
$INSBASE
 10
0.0
 20
0.0
 30
0.0
  9
$EXTMIN
 10
-570.0
 20
-80.5
 30
0.0
  9
$EXTMAX
 10
556.867874
 20
50.0
 30
0.0
  9
$LIMMIN
 10
0.0
 20
0.0
  9
$LIMMAX
 10
12.0
 20
9.0
  9
$ORTHOMODE
 70
     1
  9
$REGENMODE
 70
     1
  9
$FILLMODE
 70
     1
  9
$QTEXTMODE
 70
     0
  9
$MIRRTEXT
 70
     1
  9
$DRAGMODE
 70
     2
  9
$LTSCALE
 40
1.0
  9
$OSMODE
 70
    37
  9
$ATTMODE
 70
     1
  9
$TEXTSIZE
 40
0.2
  9
$TRACEWID
 40
0.05
  9
$TEXTSTYLE
  7
STANDARD
  9
$CLAYER
  8
0
  9
$CELTYPE
  6
BYLAYER
  9
$CECOLOR
 62
   256
  9
$CELTSCALE
 40
1.0
  9
$DELOBJ
 70
     1
  9
$DISPSILH
 70
     0
  9
$DIMSCALE
 40
1.0
  9
$DIMASZ
 40
0.18
  9
$DIMEXO
 40
0.0625
  9
$DIMDLI
 40
0.38
  9
$DIMRND
 40
0.0
  9
$DIMDLE
 40
0.0
  9
$DIMEXE
 40
0.18
  9
$DIMTP
 40
0.0
  9
$DIMTM
 40
0.0
  9
$DIMTXT
 40
0.18
  9
$DIMCEN
 40
0.09
  9
$DIMTSZ
 40
0.0
  9
$DIMTOL
 70
     0
  9
$DIMLIM
 70
     0
  9
$DIMTIH
 70
     1
  9
$DIMTOH
 70
     1
  9
$DIMSE1
 70
     0
  9
$DIMSE2
 70
     0
  9
$DIMTAD
 70
     0
  9
$DIMZIN
 70
     0
  9
$DIMBLK
  1

  9
$DIMASO
 70
     1
  9
$DIMSHO
 70
     1
  9
$DIMPOST
  1

  9
$DIMAPOST
  1

  9
$DIMALT
 70
     0
  9
$DIMALTD
 70
     2
  9
$DIMALTF
 40
25.4
  9
$DIMLFAC
 40
1.0
  9
$DIMTOFL
 70
     0
  9
$DIMTVP
 40
0.0
  9
$DIMTIX
 70
     0
  9
$DIMSOXD
 70
     0
  9
$DIMSAH
 70
     0
  9
$DIMBLK1
  1

  9
$DIMBLK2
  1

  9
$DIMSTYLE
  2
STANDARD
  9
$DIMCLRD
 70
     0
  9
$DIMCLRE
 70
     0
  9
$DIMCLRT
 70
     0
  9
$DIMTFAC
 40
1.0
  9
$DIMGAP
 40
0.09
  9
$DIMJUST
 70
     0
  9
$DIMSD1
 70
     0
  9
$DIMSD2
 70
     0
  9
$DIMTOLJ
 70
     1
  9
$DIMTZIN
 70
     0
  9
$DIMALTZ
 70
     0
  9
$DIMALTTZ
 70
     0
  9
$DIMFIT
 70
     3
  9
$DIMUPT
 70
     0
  9
$DIMUNIT
 70
     2
  9
$DIMDEC
 70
     4
  9
$DIMTDEC
 70
     4
  9
$DIMALTU
 70
     2
  9
$DIMALTTD
 70
     2
  9
$DIMTXSTY
  7
STANDARD
  9
$DIMAUNIT
 70
     0
  9
$LUNITS
 70
     2
  9
$LUPREC
 70
     4
  9
$SKETCHINC
 40
0.1
  9
$FILLETRAD
 40
0.0
  9
$AUNITS
 70
     0
  9
$AUPREC
 70
     0
  9
$MENU
  1
acad
  9
$ELEVATION
 40
0.0
  9
$PELEVATION
 40
0.0
  9
$THICKNESS
 40
0.0
  9
$LIMCHECK
 70
     0
  9
$CHAMFERA
 40
0.0
  9
$CHAMFERB
 40
0.0
  9
$CHAMFERC
 40
0.0
  9
$CHAMFERD
 40
0.0
  9
$SKPOLY
 70
     0
  9
$TDCREATE
 40
2447893.083333334
  9
$TDUPDATE
 40
2447893.083333334
  9
$TDINDWG
 40
0.0032993056
  9
$TDUSRTIMER
 40
0.0032993056
  9
$USRTIMER
 70
     1
  9
$ANGBASE
 50
0.0
  9
$ANGDIR
 70
     0
  9
$PDMODE
 70
     0
  9
$PDSIZE
 40
0.0
  9
$PLINEWID
 40
0.0
  9
$COORDS
 70
     1
  9
$SPLFRAME
 70
     0
  9
$SPLINETYPE
 70
     6
  9
$SPLINESEGS
 70
     8
  9
$ATTDIA
 70
     0
  9
$ATTREQ
 70
     1
  9
$HANDLING
 70
     1
  9
$HANDSEED
  5
552
  9
$SURFTAB1
 70
     6
  9
$SURFTAB2
 70
     6
  9
$SURFTYPE
 70
     6
  9
$SURFU
 70
     6
  9
$SURFV
 70
     6
  9
$UCSNAME
  2

  9
$UCSORG
 10
0.0
 20
0.0
 30
0.0
  9
$UCSXDIR
 10
1.0
 20
0.0
 30
0.0
  9
$UCSYDIR
 10
0.0
 20
1.0
 30
0.0
  9
$PUCSNAME
  2

  9
$PUCSORG
 10
0.0
 20
0.0
 30
0.0
  9
$PUCSXDIR
 10
1.0
 20
0.0
 30
0.0
  9
$PUCSYDIR
 10
0.0
 20
1.0
 30
0.0
  9
$USERI1
 70
     0
  9
$USERI2
 70
     0
  9
$USERI3
 70
     0
  9
$USERI4
 70
     0
  9
$USERI5
 70
     0
  9
$USERR1
 40
0.0
  9
$USERR2
 40
0.0
  9
$USERR3
 40
0.0
  9
$USERR4
 40
0.0
  9
$USERR5
 40
0.0
  9
$WORLDVIEW
 70
     1
  9
$SHADEDGE
 70
     3
  9
$SHADEDIF
 70
    70
  9
$TILEMODE
 70
     1
  9
$MAXACTVP
 70
    16
  9
$PINSBASE
 10
0.0
 20
0.0
 30
0.0
  9
$PLIMCHECK
 70
     0
  9
$PEXTMIN
 10
1.000000000000000E+20
 20
1.000000000000000E+20
 30
1.000000000000000E+20
  9
$PEXTMAX
 10
-1.000000000000000E+20
 20
-1.000000000000000E+20
 30
-1.000000000000000E+20
  9
$PLIMMIN
 10
0.0
 20
0.0
  9
$PLIMMAX
 10
12.0
 20
9.0
  9
$UNITMODE
 70
     0
  9
$VISRETAIN
 70
     0
  9
$PLINEGEN
 70
     0
  9
$PSLTSCALE
 70
     1
  9
$TREEDEPTH
 70
  3020
  9
$PICKSTYLE
 70
     1
  9
$CMLSTYLE
  2
STANDARD
  9
$CMLJUST
 70
     0
  9
$CMLSCALE
 40
1.0
  9
$SAVEIMAGES
 70
     1
  0
ENDSEC
  0
SECTION
  2
CLASSES
  0
CLASS
  1
XRECORD
  2
AcDbXrecord
  3
AutoCAD 2000
 90
    32768
280
     0
281
     0
  0
CLASS
  1
LWPOLYLINE
  2
AcDbPolyline
  3
AutoCAD 2000
 90
    32768
280
     0
281
     1
  0
CLASS
  1
HATCH
  2
AcDbHatch
  3
AutoCAD 2000
 90
    32768
280
     0
281
     1
  0
CLASS
  1
ACDBPLACEHOLDER
  2
AcDbPlaceHolder
  3
ObjectDBX Classes
 90
        0
280
     0
281
     0
  0
CLASS
  1
LAYOUT
  2
AcDbLayout
  3
ObjectDBX Classes
 90
        0
280
     0
281
     0
  0
ENDSEC
  0
SECTION
  2
TABLES
  0
TABLE
  2
VPORT
  5
8
330
0
100
AcDbSymbolTable
 70
     1
  0
VPORT
  5
4FF
102
{ACAD_XDICTIONARY
360
550
102
}
330
8
100
AcDbSymbolTableRecord
100
AcDbViewportTableRecord
  2
*ACTIVE
 70
     0
 10
0.0
 20
0.0
 11
1.0
 21
1.0
 12
-6.566063
 22
213.666948
 13
0.0
 23
0.0
 14
1.0
 24
1.0
 15
0.0
 25
0.0
 16
0.0
 26
0.0
 36
1.0
 17
0.0
 27
0.0
 37
0.0
 40
588.333895
 41
1.915354
 42
50.0
 43
0.0
 44
0.0
 50
0.0
 51
0.0
 71
     0
 72
   100
 73
     1
 74
     1
 75
     0
 76
     0
 77
     0
 78
     0
  0
ENDTAB
  0
TABLE
  2
LTYPE
  5
5
330
0
100
AcDbSymbolTable
 70
     1
  0
LTYPE
  5
14
330
5
100
AcDbSymbolTableRecord
100
AcDbLinetypeTableRecord
  2
BYBLOCK
 70
     0
  3

 72
    65
 73
     0
 40
0.0
  0
LTYPE
  5
15
330
5
100
AcDbSymbolTableRecord
100
AcDbLinetypeTableRecord
  2
BYLAYER
 70
     0
  3

 72
    65
 73
     0
 40
0.0
  0
LTYPE
  5
16
330
5
100
AcDbSymbolTableRecord
100
AcDbLinetypeTableRecord
  2
CONTINUOUS
 70
     0
  3
Solid line
 72
    65
 73
     0
 40
0.0
  0
ENDTAB
  0
TABLE
  2
LAYER
  5
2
330
0
100
AcDbSymbolTable
 70
     2
  0
LAYER
  5
F
330
2
100
AcDbSymbolTableRecord
100
AcDbLayerTableRecord
  2
0
 70
     0
 62
     7
  6
CONTINUOUS
  0
LAYER
  5
28
330
2
100
AcDbSymbolTableRecord
100
AcDbLayerTableRecord
  2
GUIDE
 70
     0
 62
     7
  6
CONTINUOUS
  0
ENDTAB
  0
TABLE
  2
STYLE
  5
3
330
0
100
AcDbSymbolTable
 70
     1
  0
STYLE
  5
10
330
3
100
AcDbSymbolTableRecord
100
AcDbTextStyleTableRecord
  2
STANDARD
 70
     0
 40
0.0
 41
1.0
 50
0.0
 71
     0
 42
0.2
  3
txt
  4

  0
ENDTAB
  0
TABLE
  2
VIEW
  5
6
330
0
100
AcDbSymbolTable
 70
     0
  0
ENDTAB
  0
TABLE
  2
UCS
  5
7
330
0
100
AcDbSymbolTable
 70
     0
  0
ENDTAB
  0
TABLE
  2
APPID
  5
9
330
0
100
AcDbSymbolTable
 70
     1
  0
APPID
  5
11
330
9
100
AcDbSymbolTableRecord
100
AcDbRegAppTableRecord
  2
ACAD
 70
     0
  0
ENDTAB
  0
TABLE
  2
DIMSTYLE
  5
A
330
0
100
AcDbSymbolTable
 70
     1
  0
DIMSTYLE
105
1D
330
A
100
AcDbSymbolTableRecord
100
AcDbDimStyleTableRecord
  2
STANDARD
 70
     0
  3

  4

  5

  6

  7

 40
1.0
 41
0.18
 42
0.0625
 43
0.38
 44
0.18
 45
0.0
 46
0.0
 47
0.0
 48
0.0
140
0.18
141
0.09
142
0.0
143
25.4
144
1.0
145
0.0
146
1.0
147
0.09
 71
     0
 72
     0
 73
     1
 74
     1
 75
     0
 76
     0
 77
     0
 78
     0
170
     0
171
     2
172
     0
173
     0
174
     0
175
     0
176
     0
177
     0
178
     0
270
     2
271
     4
272
     4
273
     2
274
     2
340
10
275
     0
280
     0
281
     0
282
     0
283
     1
284
     0
285
     0
286
     0
287
     3
288
     0
  0
ENDTAB
  0
TABLE
  2
BLOCK_RECORD
  5
1
330
0
100
AcDbSymbolTable
 70
     0
  0
BLOCK_RECORD
  5
1A
330
1
100
AcDbSymbolTableRecord
100
AcDbBlockTableRecord
  2
*MODEL_SPACE
  0
BLOCK_RECORD
  5
17
330
1
100
AcDbSymbolTableRecord
100
AcDbBlockTableRecord
  2
*PAPER_SPACE
  0
ENDTAB
  0
ENDSEC
  0
SECTION
  2
BLOCKS
  0
BLOCK
  5
1B
330
1A
100
AcDbEntity
  8
0
100
AcDbBlockBegin
  2
*MODEL_SPACE
 70
     0
 71
     0
 10
0.0
 20
0.0
 30
0.0
  3
*MODEL_SPACE
  1

  0
ENDBLK
  5
1C
330
1A
100
AcDbEntity
  8
0
100
AcDbBlockEnd
  0
BLOCK
  5
18
330
17
100
AcDbEntity
 67
     1
  8
0
100
AcDbBlockBegin
  2
*PAPER_SPACE
 70
     0
 71
     0
 10
0.0
 20
0.0
 30
0.0
  3
*PAPER_SPACE
  1

  0
ENDBLK
  5
19
330
17
100
AcDbEntity
 67
     1
  8
0
100
AcDbBlockEnd
  0
ENDSEC
  0
SECTION
  2
ENTITIES
  0
POLYLINE
  5
29D
330
1A
100
AcDbEntity
  8
GUIDE
100
AcDb2dPolyline
 66
     1
 10
0.0
 20
0.0
 30
0.0
  0
VERTEX
  5
53E
330
29D
100
AcDbEntity
  8
GUIDE
100
AcDbVertex
100
AcDb2dVertex
 10
483.0
 20
36.298438
 30
0.0
 42
0.156174
  0
VERTEX
  5
53F
330
29D
100
AcDbEntity
  8
GUIDE
100
AcDbVertex
100
AcDb2dVertex
 10
483.0
 20
42.701562
 30
0.0
 42
0.485071
  0
SEQEND
  5
53D
330
29D
100
AcDbEntity
  8
GUIDE
  0
POLYLINE
  5
2A1
330
1A
100
AcDbEntity
  8
GUIDE
100
AcDb2dPolyline
 66
     1
 10
0.0
 20
0.0
 30
0.0
  0
VERTEX
  5
541
330
2A1
100
AcDbEntity
  8
GUIDE
100
AcDbVertex
100
AcDb2dVertex
 10
481.246211
 20
46.0
 30
0.0
 42
0.485071
  0
VERTEX
  5
542
330
2A1
100
AcDbEntity
  8
GUIDE
100
AcDbVertex
100
AcDb2dVertex
 10
464.753789
 20
46.0
 30
0.0
 42
2.061553
  0
SEQEND
  5
540
330
2A1
100
AcDbEntity
  8
GUIDE
  0
LINE
  5
2A5
330
1A
100
AcDbEntity
  8
GUIDE
100
AcDbLine
 10
483.0
 20
46.0
 30
0.0
 11
483.0
 21
15.5
 31
0.0
  0
ARC
  5
2A6
330
1A
100
AcDbEntity
  8
GUIDE
100
AcDbCircle
 10
438.0
 20
39.5
 30
0.0
 40
10.5
100
AcDbArc
 50
38.24662
 51
141.75338
  0
ARC
  5
2A7
330
1A
100
AcDbEntity
  8
GUIDE
100
AcDbCircle
 10
455.5
 20
39.5
 30
0.0
 40
10.5
100
AcDbArc
 50
38.24662
 51
141.75338
  0
ARC
  5
2A8
330
1A
100
AcDbEntity
  8
GUIDE
100
AcDbCircle
 10
403.0
 20
39.5
 30
0.0
 40
10.5
100
AcDbArc
 50
38.24662
 51
141.75338
  0
ARC
  5
2A9
330
1A
100
AcDbEntity
  8
GUIDE
100
AcDbCircle
 10
420.5
 20
39.5
 30
0.0
 40
10.5
100
AcDbArc
 50
38.24662
 51
141.75338
  0
ARC
  5
2AA
330
1A
100
AcDbEntity
  8
GUIDE
100
AcDbCircle
 10
368.0
 20
39.5
 30
0.0
 40
10.5
100
AcDbArc
 50
38.24662
 51
141.75338
  0
ARC
  5
2AB
330
1A
100
AcDbEntity
  8
GUIDE
100
AcDbCircle
 10
385.5
 20
39.5
 30
0.0
 40
10.5
100
AcDbArc
 50
38.24662
 51
141.75338
  0
ARC
  5
2AC
330
1A
100
AcDbEntity
  8
GUIDE
100
AcDbCircle
 10
333.0
 20
39.5
 30
0.0
 40
10.5
100
AcDbArc
 50
38.24662
 51
141.75338
  0
ARC
  5
2AD
330
1A
100
AcDbEntity
  8
GUIDE
100
AcDbCircle
 10
350.5
 20
39.5
 30
0.0
 40
10.5
100
AcDbArc
 50
38.24662
 51
141.75338
  0
ARC
  5
2AE
330
1A
100
AcDbEntity
  8
GUIDE
100
AcDbCircle
 10
298.0
 20
39.5
 30
0.0
 40
10.5
100
AcDbArc
 50
38.24662
 51
141.75338
  0
ARC
  5
2AF
330
1A
100
AcDbEntity
  8
GUIDE
100
AcDbCircle
 10
315.5
 20
39.5
 30
0.0
 40
10.5
100
AcDbArc
 50
38.24662
 51
141.75338
  0
ARC
  5
2B0
330
1A
100
AcDbEntity
  8
GUIDE
100
AcDbCircle
 10
263.0
 20
39.5
 30
0.0
 40
10.5
100
AcDbArc
 50
38.24662
 51
141.75338
  0
ARC
  5
2B1
330
1A
100
AcDbEntity
  8
GUIDE
100
AcDbCircle
 10
280.5
 20
39.5
 30
0.0
 40
10.5
100
AcDbArc
 50
38.24662
 51
141.75338
  0
ARC
  5
2B2
330
1A
100
AcDbEntity
  8
GUIDE
100
AcDbCircle
 10
228.0
 20
39.5
 30
0.0
 40
10.5
100
AcDbArc
 50
38.24662
 51
141.75338
  0
ARC
  5
2B3
330
1A
100
AcDbEntity
  8
GUIDE
100
AcDbCircle
 10
245.5
 20
39.5
 30
0.0
 40
10.5
100
AcDbArc
 50
38.24662
 51
141.75338
  0
ARC
  5
2B4
330
1A
100
AcDbEntity
  8
GUIDE
100
AcDbCircle
 10
193.0
 20
39.5
 30
0.0
 40
10.5
100
AcDbArc
 50
38.24662
 51
141.75338
  0
ARC
  5
2B5
330
1A
100
AcDbEntity
  8
GUIDE
100
AcDbCircle
 10
210.5
 20
39.5
 30
0.0
 40
10.5
100
AcDbArc
 50
38.24662
 51
141.75338
  0
ARC
  5
2B6
330
1A
100
AcDbEntity
  8
GUIDE
100
AcDbCircle
 10
158.0
 20
39.5
 30
0.0
 40
10.5
100
AcDbArc
 50
38.24662
 51
141.75338
  0
ARC
  5
2B7
330
1A
100
AcDbEntity
  8
GUIDE
100
AcDbCircle
 10
175.5
 20
39.5
 30
0.0
 40
10.5
100
AcDbArc
 50
38.24662
 51
141.75338
  0
ARC
  5
2B8
330
1A
100
AcDbEntity
  8
GUIDE
100
AcDbCircle
 10
123.0
 20
39.5
 30
0.0
 40
10.5
100
AcDbArc
 50
38.24662
 51
141.75338
  0
ARC
  5
2B9
330
1A
100
AcDbEntity
  8
GUIDE
100
AcDbCircle
 10
140.5
 20
39.5
 30
0.0
 40
10.5
100
AcDbArc
 50
38.24662
 51
141.75338
  0
ARC
  5
2BA
330
1A
100
AcDbEntity
  8
GUIDE
100
AcDbCircle
 10
88.0
 20
39.5
 30
0.0
 40
10.5
100
AcDbArc
 50
38.24662
 51
141.75338
  0
ARC
  5
2BB
330
1A
100
AcDbEntity
  8
GUIDE
100
AcDbCircle
 10
105.5
 20
39.5
 30
0.0
 40
10.5
100
AcDbArc
 50
38.24662
 51
141.75338
  0
ARC
  5
2BC
330
1A
100
AcDbEntity
  8
GUIDE
100
AcDbCircle
 10
53.0
 20
39.5
 30
0.0
 40
10.5
100
AcDbArc
 50
38.24662
 51
141.75338
  0
ARC
  5
2BD
330
1A
100
AcDbEntity
  8
GUIDE
100
AcDbCircle
 10
70.5
 20
39.5
 30
0.0
 40
10.5
100
AcDbArc
 50
38.24662
 51
141.75338
  0
ARC
  5
2BE
330
1A
100
AcDbEntity
  8
GUIDE
100
AcDbCircle
 10
18.0
 20
39.5
 30
0.0
 40
10.5
100
AcDbArc
 50
38.24662
 51
141.75338
  0
ARC
  5
2BF
330
1A
100
AcDbEntity
  8
GUIDE
100
AcDbCircle
 10
35.5
 20
39.5
 30
0.0
 40
10.5
100
AcDbArc
 50
38.24662
 51
141.75338
  0
ARC
  5
2C0
330
1A
100
AcDbEntity
  8
GUIDE
100
AcDbCircle
 10
-17.0
 20
39.5
 30
0.0
 40
10.5
100
AcDbArc
 50
38.24662
 51
141.75338
  0
ARC
  5
2C1
330
1A
100
AcDbEntity
  8
GUIDE
100
AcDbCircle
 10
0.5
 20
39.5
 30
0.0
 40
10.5
100
AcDbArc
 50
38.24662
 51
141.75338
  0
ARC
  5
2C2
330
1A
100
AcDbEntity
  8
GUIDE
100
AcDbCircle
 10
-52.0
 20
39.5
 30
0.0
 40
10.5
100
AcDbArc
 50
38.24662
 51
141.75338
  0
ARC
  5
2C3
330
1A
100
AcDbEntity
  8
GUIDE
100
AcDbCircle
 10
-34.5
 20
39.5
 30
0.0
 40
10.5
100
AcDbArc
 50
38.24662
 51
141.75338
  0
ARC
  5
2C4
330
1A
100
AcDbEntity
  8
GUIDE
100
AcDbCircle
 10
-87.0
 20
39.5
 30
0.0
 40
10.5
100
AcDbArc
 50
38.24662
 51
141.75338
  0
ARC
  5
2C5
330
1A
100
AcDbEntity
  8
GUIDE
100
AcDbCircle
 10
-69.5
 20
39.5
 30
0.0
 40
10.5
100
AcDbArc
 50
38.24662
 51
141.75338
  0
ARC
  5
2C6
330
1A
100
AcDbEntity
  8
GUIDE
100
AcDbCircle
 10
-122.0
 20
39.5
 30
0.0
 40
10.5
100
AcDbArc
 50
38.24662
 51
141.75338
  0
ARC
  5
2C7
330
1A
100
AcDbEntity
  8
GUIDE
100
AcDbCircle
 10
-104.5
 20
39.5
 30
0.0
 40
10.5
100
AcDbArc
 50
38.24662
 51
141.75338
  0
ARC
  5
2C8
330
1A
100
AcDbEntity
  8
GUIDE
100
AcDbCircle
 10
-157.0
 20
39.5
 30
0.0
 40
10.5
100
AcDbArc
 50
38.24662
 51
141.75338
  0
ARC
  5
2C9
330
1A
100
AcDbEntity
  8
GUIDE
100
AcDbCircle
 10
-139.5
 20
39.5
 30
0.0
 40
10.5
100
AcDbArc
 50
38.24662
 51
141.75338
  0
ARC
  5
2CA
330
1A
100
AcDbEntity
  8
GUIDE
100
AcDbCircle
 10
-192.0
 20
39.5
 30
0.0
 40
10.5
100
AcDbArc
 50
38.24662
 51
141.75338
  0
ARC
  5
2CB
330
1A
100
AcDbEntity
  8
GUIDE
100
AcDbCircle
 10
-174.5
 20
39.5
 30
0.0
 40
10.5
100
AcDbArc
 50
38.24662
 51
141.75338
  0
ARC
  5
2CC
330
1A
100
AcDbEntity
  8
GUIDE
100
AcDbCircle
 10
-227.0
 20
39.5
 30
0.0
 40
10.5
100
AcDbArc
 50
38.24662
 51
141.75338
  0
ARC
  5
2CD
330
1A
100
AcDbEntity
  8
GUIDE
100
AcDbCircle
 10
-209.5
 20
39.5
 30
0.0
 40
10.5
100
AcDbArc
 50
38.24662
 51
141.75338
  0
ARC
  5
2CE
330
1A
100
AcDbEntity
  8
GUIDE
100
AcDbCircle
 10
-262.0
 20
39.5
 30
0.0
 40
10.5
100
AcDbArc
 50
38.24662
 51
141.75338
  0
ARC
  5
2CF
330
1A
100
AcDbEntity
  8
GUIDE
100
AcDbCircle
 10
-244.5
 20
39.5
 30
0.0
 40
10.5
100
AcDbArc
 50
38.24662
 51
141.75338
  0
ARC
  5
2D0
330
1A
100
AcDbEntity
  8
GUIDE
100
AcDbCircle
 10
-297.0
 20
39.5
 30
0.0
 40
10.5
100
AcDbArc
 50
38.24662
 51
141.75338
  0
ARC
  5
2D1
330
1A
100
AcDbEntity
  8
GUIDE
100
AcDbCircle
 10
-279.5
 20
39.5
 30
0.0
 40
10.5
100
AcDbArc
 50
38.24662
 51
141.75338
  0
ARC
  5
2D2
330
1A
100
AcDbEntity
  8
GUIDE
100
AcDbCircle
 10
-332.0
 20
39.5
 30
0.0
 40
10.5
100
AcDbArc
 50
38.24662
 51
141.75338
  0
ARC
  5
2D3
330
1A
100
AcDbEntity
  8
GUIDE
100
AcDbCircle
 10
-314.5
 20
39.5
 30
0.0
 40
10.5
100
AcDbArc
 50
38.24662
 51
141.75338
  0
ARC
  5
2D4
330
1A
100
AcDbEntity
  8
GUIDE
100
AcDbCircle
 10
-367.0
 20
39.5
 30
0.0
 40
10.5
100
AcDbArc
 50
38.24662
 51
141.75338
  0
ARC
  5
2D5
330
1A
100
AcDbEntity
  8
GUIDE
100
AcDbCircle
 10
-349.5
 20
39.5
 30
0.0
 40
10.5
100
AcDbArc
 50
38.24662
 51
141.75338
  0
ARC
  5
2D6
330
1A
100
AcDbEntity
  8
GUIDE
100
AcDbCircle
 10
-402.0
 20
39.5
 30
0.0
 40
10.5
100
AcDbArc
 50
38.24662
 51
141.75338
  0
ARC
  5
2D7
330
1A
100
AcDbEntity
  8
GUIDE
100
AcDbCircle
 10
-384.5
 20
39.5
 30
0.0
 40
10.5
100
AcDbArc
 50
38.24662
 51
141.75338
  0
ARC
  5
2D8
330
1A
100
AcDbEntity
  8
GUIDE
100
AcDbCircle
 10
-437.0
 20
39.5
 30
0.0
 40
10.5
100
AcDbArc
 50
38.24662
 51
141.75338
  0
ARC
  5
2D9
330
1A
100
AcDbEntity
  8
GUIDE
100
AcDbCircle
 10
-419.5
 20
39.5
 30
0.0
 40
10.5
100
AcDbArc
 50
38.24662
 51
141.75338
  0
ARC
  5
2DA
330
1A
100
AcDbEntity
  8
GUIDE
100
AcDbCircle
 10
-472.0
 20
39.5
 30
0.0
 40
10.5
100
AcDbArc
 50
38.24662
 51
141.75338
  0
ARC
  5
2DB
330
1A
100
AcDbEntity
  8
GUIDE
100
AcDbCircle
 10
-454.5
 20
39.5
 30
0.0
 40
10.5
100
AcDbArc
 50
38.24662
 51
141.75338
  0
ARC
  5
2DC
330
1A
100
AcDbEntity
  8
GUIDE
100
AcDbCircle
 10
-507.0
 20
39.5
 30
0.0
 40
10.5
100
AcDbArc
 50
38.24662
 51
141.75338
  0
ARC
  5
2DD
330
1A
100
AcDbEntity
  8
GUIDE
100
AcDbCircle
 10
-489.5
 20
39.5
 30
0.0
 40
10.5
100
AcDbArc
 50
38.24662
 51
141.75338
  0
LINE
  5
2DE
330
1A
100
AcDbEntity
  8
GUIDE
100
AcDbLine
 10
-566.0
 20
15.5
 30
0.0
 11
483.0
 21
15.5
 31
0.0
  0
LINE
  5
2DF
330
1A
100
AcDbEntity
  8
GUIDE
100
AcDbLine
 10
-566.0
 20
25.5
 30
0.0
 11
483.0
 21
25.5
 31
0.0
  0
LINE
  5
2E0
330
1A
100
AcDbEntity
  8
GUIDE
100
AcDbLine
 10
-566.0
 20
46.0
 30
0.0
 11
483.0
 21
46.0
 31
0.0
  0
ARC
  5
2E1
330
1A
100
AcDbEntity
  8
GUIDE
100
AcDbCircle
 10
-524.5
 20
39.5
 30
0.0
 40
10.5
100
AcDbArc
 50
38.24662
 51
141.75338
  0
ARC
  5
2E2
330
1A
100
AcDbEntity
  8
GUIDE
100
AcDbCircle
 10
-542.0
 20
39.5
 30
0.0
 40
10.5
100
AcDbArc
 50
38.24662
 51
141.75338
  0
ARC
  5
2E3
330
1A
100
AcDbEntity
  8
GUIDE
100
AcDbCircle
 10
-559.5
 20
39.5
 30
0.0
 40
10.5
100
AcDbArc
 50
38.24662
 51
231.75338
  0
LINE
  5
2E4
330
1A
100
AcDbEntity
  8
GUIDE
100
AcDbLine
 10
-566.0
 20
15.5
 30
0.0
 11
-566.0
 21
46.0
 31
0.0
  0
LINE
  5
2E5
330
1A
100
AcDbEntity
  8
GUIDE
100
AcDbLine
 10
483.0
 20
-80.5
 30
0.0
 11
483.0
 21
-55.78
 31
0.0
  0
LINE
  5
2E6
330
1A
100
AcDbEntity
  8
GUIDE
100
AcDbLine
 10
-566.0
 20
-70.5
 30
0.0
 11
483.0
 21
-70.5
 31
0.0
  0
LINE
  5
2E7
330
1A
100
AcDbEntity
  8
GUIDE
100
AcDbLine
 10
-566.0
 20
-80.5
 30
0.0
 11
483.0
 21
-80.5
 31
0.0
  0
LINE
  5
2E8
330
1A
100
AcDbEntity
  8
GUIDE
100
AcDbLine
 10
458.5
 20
-44.5
 30
0.0
 11
458.5
 21
-59.58
 31
0.0
  0
LINE
  5
2E9
330
1A
100
AcDbEntity
  8
GUIDE
100
AcDbLine
 10
452.5
 20
-44.5
 30
0.0
 11
452.5
 21
-59.58
 31
0.0
  0
LINE
  5
2EA
330
1A
100
AcDbEntity
  8
GUIDE
100
AcDbLine
 10
466.0
 20
-67.09999999999999
 30
0.0
 11
445.0
 21
-67.09999999999999
 31
0.0
  0
LINE
  5
2EB
330
1A
100
AcDbEntity
  8
GUIDE
100
AcDbLine
 10
466.0
 20
-59.58
 30
0.0
 11
445.0
 21
-59.58
 31
0.0
  0
LINE
  5
2EC
330
1A
100
AcDbEntity
  8
GUIDE
100
AcDbLine
 10
445.0
 20
-67.09999999999999
 30
0.0
 11
445.0
 21
-59.58
 31
0.0
  0
LINE
  5
2ED
330
1A
100
AcDbEntity
  8
GUIDE
100
AcDbLine
 10
466.0
 20
-67.09999999999999
 30
0.0
 11
466.0
 21
-59.58
 31
0.0
  0
LINE
  5
2EE
330
1A
100
AcDbEntity
  8
GUIDE
100
AcDbLine
 10
452.5
 20
-67.09999999999999
 30
0.0
 11
452.5
 21
-70.5
 31
0.0
  0
LINE
  5
2EF
330
1A
100
AcDbEntity
  8
GUIDE
100
AcDbLine
 10
458.5
 20
-67.09999999999999
 30
0.0
 11
458.5
 21
-70.5
 31
0.0
  0
LINE
  5
2F0
330
1A
100
AcDbEntity
  8
GUIDE
100
AcDbLine
 10
476.0
 20
-48.26
 30
0.0
 11
476.0
 21
-44.5
 31
0.0
  0
LINE
  5
2F1
330
1A
100
AcDbEntity
  8
GUIDE
100
AcDbLine
 10
470.0
 20
-48.26
 30
0.0
 11
470.0
 21
-44.5
 31
0.0
  0
LINE
  5
2F2
330
1A
100
AcDbEntity
  8
GUIDE
100
AcDbLine
 10
470.0
 20
-70.5
 30
0.0
 11
470.0
 21
-55.78
 31
0.0
  0
LINE
  5
2F3
330
1A
100
AcDbEntity
  8
GUIDE
100
AcDbLine
 10
476.0
 20
-70.5
 30
0.0
 11
476.0
 21
-55.78
 31
0.0
  0
LINE
  5
2F4
330
1A
100
AcDbEntity
  8
GUIDE
100
AcDbLine
 10
483.5
 20
-55.78
 30
0.0
 11
462.5
 21
-55.78
 31
0.0
  0
LINE
  5
2F5
330
1A
100
AcDbEntity
  8
GUIDE
100
AcDbLine
 10
483.5
 20
-48.26
 30
0.0
 11
462.5
 21
-48.26
 31
0.0
  0
LINE
  5
2F6
330
1A
100
AcDbEntity
  8
GUIDE
100
AcDbLine
 10
462.5
 20
-48.26
 30
0.0
 11
462.5
 21
-55.78
 31
0.0
  0
LINE
  5
2F7
330
1A
100
AcDbEntity
  8
GUIDE
100
AcDbLine
 10
483.5
 20
-48.26
 30
0.0
 11
483.5
 21
-55.78
 31
0.0
  0
LINE
  5
2F8
330
1A
100
AcDbEntity
  8
GUIDE
100
AcDbLine
 10
423.5
 20
-44.5
 30
0.0
 11
423.5
 21
-59.58
 31
0.0
  0
LINE
  5
2F9
330
1A
100
AcDbEntity
  8
GUIDE
100
AcDbLine
 10
417.5
 20
-44.5
 30
0.0
 11
417.5
 21
-59.58
 31
0.0
  0
LINE
  5
2FA
330
1A
100
AcDbEntity
  8
GUIDE
100
AcDbLine
 10
431.0
 20
-67.09999999999999
 30
0.0
 11
410.0
 21
-67.09999999999999
 31
0.0
  0
LINE
  5
2FB
330
1A
100
AcDbEntity
  8
GUIDE
100
AcDbLine
 10
431.0
 20
-59.58
 30
0.0
 11
410.0
 21
-59.58
 31
0.0
  0
LINE
  5
2FC
330
1A
100
AcDbEntity
  8
GUIDE
100
AcDbLine
 10
410.0
 20
-67.09999999999999
 30
0.0
 11
410.0
 21
-59.58
 31
0.0
  0
LINE
  5
2FD
330
1A
100
AcDbEntity
  8
GUIDE
100
AcDbLine
 10
431.0
 20
-67.09999999999999
 30
0.0
 11
431.0
 21
-59.58
 31
0.0
  0
LINE
  5
2FE
330
1A
100
AcDbEntity
  8
GUIDE
100
AcDbLine
 10
417.5
 20
-67.09999999999999
 30
0.0
 11
417.5
 21
-70.5
 31
0.0
  0
LINE
  5
2FF
330
1A
100
AcDbEntity
  8
GUIDE
100
AcDbLine
 10
423.5
 20
-67.09999999999999
 30
0.0
 11
423.5
 21
-70.5
 31
0.0
  0
LINE
  5
300
330
1A
100
AcDbEntity
  8
GUIDE
100
AcDbLine
 10
441.0
 20
-48.26
 30
0.0
 11
441.0
 21
-44.5
 31
0.0
  0
LINE
  5
301
330
1A
100
AcDbEntity
  8
GUIDE
100
AcDbLine
 10
435.0
 20
-48.26
 30
0.0
 11
435.0
 21
-44.5
 31
0.0
  0
LINE
  5
302
330
1A
100
AcDbEntity
  8
GUIDE
100
AcDbLine
 10
435.0
 20
-70.5
 30
0.0
 11
435.0
 21
-55.78
 31
0.0
  0
LINE
  5
303
330
1A
100
AcDbEntity
  8
GUIDE
100
AcDbLine
 10
441.0
 20
-70.5
 30
0.0
 11
441.0
 21
-55.78
 31
0.0
  0
LINE
  5
304
330
1A
100
AcDbEntity
  8
GUIDE
100
AcDbLine
 10
448.5
 20
-55.78
 30
0.0
 11
427.5
 21
-55.78
 31
0.0
  0
LINE
  5
305
330
1A
100
AcDbEntity
  8
GUIDE
100
AcDbLine
 10
448.5
 20
-48.26
 30
0.0
 11
427.5
 21
-48.26
 31
0.0
  0
LINE
  5
306
330
1A
100
AcDbEntity
  8
GUIDE
100
AcDbLine
 10
427.5
 20
-48.26
 30
0.0
 11
427.5
 21
-55.78
 31
0.0
  0
LINE
  5
307
330
1A
100
AcDbEntity
  8
GUIDE
100
AcDbLine
 10
448.5
 20
-48.26
 30
0.0
 11
448.5
 21
-55.78
 31
0.0
  0
LINE
  5
308
330
1A
100
AcDbEntity
  8
GUIDE
100
AcDbLine
 10
388.5
 20
-44.5
 30
0.0
 11
388.5
 21
-59.58
 31
0.0
  0
LINE
  5
309
330
1A
100
AcDbEntity
  8
GUIDE
100
AcDbLine
 10
382.5
 20
-44.5
 30
0.0
 11
382.5
 21
-59.58
 31
0.0
  0
LINE
  5
30A
330
1A
100
AcDbEntity
  8
GUIDE
100
AcDbLine
 10
396.0
 20
-67.09999999999999
 30
0.0
 11
375.0
 21
-67.09999999999999
 31
0.0
  0
LINE
  5
30B
330
1A
100
AcDbEntity
  8
GUIDE
100
AcDbLine
 10
396.0
 20
-59.58
 30
0.0
 11
375.0
 21
-59.58
 31
0.0
  0
LINE
  5
30C
330
1A
100
AcDbEntity
  8
GUIDE
100
AcDbLine
 10
375.0
 20
-67.09999999999999
 30
0.0
 11
375.0
 21
-59.58
 31
0.0
  0
LINE
  5
30D
330
1A
100
AcDbEntity
  8
GUIDE
100
AcDbLine
 10
396.0
 20
-67.09999999999999
 30
0.0
 11
396.0
 21
-59.58
 31
0.0
  0
LINE
  5
30E
330
1A
100
AcDbEntity
  8
GUIDE
100
AcDbLine
 10
382.5
 20
-67.09999999999999
 30
0.0
 11
382.5
 21
-70.5
 31
0.0
  0
LINE
  5
30F
330
1A
100
AcDbEntity
  8
GUIDE
100
AcDbLine
 10
388.5
 20
-67.09999999999999
 30
0.0
 11
388.5
 21
-70.5
 31
0.0
  0
LINE
  5
310
330
1A
100
AcDbEntity
  8
GUIDE
100
AcDbLine
 10
406.0
 20
-48.26
 30
0.0
 11
406.0
 21
-44.5
 31
0.0
  0
LINE
  5
311
330
1A
100
AcDbEntity
  8
GUIDE
100
AcDbLine
 10
400.0
 20
-48.26
 30
0.0
 11
400.0
 21
-44.5
 31
0.0
  0
LINE
  5
312
330
1A
100
AcDbEntity
  8
GUIDE
100
AcDbLine
 10
400.0
 20
-70.5
 30
0.0
 11
400.0
 21
-55.78
 31
0.0
  0
LINE
  5
313
330
1A
100
AcDbEntity
  8
GUIDE
100
AcDbLine
 10
406.0
 20
-70.5
 30
0.0
 11
406.0
 21
-55.78
 31
0.0
  0
LINE
  5
314
330
1A
100
AcDbEntity
  8
GUIDE
100
AcDbLine
 10
413.5
 20
-55.78
 30
0.0
 11
392.5
 21
-55.78
 31
0.0
  0
LINE
  5
315
330
1A
100
AcDbEntity
  8
GUIDE
100
AcDbLine
 10
413.5
 20
-48.26
 30
0.0
 11
392.5
 21
-48.26
 31
0.0
  0
LINE
  5
316
330
1A
100
AcDbEntity
  8
GUIDE
100
AcDbLine
 10
392.5
 20
-48.26
 30
0.0
 11
392.5
 21
-55.78
 31
0.0
  0
LINE
  5
317
330
1A
100
AcDbEntity
  8
GUIDE
100
AcDbLine
 10
413.5
 20
-48.26
 30
0.0
 11
413.5
 21
-55.78
 31
0.0
  0
LINE
  5
318
330
1A
100
AcDbEntity
  8
GUIDE
100
AcDbLine
 10
353.5
 20
-44.5
 30
0.0
 11
353.5
 21
-59.58
 31
0.0
  0
LINE
  5
319
330
1A
100
AcDbEntity
  8
GUIDE
100
AcDbLine
 10
347.5
 20
-44.5
 30
0.0
 11
347.5
 21
-59.58
 31
0.0
  0
LINE
  5
31A
330
1A
100
AcDbEntity
  8
GUIDE
100
AcDbLine
 10
361.0
 20
-67.09999999999999
 30
0.0
 11
340.0
 21
-67.09999999999999
 31
0.0
  0
LINE
  5
31B
330
1A
100
AcDbEntity
  8
GUIDE
100
AcDbLine
 10
361.0
 20
-59.58
 30
0.0
 11
340.0
 21
-59.58
 31
0.0
  0
LINE
  5
31C
330
1A
100
AcDbEntity
  8
GUIDE
100
AcDbLine
 10
340.0
 20
-67.09999999999999
 30
0.0
 11
340.0
 21
-59.58
 31
0.0
  0
LINE
  5
31D
330
1A
100
AcDbEntity
  8
GUIDE
100
AcDbLine
 10
361.0
 20
-67.09999999999999
 30
0.0
 11
361.0
 21
-59.58
 31
0.0
  0
LINE
  5
31E
330
1A
100
AcDbEntity
  8
GUIDE
100
AcDbLine
 10
347.5
 20
-67.09999999999999
 30
0.0
 11
347.5
 21
-70.5
 31
0.0
  0
LINE
  5
31F
330
1A
100
AcDbEntity
  8
GUIDE
100
AcDbLine
 10
353.5
 20
-67.09999999999999
 30
0.0
 11
353.5
 21
-70.5
 31
0.0
  0
LINE
  5
320
330
1A
100
AcDbEntity
  8
GUIDE
100
AcDbLine
 10
371.0
 20
-48.26
 30
0.0
 11
371.0
 21
-44.5
 31
0.0
  0
LINE
  5
321
330
1A
100
AcDbEntity
  8
GUIDE
100
AcDbLine
 10
365.0
 20
-48.26
 30
0.0
 11
365.0
 21
-44.5
 31
0.0
  0
LINE
  5
322
330
1A
100
AcDbEntity
  8
GUIDE
100
AcDbLine
 10
365.0
 20
-70.5
 30
0.0
 11
365.0
 21
-55.78
 31
0.0
  0
LINE
  5
323
330
1A
100
AcDbEntity
  8
GUIDE
100
AcDbLine
 10
371.0
 20
-70.5
 30
0.0
 11
371.0
 21
-55.78
 31
0.0
  0
LINE
  5
324
330
1A
100
AcDbEntity
  8
GUIDE
100
AcDbLine
 10
378.5
 20
-55.78
 30
0.0
 11
357.5
 21
-55.78
 31
0.0
  0
LINE
  5
325
330
1A
100
AcDbEntity
  8
GUIDE
100
AcDbLine
 10
378.5
 20
-48.26
 30
0.0
 11
357.5
 21
-48.26
 31
0.0
  0
LINE
  5
326
330
1A
100
AcDbEntity
  8
GUIDE
100
AcDbLine
 10
357.5
 20
-48.26
 30
0.0
 11
357.5
 21
-55.78
 31
0.0
  0
LINE
  5
327
330
1A
100
AcDbEntity
  8
GUIDE
100
AcDbLine
 10
378.5
 20
-48.26
 30
0.0
 11
378.5
 21
-55.78
 31
0.0
  0
LINE
  5
328
330
1A
100
AcDbEntity
  8
GUIDE
100
AcDbLine
 10
318.5
 20
-44.5
 30
0.0
 11
318.5
 21
-59.58
 31
0.0
  0
LINE
  5
329
330
1A
100
AcDbEntity
  8
GUIDE
100
AcDbLine
 10
312.5
 20
-44.5
 30
0.0
 11
312.5
 21
-59.58
 31
0.0
  0
LINE
  5
32A
330
1A
100
AcDbEntity
  8
GUIDE
100
AcDbLine
 10
326.0
 20
-67.09999999999999
 30
0.0
 11
305.0
 21
-67.09999999999999
 31
0.0
  0
LINE
  5
32B
330
1A
100
AcDbEntity
  8
GUIDE
100
AcDbLine
 10
326.0
 20
-59.58
 30
0.0
 11
305.0
 21
-59.58
 31
0.0
  0
LINE
  5
32C
330
1A
100
AcDbEntity
  8
GUIDE
100
AcDbLine
 10
305.0
 20
-67.09999999999999
 30
0.0
 11
305.0
 21
-59.58
 31
0.0
  0
LINE
  5
32D
330
1A
100
AcDbEntity
  8
GUIDE
100
AcDbLine
 10
326.0
 20
-67.09999999999999
 30
0.0
 11
326.0
 21
-59.58
 31
0.0
  0
LINE
  5
32E
330
1A
100
AcDbEntity
  8
GUIDE
100
AcDbLine
 10
312.5
 20
-67.09999999999999
 30
0.0
 11
312.5
 21
-70.5
 31
0.0
  0
LINE
  5
32F
330
1A
100
AcDbEntity
  8
GUIDE
100
AcDbLine
 10
318.5
 20
-67.09999999999999
 30
0.0
 11
318.5
 21
-70.5
 31
0.0
  0
LINE
  5
330
330
1A
100
AcDbEntity
  8
GUIDE
100
AcDbLine
 10
336.0
 20
-48.26
 30
0.0
 11
336.0
 21
-44.5
 31
0.0
  0
LINE
  5
331
330
1A
100
AcDbEntity
  8
GUIDE
100
AcDbLine
 10
330.0
 20
-48.26
 30
0.0
 11
330.0
 21
-44.5
 31
0.0
  0
LINE
  5
332
330
1A
100
AcDbEntity
  8
GUIDE
100
AcDbLine
 10
330.0
 20
-70.5
 30
0.0
 11
330.0
 21
-55.78
 31
0.0
  0
LINE
  5
333
330
1A
100
AcDbEntity
  8
GUIDE
100
AcDbLine
 10
336.0
 20
-70.5
 30
0.0
 11
336.0
 21
-55.78
 31
0.0
  0
LINE
  5
334
330
1A
100
AcDbEntity
  8
GUIDE
100
AcDbLine
 10
343.5
 20
-55.78
 30
0.0
 11
322.5
 21
-55.78
 31
0.0
  0
LINE
  5
335
330
1A
100
AcDbEntity
  8
GUIDE
100
AcDbLine
 10
343.5
 20
-48.26
 30
0.0
 11
322.5
 21
-48.26
 31
0.0
  0
LINE
  5
336
330
1A
100
AcDbEntity
  8
GUIDE
100
AcDbLine
 10
322.5
 20
-48.26
 30
0.0
 11
322.5
 21
-55.78
 31
0.0
  0
LINE
  5
337
330
1A
100
AcDbEntity
  8
GUIDE
100
AcDbLine
 10
343.5
 20
-48.26
 30
0.0
 11
343.5
 21
-55.78
 31
0.0
  0
LINE
  5
338
330
1A
100
AcDbEntity
  8
GUIDE
100
AcDbLine
 10
283.5
 20
-44.5
 30
0.0
 11
283.5
 21
-59.58
 31
0.0
  0
LINE
  5
339
330
1A
100
AcDbEntity
  8
GUIDE
100
AcDbLine
 10
277.5
 20
-44.5
 30
0.0
 11
277.5
 21
-59.58
 31
0.0
  0
LINE
  5
33A
330
1A
100
AcDbEntity
  8
GUIDE
100
AcDbLine
 10
291.0
 20
-67.09999999999999
 30
0.0
 11
270.0
 21
-67.09999999999999
 31
0.0
  0
LINE
  5
33B
330
1A
100
AcDbEntity
  8
GUIDE
100
AcDbLine
 10
291.0
 20
-59.58
 30
0.0
 11
270.0
 21
-59.58
 31
0.0
  0
LINE
  5
33C
330
1A
100
AcDbEntity
  8
GUIDE
100
AcDbLine
 10
270.0
 20
-67.09999999999999
 30
0.0
 11
270.0
 21
-59.58
 31
0.0
  0
LINE
  5
33D
330
1A
100
AcDbEntity
  8
GUIDE
100
AcDbLine
 10
291.0
 20
-67.09999999999999
 30
0.0
 11
291.0
 21
-59.58
 31
0.0
  0
LINE
  5
33E
330
1A
100
AcDbEntity
  8
GUIDE
100
AcDbLine
 10
277.5
 20
-67.09999999999999
 30
0.0
 11
277.5
 21
-70.5
 31
0.0
  0
LINE
  5
33F
330
1A
100
AcDbEntity
  8
GUIDE
100
AcDbLine
 10
283.5
 20
-67.09999999999999
 30
0.0
 11
283.5
 21
-70.5
 31
0.0
  0
LINE
  5
340
330
1A
100
AcDbEntity
  8
GUIDE
100
AcDbLine
 10
301.0
 20
-48.26
 30
0.0
 11
301.0
 21
-44.5
 31
0.0
  0
LINE
  5
341
330
1A
100
AcDbEntity
  8
GUIDE
100
AcDbLine
 10
295.0
 20
-48.26
 30
0.0
 11
295.0
 21
-44.5
 31
0.0
  0
LINE
  5
342
330
1A
100
AcDbEntity
  8
GUIDE
100
AcDbLine
 10
295.0
 20
-70.5
 30
0.0
 11
295.0
 21
-55.78
 31
0.0
  0
LINE
  5
343
330
1A
100
AcDbEntity
  8
GUIDE
100
AcDbLine
 10
301.0
 20
-70.5
 30
0.0
 11
301.0
 21
-55.78
 31
0.0
  0
LINE
  5
344
330
1A
100
AcDbEntity
  8
GUIDE
100
AcDbLine
 10
308.5
 20
-55.78
 30
0.0
 11
287.5
 21
-55.78
 31
0.0
  0
LINE
  5
345
330
1A
100
AcDbEntity
  8
GUIDE
100
AcDbLine
 10
308.5
 20
-48.26
 30
0.0
 11
287.5
 21
-48.26
 31
0.0
  0
LINE
  5
346
330
1A
100
AcDbEntity
  8
GUIDE
100
AcDbLine
 10
287.5
 20
-48.26
 30
0.0
 11
287.5
 21
-55.78
 31
0.0
  0
LINE
  5
347
330
1A
100
AcDbEntity
  8
GUIDE
100
AcDbLine
 10
308.5
 20
-48.26
 30
0.0
 11
308.5
 21
-55.78
 31
0.0
  0
LINE
  5
348
330
1A
100
AcDbEntity
  8
GUIDE
100
AcDbLine
 10
248.5
 20
-44.5
 30
0.0
 11
248.5
 21
-59.58
 31
0.0
  0
LINE
  5
349
330
1A
100
AcDbEntity
  8
GUIDE
100
AcDbLine
 10
242.5
 20
-44.5
 30
0.0
 11
242.5
 21
-59.58
 31
0.0
  0
LINE
  5
34A
330
1A
100
AcDbEntity
  8
GUIDE
100
AcDbLine
 10
256.0
 20
-67.09999999999999
 30
0.0
 11
235.0
 21
-67.09999999999999
 31
0.0
  0
LINE
  5
34B
330
1A
100
AcDbEntity
  8
GUIDE
100
AcDbLine
 10
256.0
 20
-59.58
 30
0.0
 11
235.0
 21
-59.58
 31
0.0
  0
LINE
  5
34C
330
1A
100
AcDbEntity
  8
GUIDE
100
AcDbLine
 10
235.0
 20
-67.09999999999999
 30
0.0
 11
235.0
 21
-59.58
 31
0.0
  0
LINE
  5
34D
330
1A
100
AcDbEntity
  8
GUIDE
100
AcDbLine
 10
256.0
 20
-67.09999999999999
 30
0.0
 11
256.0
 21
-59.58
 31
0.0
  0
LINE
  5
34E
330
1A
100
AcDbEntity
  8
GUIDE
100
AcDbLine
 10
242.5
 20
-67.09999999999999
 30
0.0
 11
242.5
 21
-70.5
 31
0.0
  0
LINE
  5
34F
330
1A
100
AcDbEntity
  8
GUIDE
100
AcDbLine
 10
248.5
 20
-67.09999999999999
 30
0.0
 11
248.5
 21
-70.5
 31
0.0
  0
LINE
  5
350
330
1A
100
AcDbEntity
  8
GUIDE
100
AcDbLine
 10
266.0
 20
-48.26
 30
0.0
 11
266.0
 21
-44.5
 31
0.0
  0
LINE
  5
351
330
1A
100
AcDbEntity
  8
GUIDE
100
AcDbLine
 10
260.0
 20
-48.26
 30
0.0
 11
260.0
 21
-44.5
 31
0.0
  0
LINE
  5
352
330
1A
100
AcDbEntity
  8
GUIDE
100
AcDbLine
 10
260.0
 20
-70.5
 30
0.0
 11
260.0
 21
-55.78
 31
0.0
  0
LINE
  5
353
330
1A
100
AcDbEntity
  8
GUIDE
100
AcDbLine
 10
266.0
 20
-70.5
 30
0.0
 11
266.0
 21
-55.78
 31
0.0
  0
LINE
  5
354
330
1A
100
AcDbEntity
  8
GUIDE
100
AcDbLine
 10
273.5
 20
-55.78
 30
0.0
 11
252.5
 21
-55.78
 31
0.0
  0
LINE
  5
355
330
1A
100
AcDbEntity
  8
GUIDE
100
AcDbLine
 10
273.5
 20
-48.26
 30
0.0
 11
252.5
 21
-48.26
 31
0.0
  0
LINE
  5
356
330
1A
100
AcDbEntity
  8
GUIDE
100
AcDbLine
 10
252.5
 20
-48.26
 30
0.0
 11
252.5
 21
-55.78
 31
0.0
  0
LINE
  5
357
330
1A
100
AcDbEntity
  8
GUIDE
100
AcDbLine
 10
273.5
 20
-48.26
 30
0.0
 11
273.5
 21
-55.78
 31
0.0
  0
LINE
  5
358
330
1A
100
AcDbEntity
  8
GUIDE
100
AcDbLine
 10
213.5
 20
-44.5
 30
0.0
 11
213.5
 21
-59.58
 31
0.0
  0
LINE
  5
359
330
1A
100
AcDbEntity
  8
GUIDE
100
AcDbLine
 10
207.5
 20
-44.5
 30
0.0
 11
207.5
 21
-59.58
 31
0.0
  0
LINE
  5
35A
330
1A
100
AcDbEntity
  8
GUIDE
100
AcDbLine
 10
221.0
 20
-67.09999999999999
 30
0.0
 11
200.0
 21
-67.09999999999999
 31
0.0
  0
LINE
  5
35B
330
1A
100
AcDbEntity
  8
GUIDE
100
AcDbLine
 10
221.0
 20
-59.58
 30
0.0
 11
200.0
 21
-59.58
 31
0.0
  0
LINE
  5
35C
330
1A
100
AcDbEntity
  8
GUIDE
100
AcDbLine
 10
200.0
 20
-67.09999999999999
 30
0.0
 11
200.0
 21
-59.58
 31
0.0
  0
LINE
  5
35D
330
1A
100
AcDbEntity
  8
GUIDE
100
AcDbLine
 10
221.0
 20
-67.09999999999999
 30
0.0
 11
221.0
 21
-59.58
 31
0.0
  0
LINE
  5
35E
330
1A
100
AcDbEntity
  8
GUIDE
100
AcDbLine
 10
207.5
 20
-67.09999999999999
 30
0.0
 11
207.5
 21
-70.5
 31
0.0
  0
LINE
  5
35F
330
1A
100
AcDbEntity
  8
GUIDE
100
AcDbLine
 10
213.5
 20
-67.09999999999999
 30
0.0
 11
213.5
 21
-70.5
 31
0.0
  0
LINE
  5
360
330
1A
100
AcDbEntity
  8
GUIDE
100
AcDbLine
 10
231.0
 20
-48.26
 30
0.0
 11
231.0
 21
-44.5
 31
0.0
  0
LINE
  5
361
330
1A
100
AcDbEntity
  8
GUIDE
100
AcDbLine
 10
225.0
 20
-48.26
 30
0.0
 11
225.0
 21
-44.5
 31
0.0
  0
LINE
  5
362
330
1A
100
AcDbEntity
  8
GUIDE
100
AcDbLine
 10
225.0
 20
-70.5
 30
0.0
 11
225.0
 21
-55.78
 31
0.0
  0
LINE
  5
363
330
1A
100
AcDbEntity
  8
GUIDE
100
AcDbLine
 10
231.0
 20
-70.5
 30
0.0
 11
231.0
 21
-55.78
 31
0.0
  0
LINE
  5
364
330
1A
100
AcDbEntity
  8
GUIDE
100
AcDbLine
 10
238.5
 20
-55.78
 30
0.0
 11
217.5
 21
-55.78
 31
0.0
  0
LINE
  5
365
330
1A
100
AcDbEntity
  8
GUIDE
100
AcDbLine
 10
238.5
 20
-48.26
 30
0.0
 11
217.5
 21
-48.26
 31
0.0
  0
LINE
  5
366
330
1A
100
AcDbEntity
  8
GUIDE
100
AcDbLine
 10
217.5
 20
-48.26
 30
0.0
 11
217.5
 21
-55.78
 31
0.0
  0
LINE
  5
367
330
1A
100
AcDbEntity
  8
GUIDE
100
AcDbLine
 10
238.5
 20
-48.26
 30
0.0
 11
238.5
 21
-55.78
 31
0.0
  0
LINE
  5
368
330
1A
100
AcDbEntity
  8
GUIDE
100
AcDbLine
 10
178.5
 20
-44.5
 30
0.0
 11
178.5
 21
-59.58
 31
0.0
  0
LINE
  5
369
330
1A
100
AcDbEntity
  8
GUIDE
100
AcDbLine
 10
172.5
 20
-44.5
 30
0.0
 11
172.5
 21
-59.58
 31
0.0
  0
LINE
  5
36A
330
1A
100
AcDbEntity
  8
GUIDE
100
AcDbLine
 10
186.0
 20
-67.09999999999999
 30
0.0
 11
165.0
 21
-67.09999999999999
 31
0.0
  0
LINE
  5
36B
330
1A
100
AcDbEntity
  8
GUIDE
100
AcDbLine
 10
186.0
 20
-59.58
 30
0.0
 11
165.0
 21
-59.58
 31
0.0
  0
LINE
  5
36C
330
1A
100
AcDbEntity
  8
GUIDE
100
AcDbLine
 10
165.0
 20
-67.09999999999999
 30
0.0
 11
165.0
 21
-59.58
 31
0.0
  0
LINE
  5
36D
330
1A
100
AcDbEntity
  8
GUIDE
100
AcDbLine
 10
186.0
 20
-67.09999999999999
 30
0.0
 11
186.0
 21
-59.58
 31
0.0
  0
LINE
  5
36E
330
1A
100
AcDbEntity
  8
GUIDE
100
AcDbLine
 10
172.5
 20
-67.09999999999999
 30
0.0
 11
172.5
 21
-70.5
 31
0.0
  0
LINE
  5
36F
330
1A
100
AcDbEntity
  8
GUIDE
100
AcDbLine
 10
178.5
 20
-67.09999999999999
 30
0.0
 11
178.5
 21
-70.5
 31
0.0
  0
LINE
  5
370
330
1A
100
AcDbEntity
  8
GUIDE
100
AcDbLine
 10
196.0
 20
-48.26
 30
0.0
 11
196.0
 21
-44.5
 31
0.0
  0
LINE
  5
371
330
1A
100
AcDbEntity
  8
GUIDE
100
AcDbLine
 10
190.0
 20
-48.26
 30
0.0
 11
190.0
 21
-44.5
 31
0.0
  0
LINE
  5
372
330
1A
100
AcDbEntity
  8
GUIDE
100
AcDbLine
 10
190.0
 20
-70.5
 30
0.0
 11
190.0
 21
-55.78
 31
0.0
  0
LINE
  5
373
330
1A
100
AcDbEntity
  8
GUIDE
100
AcDbLine
 10
196.0
 20
-70.5
 30
0.0
 11
196.0
 21
-55.78
 31
0.0
  0
LINE
  5
374
330
1A
100
AcDbEntity
  8
GUIDE
100
AcDbLine
 10
203.5
 20
-55.78
 30
0.0
 11
182.5
 21
-55.78
 31
0.0
  0
LINE
  5
375
330
1A
100
AcDbEntity
  8
GUIDE
100
AcDbLine
 10
203.5
 20
-48.26
 30
0.0
 11
182.5
 21
-48.26
 31
0.0
  0
LINE
  5
376
330
1A
100
AcDbEntity
  8
GUIDE
100
AcDbLine
 10
182.5
 20
-48.26
 30
0.0
 11
182.5
 21
-55.78
 31
0.0
  0
LINE
  5
377
330
1A
100
AcDbEntity
  8
GUIDE
100
AcDbLine
 10
203.5
 20
-48.26
 30
0.0
 11
203.5
 21
-55.78
 31
0.0
  0
LINE
  5
378
330
1A
100
AcDbEntity
  8
GUIDE
100
AcDbLine
 10
143.5
 20
-44.5
 30
0.0
 11
143.5
 21
-59.58
 31
0.0
  0
LINE
  5
379
330
1A
100
AcDbEntity
  8
GUIDE
100
AcDbLine
 10
137.5
 20
-44.5
 30
0.0
 11
137.5
 21
-59.58
 31
0.0
  0
LINE
  5
37A
330
1A
100
AcDbEntity
  8
GUIDE
100
AcDbLine
 10
151.0
 20
-67.09999999999999
 30
0.0
 11
130.0
 21
-67.09999999999999
 31
0.0
  0
LINE
  5
37B
330
1A
100
AcDbEntity
  8
GUIDE
100
AcDbLine
 10
151.0
 20
-59.58
 30
0.0
 11
130.0
 21
-59.58
 31
0.0
  0
LINE
  5
37C
330
1A
100
AcDbEntity
  8
GUIDE
100
AcDbLine
 10
130.0
 20
-67.09999999999999
 30
0.0
 11
130.0
 21
-59.58
 31
0.0
  0
LINE
  5
37D
330
1A
100
AcDbEntity
  8
GUIDE
100
AcDbLine
 10
151.0
 20
-67.09999999999999
 30
0.0
 11
151.0
 21
-59.58
 31
0.0
  0
LINE
  5
37E
330
1A
100
AcDbEntity
  8
GUIDE
100
AcDbLine
 10
137.5
 20
-67.09999999999999
 30
0.0
 11
137.5
 21
-70.5
 31
0.0
  0
LINE
  5
37F
330
1A
100
AcDbEntity
  8
GUIDE
100
AcDbLine
 10
143.5
 20
-67.09999999999999
 30
0.0
 11
143.5
 21
-70.5
 31
0.0
  0
LINE
  5
380
330
1A
100
AcDbEntity
  8
GUIDE
100
AcDbLine
 10
161.0
 20
-48.26
 30
0.0
 11
161.0
 21
-44.5
 31
0.0
  0
LINE
  5
381
330
1A
100
AcDbEntity
  8
GUIDE
100
AcDbLine
 10
155.0
 20
-48.26
 30
0.0
 11
155.0
 21
-44.5
 31
0.0
  0
LINE
  5
382
330
1A
100
AcDbEntity
  8
GUIDE
100
AcDbLine
 10
155.0
 20
-70.5
 30
0.0
 11
155.0
 21
-55.78
 31
0.0
  0
LINE
  5
383
330
1A
100
AcDbEntity
  8
GUIDE
100
AcDbLine
 10
161.0
 20
-70.5
 30
0.0
 11
161.0
 21
-55.78
 31
0.0
  0
LINE
  5
384
330
1A
100
AcDbEntity
  8
GUIDE
100
AcDbLine
 10
168.5
 20
-55.78
 30
0.0
 11
147.5
 21
-55.78
 31
0.0
  0
LINE
  5
385
330
1A
100
AcDbEntity
  8
GUIDE
100
AcDbLine
 10
168.5
 20
-48.26
 30
0.0
 11
147.5
 21
-48.26
 31
0.0
  0
LINE
  5
386
330
1A
100
AcDbEntity
  8
GUIDE
100
AcDbLine
 10
147.5
 20
-48.26
 30
0.0
 11
147.5
 21
-55.78
 31
0.0
  0
LINE
  5
387
330
1A
100
AcDbEntity
  8
GUIDE
100
AcDbLine
 10
168.5
 20
-48.26
 30
0.0
 11
168.5
 21
-55.78
 31
0.0
  0
LINE
  5
388
330
1A
100
AcDbEntity
  8
GUIDE
100
AcDbLine
 10
108.5
 20
-44.5
 30
0.0
 11
108.5
 21
-59.58
 31
0.0
  0
LINE
  5
389
330
1A
100
AcDbEntity
  8
GUIDE
100
AcDbLine
 10
102.5
 20
-44.5
 30
0.0
 11
102.5
 21
-59.58
 31
0.0
  0
LINE
  5
38A
330
1A
100
AcDbEntity
  8
GUIDE
100
AcDbLine
 10
116.0
 20
-67.09999999999999
 30
0.0
 11
95.0
 21
-67.09999999999999
 31
0.0
  0
LINE
  5
38B
330
1A
100
AcDbEntity
  8
GUIDE
100
AcDbLine
 10
116.0
 20
-59.58
 30
0.0
 11
95.0
 21
-59.58
 31
0.0
  0
LINE
  5
38C
330
1A
100
AcDbEntity
  8
GUIDE
100
AcDbLine
 10
95.0
 20
-67.09999999999999
 30
0.0
 11
95.0
 21
-59.58
 31
0.0
  0
LINE
  5
38D
330
1A
100
AcDbEntity
  8
GUIDE
100
AcDbLine
 10
116.0
 20
-67.09999999999999
 30
0.0
 11
116.0
 21
-59.58
 31
0.0
  0
LINE
  5
38E
330
1A
100
AcDbEntity
  8
GUIDE
100
AcDbLine
 10
102.5
 20
-67.09999999999999
 30
0.0
 11
102.5
 21
-70.5
 31
0.0
  0
LINE
  5
38F
330
1A
100
AcDbEntity
  8
GUIDE
100
AcDbLine
 10
108.5
 20
-67.09999999999999
 30
0.0
 11
108.5
 21
-70.5
 31
0.0
  0
LINE
  5
390
330
1A
100
AcDbEntity
  8
GUIDE
100
AcDbLine
 10
126.0
 20
-48.26
 30
0.0
 11
126.0
 21
-44.5
 31
0.0
  0
LINE
  5
391
330
1A
100
AcDbEntity
  8
GUIDE
100
AcDbLine
 10
120.0
 20
-48.26
 30
0.0
 11
120.0
 21
-44.5
 31
0.0
  0
LINE
  5
392
330
1A
100
AcDbEntity
  8
GUIDE
100
AcDbLine
 10
120.0
 20
-70.5
 30
0.0
 11
120.0
 21
-55.78
 31
0.0
  0
LINE
  5
393
330
1A
100
AcDbEntity
  8
GUIDE
100
AcDbLine
 10
126.0
 20
-70.5
 30
0.0
 11
126.0
 21
-55.78
 31
0.0
  0
LINE
  5
394
330
1A
100
AcDbEntity
  8
GUIDE
100
AcDbLine
 10
133.5
 20
-55.78
 30
0.0
 11
112.5
 21
-55.78
 31
0.0
  0
LINE
  5
395
330
1A
100
AcDbEntity
  8
GUIDE
100
AcDbLine
 10
133.5
 20
-48.26
 30
0.0
 11
112.5
 21
-48.26
 31
0.0
  0
LINE
  5
396
330
1A
100
AcDbEntity
  8
GUIDE
100
AcDbLine
 10
112.5
 20
-48.26
 30
0.0
 11
112.5
 21
-55.78
 31
0.0
  0
LINE
  5
397
330
1A
100
AcDbEntity
  8
GUIDE
100
AcDbLine
 10
133.5
 20
-48.26
 30
0.0
 11
133.5
 21
-55.78
 31
0.0
  0
LINE
  5
398
330
1A
100
AcDbEntity
  8
GUIDE
100
AcDbLine
 10
73.5
 20
-44.5
 30
0.0
 11
73.5
 21
-59.58
 31
0.0
  0
LINE
  5
399
330
1A
100
AcDbEntity
  8
GUIDE
100
AcDbLine
 10
67.5
 20
-44.5
 30
0.0
 11
67.5
 21
-59.58
 31
0.0
  0
LINE
  5
39A
330
1A
100
AcDbEntity
  8
GUIDE
100
AcDbLine
 10
81.0
 20
-67.09999999999999
 30
0.0
 11
60.0
 21
-67.09999999999999
 31
0.0
  0
LINE
  5
39B
330
1A
100
AcDbEntity
  8
GUIDE
100
AcDbLine
 10
81.0
 20
-59.58
 30
0.0
 11
60.0
 21
-59.58
 31
0.0
  0
LINE
  5
39C
330
1A
100
AcDbEntity
  8
GUIDE
100
AcDbLine
 10
60.0
 20
-67.09999999999999
 30
0.0
 11
60.0
 21
-59.58
 31
0.0
  0
LINE
  5
39D
330
1A
100
AcDbEntity
  8
GUIDE
100
AcDbLine
 10
81.0
 20
-67.09999999999999
 30
0.0
 11
81.0
 21
-59.58
 31
0.0
  0
LINE
  5
39E
330
1A
100
AcDbEntity
  8
GUIDE
100
AcDbLine
 10
67.5
 20
-67.09999999999999
 30
0.0
 11
67.5
 21
-70.5
 31
0.0
  0
LINE
  5
39F
330
1A
100
AcDbEntity
  8
GUIDE
100
AcDbLine
 10
73.5
 20
-67.09999999999999
 30
0.0
 11
73.5
 21
-70.5
 31
0.0
  0
LINE
  5
3A0
330
1A
100
AcDbEntity
  8
GUIDE
100
AcDbLine
 10
91.0
 20
-48.26
 30
0.0
 11
91.0
 21
-44.5
 31
0.0
  0
LINE
  5
3A1
330
1A
100
AcDbEntity
  8
GUIDE
100
AcDbLine
 10
85.0
 20
-48.26
 30
0.0
 11
85.0
 21
-44.5
 31
0.0
  0
LINE
  5
3A2
330
1A
100
AcDbEntity
  8
GUIDE
100
AcDbLine
 10
85.0
 20
-70.5
 30
0.0
 11
85.0
 21
-55.78
 31
0.0
  0
LINE
  5
3A3
330
1A
100
AcDbEntity
  8
GUIDE
100
AcDbLine
 10
91.0
 20
-70.5
 30
0.0
 11
91.0
 21
-55.78
 31
0.0
  0
LINE
  5
3A4
330
1A
100
AcDbEntity
  8
GUIDE
100
AcDbLine
 10
98.5
 20
-55.78
 30
0.0
 11
77.5
 21
-55.78
 31
0.0
  0
LINE
  5
3A5
330
1A
100
AcDbEntity
  8
GUIDE
100
AcDbLine
 10
98.5
 20
-48.26
 30
0.0
 11
77.5
 21
-48.26
 31
0.0
  0
LINE
  5
3A6
330
1A
100
AcDbEntity
  8
GUIDE
100
AcDbLine
 10
77.5
 20
-48.26
 30
0.0
 11
77.5
 21
-55.78
 31
0.0
  0
LINE
  5
3A7
330
1A
100
AcDbEntity
  8
GUIDE
100
AcDbLine
 10
98.5
 20
-48.26
 30
0.0
 11
98.5
 21
-55.78
 31
0.0
  0
LINE
  5
3A8
330
1A
100
AcDbEntity
  8
GUIDE
100
AcDbLine
 10
38.5
 20
-44.5
 30
0.0
 11
38.5
 21
-59.58
 31
0.0
  0
LINE
  5
3A9
330
1A
100
AcDbEntity
  8
GUIDE
100
AcDbLine
 10
32.5
 20
-44.5
 30
0.0
 11
32.5
 21
-59.58
 31
0.0
  0
LINE
  5
3AA
330
1A
100
AcDbEntity
  8
GUIDE
100
AcDbLine
 10
46.0
 20
-67.09999999999999
 30
0.0
 11
25.0
 21
-67.09999999999999
 31
0.0
  0
LINE
  5
3AB
330
1A
100
AcDbEntity
  8
GUIDE
100
AcDbLine
 10
46.0
 20
-59.58
 30
0.0
 11
25.0
 21
-59.58
 31
0.0
  0
LINE
  5
3AC
330
1A
100
AcDbEntity
  8
GUIDE
100
AcDbLine
 10
25.0
 20
-67.09999999999999
 30
0.0
 11
25.0
 21
-59.58
 31
0.0
  0
LINE
  5
3AD
330
1A
100
AcDbEntity
  8
GUIDE
100
AcDbLine
 10
46.0
 20
-67.09999999999999
 30
0.0
 11
46.0
 21
-59.58
 31
0.0
  0
LINE
  5
3AE
330
1A
100
AcDbEntity
  8
GUIDE
100
AcDbLine
 10
32.5
 20
-67.09999999999999
 30
0.0
 11
32.5
 21
-70.5
 31
0.0
  0
LINE
  5
3AF
330
1A
100
AcDbEntity
  8
GUIDE
100
AcDbLine
 10
38.5
 20
-67.09999999999999
 30
0.0
 11
38.5
 21
-70.5
 31
0.0
  0
LINE
  5
3B0
330
1A
100
AcDbEntity
  8
GUIDE
100
AcDbLine
 10
56.0
 20
-48.26
 30
0.0
 11
56.0
 21
-44.5
 31
0.0
  0
LINE
  5
3B1
330
1A
100
AcDbEntity
  8
GUIDE
100
AcDbLine
 10
50.0
 20
-48.26
 30
0.0
 11
50.0
 21
-44.5
 31
0.0
  0
LINE
  5
3B2
330
1A
100
AcDbEntity
  8
GUIDE
100
AcDbLine
 10
50.0
 20
-70.5
 30
0.0
 11
50.0
 21
-55.78
 31
0.0
  0
LINE
  5
3B3
330
1A
100
AcDbEntity
  8
GUIDE
100
AcDbLine
 10
56.0
 20
-70.5
 30
0.0
 11
56.0
 21
-55.78
 31
0.0
  0
LINE
  5
3B4
330
1A
100
AcDbEntity
  8
GUIDE
100
AcDbLine
 10
63.5
 20
-55.78
 30
0.0
 11
42.5
 21
-55.78
 31
0.0
  0
LINE
  5
3B5
330
1A
100
AcDbEntity
  8
GUIDE
100
AcDbLine
 10
63.5
 20
-48.26
 30
0.0
 11
42.5
 21
-48.26
 31
0.0
  0
LINE
  5
3B6
330
1A
100
AcDbEntity
  8
GUIDE
100
AcDbLine
 10
42.5
 20
-48.26
 30
0.0
 11
42.5
 21
-55.78
 31
0.0
  0
LINE
  5
3B7
330
1A
100
AcDbEntity
  8
GUIDE
100
AcDbLine
 10
63.5
 20
-48.26
 30
0.0
 11
63.5
 21
-55.78
 31
0.0
  0
LINE
  5
3B8
330
1A
100
AcDbEntity
  8
GUIDE
100
AcDbLine
 10
3.5
 20
-44.5
 30
0.0
 11
3.5
 21
-59.58
 31
0.0
  0
LINE
  5
3B9
330
1A
100
AcDbEntity
  8
GUIDE
100
AcDbLine
 10
-2.5
 20
-44.5
 30
0.0
 11
-2.5
 21
-59.58
 31
0.0
  0
LINE
  5
3BA
330
1A
100
AcDbEntity
  8
GUIDE
100
AcDbLine
 10
11.0
 20
-67.09999999999999
 30
0.0
 11
-10.0
 21
-67.09999999999999
 31
0.0
  0
LINE
  5
3BB
330
1A
100
AcDbEntity
  8
GUIDE
100
AcDbLine
 10
11.0
 20
-59.58
 30
0.0
 11
-10.0
 21
-59.58
 31
0.0
  0
LINE
  5
3BC
330
1A
100
AcDbEntity
  8
GUIDE
100
AcDbLine
 10
-10.0
 20
-67.09999999999999
 30
0.0
 11
-10.0
 21
-59.58
 31
0.0
  0
LINE
  5
3BD
330
1A
100
AcDbEntity
  8
GUIDE
100
AcDbLine
 10
11.0
 20
-67.09999999999999
 30
0.0
 11
11.0
 21
-59.58
 31
0.0
  0
LINE
  5
3BE
330
1A
100
AcDbEntity
  8
GUIDE
100
AcDbLine
 10
-2.5
 20
-67.09999999999999
 30
0.0
 11
-2.5
 21
-70.5
 31
0.0
  0
LINE
  5
3BF
330
1A
100
AcDbEntity
  8
GUIDE
100
AcDbLine
 10
3.5
 20
-67.09999999999999
 30
0.0
 11
3.5
 21
-70.5
 31
0.0
  0
LINE
  5
3C0
330
1A
100
AcDbEntity
  8
GUIDE
100
AcDbLine
 10
21.0
 20
-48.26
 30
0.0
 11
21.0
 21
-44.5
 31
0.0
  0
LINE
  5
3C1
330
1A
100
AcDbEntity
  8
GUIDE
100
AcDbLine
 10
15.0
 20
-48.26
 30
0.0
 11
15.0
 21
-44.5
 31
0.0
  0
LINE
  5
3C2
330
1A
100
AcDbEntity
  8
GUIDE
100
AcDbLine
 10
15.0
 20
-70.5
 30
0.0
 11
15.0
 21
-55.78
 31
0.0
  0
LINE
  5
3C3
330
1A
100
AcDbEntity
  8
GUIDE
100
AcDbLine
 10
21.0
 20
-70.5
 30
0.0
 11
21.0
 21
-55.78
 31
0.0
  0
LINE
  5
3C4
330
1A
100
AcDbEntity
  8
GUIDE
100
AcDbLine
 10
28.5
 20
-55.78
 30
0.0
 11
7.5
 21
-55.78
 31
0.0
  0
LINE
  5
3C5
330
1A
100
AcDbEntity
  8
GUIDE
100
AcDbLine
 10
28.5
 20
-48.26
 30
0.0
 11
7.5
 21
-48.26
 31
0.0
  0
LINE
  5
3C6
330
1A
100
AcDbEntity
  8
GUIDE
100
AcDbLine
 10
7.5
 20
-48.26
 30
0.0
 11
7.5
 21
-55.78
 31
0.0
  0
LINE
  5
3C7
330
1A
100
AcDbEntity
  8
GUIDE
100
AcDbLine
 10
28.5
 20
-48.26
 30
0.0
 11
28.5
 21
-55.78
 31
0.0
  0
LINE
  5
3C8
330
1A
100
AcDbEntity
  8
GUIDE
100
AcDbLine
 10
-31.5
 20
-44.5
 30
0.0
 11
-31.5
 21
-59.58
 31
0.0
  0
LINE
  5
3C9
330
1A
100
AcDbEntity
  8
GUIDE
100
AcDbLine
 10
-37.5
 20
-44.5
 30
0.0
 11
-37.5
 21
-59.58
 31
0.0
  0
LINE
  5
3CA
330
1A
100
AcDbEntity
  8
GUIDE
100
AcDbLine
 10
-24.0
 20
-67.09999999999999
 30
0.0
 11
-45.0
 21
-67.09999999999999
 31
0.0
  0
LINE
  5
3CB
330
1A
100
AcDbEntity
  8
GUIDE
100
AcDbLine
 10
-24.0
 20
-59.58
 30
0.0
 11
-45.0
 21
-59.58
 31
0.0
  0
LINE
  5
3CC
330
1A
100
AcDbEntity
  8
GUIDE
100
AcDbLine
 10
-45.0
 20
-67.09999999999999
 30
0.0
 11
-45.0
 21
-59.58
 31
0.0
  0
LINE
  5
3CD
330
1A
100
AcDbEntity
  8
GUIDE
100
AcDbLine
 10
-24.0
 20
-67.09999999999999
 30
0.0
 11
-24.0
 21
-59.58
 31
0.0
  0
LINE
  5
3CE
330
1A
100
AcDbEntity
  8
GUIDE
100
AcDbLine
 10
-37.5
 20
-67.09999999999999
 30
0.0
 11
-37.5
 21
-70.5
 31
0.0
  0
LINE
  5
3CF
330
1A
100
AcDbEntity
  8
GUIDE
100
AcDbLine
 10
-31.5
 20
-67.09999999999999
 30
0.0
 11
-31.5
 21
-70.5
 31
0.0
  0
LINE
  5
3D0
330
1A
100
AcDbEntity
  8
GUIDE
100
AcDbLine
 10
-14.0
 20
-48.26
 30
0.0
 11
-14.0
 21
-44.5
 31
0.0
  0
LINE
  5
3D1
330
1A
100
AcDbEntity
  8
GUIDE
100
AcDbLine
 10
-20.0
 20
-48.26
 30
0.0
 11
-20.0
 21
-44.5
 31
0.0
  0
LINE
  5
3D2
330
1A
100
AcDbEntity
  8
GUIDE
100
AcDbLine
 10
-20.0
 20
-70.5
 30
0.0
 11
-20.0
 21
-55.78
 31
0.0
  0
LINE
  5
3D3
330
1A
100
AcDbEntity
  8
GUIDE
100
AcDbLine
 10
-14.0
 20
-70.5
 30
0.0
 11
-14.0
 21
-55.78
 31
0.0
  0
LINE
  5
3D4
330
1A
100
AcDbEntity
  8
GUIDE
100
AcDbLine
 10
-6.5
 20
-55.78
 30
0.0
 11
-27.5
 21
-55.78
 31
0.0
  0
LINE
  5
3D5
330
1A
100
AcDbEntity
  8
GUIDE
100
AcDbLine
 10
-6.5
 20
-48.26
 30
0.0
 11
-27.5
 21
-48.26
 31
0.0
  0
LINE
  5
3D6
330
1A
100
AcDbEntity
  8
GUIDE
100
AcDbLine
 10
-27.5
 20
-48.26
 30
0.0
 11
-27.5
 21
-55.78
 31
0.0
  0
LINE
  5
3D7
330
1A
100
AcDbEntity
  8
GUIDE
100
AcDbLine
 10
-6.5
 20
-48.26
 30
0.0
 11
-6.5
 21
-55.78
 31
0.0
  0
LINE
  5
3D8
330
1A
100
AcDbEntity
  8
GUIDE
100
AcDbLine
 10
-66.5
 20
-44.5
 30
0.0
 11
-66.5
 21
-59.58
 31
0.0
  0
LINE
  5
3D9
330
1A
100
AcDbEntity
  8
GUIDE
100
AcDbLine
 10
-72.5
 20
-44.5
 30
0.0
 11
-72.5
 21
-59.58
 31
0.0
  0
LINE
  5
3DA
330
1A
100
AcDbEntity
  8
GUIDE
100
AcDbLine
 10
-59.0
 20
-67.09999999999999
 30
0.0
 11
-80.0
 21
-67.09999999999999
 31
0.0
  0
LINE
  5
3DB
330
1A
100
AcDbEntity
  8
GUIDE
100
AcDbLine
 10
-59.0
 20
-59.58
 30
0.0
 11
-80.0
 21
-59.58
 31
0.0
  0
LINE
  5
3DC
330
1A
100
AcDbEntity
  8
GUIDE
100
AcDbLine
 10
-80.0
 20
-67.09999999999999
 30
0.0
 11
-80.0
 21
-59.58
 31
0.0
  0
LINE
  5
3DD
330
1A
100
AcDbEntity
  8
GUIDE
100
AcDbLine
 10
-59.0
 20
-67.09999999999999
 30
0.0
 11
-59.0
 21
-59.58
 31
0.0
  0
LINE
  5
3DE
330
1A
100
AcDbEntity
  8
GUIDE
100
AcDbLine
 10
-72.5
 20
-67.09999999999999
 30
0.0
 11
-72.5
 21
-70.5
 31
0.0
  0
LINE
  5
3DF
330
1A
100
AcDbEntity
  8
GUIDE
100
AcDbLine
 10
-66.5
 20
-67.09999999999999
 30
0.0
 11
-66.5
 21
-70.5
 31
0.0
  0
LINE
  5
3E0
330
1A
100
AcDbEntity
  8
GUIDE
100
AcDbLine
 10
-49.0
 20
-48.26
 30
0.0
 11
-49.0
 21
-44.5
 31
0.0
  0
LINE
  5
3E1
330
1A
100
AcDbEntity
  8
GUIDE
100
AcDbLine
 10
-55.0
 20
-48.26
 30
0.0
 11
-55.0
 21
-44.5
 31
0.0
  0
LINE
  5
3E2
330
1A
100
AcDbEntity
  8
GUIDE
100
AcDbLine
 10
-55.0
 20
-70.5
 30
0.0
 11
-55.0
 21
-55.78
 31
0.0
  0
LINE
  5
3E3
330
1A
100
AcDbEntity
  8
GUIDE
100
AcDbLine
 10
-49.0
 20
-70.5
 30
0.0
 11
-49.0
 21
-55.78
 31
0.0
  0
LINE
  5
3E4
330
1A
100
AcDbEntity
  8
GUIDE
100
AcDbLine
 10
-41.5
 20
-55.78
 30
0.0
 11
-62.5
 21
-55.78
 31
0.0
  0
LINE
  5
3E5
330
1A
100
AcDbEntity
  8
GUIDE
100
AcDbLine
 10
-41.5
 20
-48.26
 30
0.0
 11
-62.5
 21
-48.26
 31
0.0
  0
LINE
  5
3E6
330
1A
100
AcDbEntity
  8
GUIDE
100
AcDbLine
 10
-62.5
 20
-48.26
 30
0.0
 11
-62.5
 21
-55.78
 31
0.0
  0
LINE
  5
3E7
330
1A
100
AcDbEntity
  8
GUIDE
100
AcDbLine
 10
-41.5
 20
-48.26
 30
0.0
 11
-41.5
 21
-55.78
 31
0.0
  0
LINE
  5
3E8
330
1A
100
AcDbEntity
  8
GUIDE
100
AcDbLine
 10
-101.5
 20
-44.5
 30
0.0
 11
-101.5
 21
-59.58
 31
0.0
  0
LINE
  5
3E9
330
1A
100
AcDbEntity
  8
GUIDE
100
AcDbLine
 10
-107.5
 20
-44.5
 30
0.0
 11
-107.5
 21
-59.58
 31
0.0
  0
LINE
  5
3EA
330
1A
100
AcDbEntity
  8
GUIDE
100
AcDbLine
 10
-94.0
 20
-67.09999999999999
 30
0.0
 11
-115.0
 21
-67.09999999999999
 31
0.0
  0
LINE
  5
3EB
330
1A
100
AcDbEntity
  8
GUIDE
100
AcDbLine
 10
-94.0
 20
-59.58
 30
0.0
 11
-115.0
 21
-59.58
 31
0.0
  0
LINE
  5
3EC
330
1A
100
AcDbEntity
  8
GUIDE
100
AcDbLine
 10
-115.0
 20
-67.09999999999999
 30
0.0
 11
-115.0
 21
-59.58
 31
0.0
  0
LINE
  5
3ED
330
1A
100
AcDbEntity
  8
GUIDE
100
AcDbLine
 10
-94.0
 20
-67.09999999999999
 30
0.0
 11
-94.0
 21
-59.58
 31
0.0
  0
LINE
  5
3EE
330
1A
100
AcDbEntity
  8
GUIDE
100
AcDbLine
 10
-107.5
 20
-67.09999999999999
 30
0.0
 11
-107.5
 21
-70.5
 31
0.0
  0
LINE
  5
3EF
330
1A
100
AcDbEntity
  8
GUIDE
100
AcDbLine
 10
-101.5
 20
-67.09999999999999
 30
0.0
 11
-101.5
 21
-70.5
 31
0.0
  0
LINE
  5
3F0
330
1A
100
AcDbEntity
  8
GUIDE
100
AcDbLine
 10
-84.0
 20
-48.26
 30
0.0
 11
-84.0
 21
-44.5
 31
0.0
  0
LINE
  5
3F1
330
1A
100
AcDbEntity
  8
GUIDE
100
AcDbLine
 10
-90.0
 20
-48.26
 30
0.0
 11
-90.0
 21
-44.5
 31
0.0
  0
LINE
  5
3F2
330
1A
100
AcDbEntity
  8
GUIDE
100
AcDbLine
 10
-90.0
 20
-70.5
 30
0.0
 11
-90.0
 21
-55.78
 31
0.0
  0
LINE
  5
3F3
330
1A
100
AcDbEntity
  8
GUIDE
100
AcDbLine
 10
-84.0
 20
-70.5
 30
0.0
 11
-84.0
 21
-55.78
 31
0.0
  0
LINE
  5
3F4
330
1A
100
AcDbEntity
  8
GUIDE
100
AcDbLine
 10
-76.5
 20
-55.78
 30
0.0
 11
-97.5
 21
-55.78
 31
0.0
  0
LINE
  5
3F5
330
1A
100
AcDbEntity
  8
GUIDE
100
AcDbLine
 10
-76.5
 20
-48.26
 30
0.0
 11
-97.5
 21
-48.26
 31
0.0
  0
LINE
  5
3F6
330
1A
100
AcDbEntity
  8
GUIDE
100
AcDbLine
 10
-97.5
 20
-48.26
 30
0.0
 11
-97.5
 21
-55.78
 31
0.0
  0
LINE
  5
3F7
330
1A
100
AcDbEntity
  8
GUIDE
100
AcDbLine
 10
-76.5
 20
-48.26
 30
0.0
 11
-76.5
 21
-55.78
 31
0.0
  0
LINE
  5
3F8
330
1A
100
AcDbEntity
  8
GUIDE
100
AcDbLine
 10
-136.5
 20
-44.5
 30
0.0
 11
-136.5
 21
-59.58
 31
0.0
  0
LINE
  5
3F9
330
1A
100
AcDbEntity
  8
GUIDE
100
AcDbLine
 10
-142.5
 20
-44.5
 30
0.0
 11
-142.5
 21
-59.58
 31
0.0
  0
LINE
  5
3FA
330
1A
100
AcDbEntity
  8
GUIDE
100
AcDbLine
 10
-129.0
 20
-67.09999999999999
 30
0.0
 11
-150.0
 21
-67.09999999999999
 31
0.0
  0
LINE
  5
3FB
330
1A
100
AcDbEntity
  8
GUIDE
100
AcDbLine
 10
-129.0
 20
-59.58
 30
0.0
 11
-150.0
 21
-59.58
 31
0.0
  0
LINE
  5
3FC
330
1A
100
AcDbEntity
  8
GUIDE
100
AcDbLine
 10
-150.0
 20
-67.09999999999999
 30
0.0
 11
-150.0
 21
-59.58
 31
0.0
  0
LINE
  5
3FD
330
1A
100
AcDbEntity
  8
GUIDE
100
AcDbLine
 10
-129.0
 20
-67.09999999999999
 30
0.0
 11
-129.0
 21
-59.58
 31
0.0
  0
LINE
  5
3FE
330
1A
100
AcDbEntity
  8
GUIDE
100
AcDbLine
 10
-142.5
 20
-67.09999999999999
 30
0.0
 11
-142.5
 21
-70.5
 31
0.0
  0
LINE
  5
3FF
330
1A
100
AcDbEntity
  8
GUIDE
100
AcDbLine
 10
-136.5
 20
-67.09999999999999
 30
0.0
 11
-136.5
 21
-70.5
 31
0.0
  0
LINE
  5
400
330
1A
100
AcDbEntity
  8
GUIDE
100
AcDbLine
 10
-119.0
 20
-48.26
 30
0.0
 11
-119.0
 21
-44.5
 31
0.0
  0
LINE
  5
401
330
1A
100
AcDbEntity
  8
GUIDE
100
AcDbLine
 10
-125.0
 20
-48.26
 30
0.0
 11
-125.0
 21
-44.5
 31
0.0
  0
LINE
  5
402
330
1A
100
AcDbEntity
  8
GUIDE
100
AcDbLine
 10
-125.0
 20
-70.5
 30
0.0
 11
-125.0
 21
-55.78
 31
0.0
  0
LINE
  5
403
330
1A
100
AcDbEntity
  8
GUIDE
100
AcDbLine
 10
-119.0
 20
-70.5
 30
0.0
 11
-119.0
 21
-55.78
 31
0.0
  0
LINE
  5
404
330
1A
100
AcDbEntity
  8
GUIDE
100
AcDbLine
 10
-111.5
 20
-55.78
 30
0.0
 11
-132.5
 21
-55.78
 31
0.0
  0
LINE
  5
405
330
1A
100
AcDbEntity
  8
GUIDE
100
AcDbLine
 10
-111.5
 20
-48.26
 30
0.0
 11
-132.5
 21
-48.26
 31
0.0
  0
LINE
  5
406
330
1A
100
AcDbEntity
  8
GUIDE
100
AcDbLine
 10
-132.5
 20
-48.26
 30
0.0
 11
-132.5
 21
-55.78
 31
0.0
  0
LINE
  5
407
330
1A
100
AcDbEntity
  8
GUIDE
100
AcDbLine
 10
-111.5
 20
-48.26
 30
0.0
 11
-111.5
 21
-55.78
 31
0.0
  0
LINE
  5
408
330
1A
100
AcDbEntity
  8
GUIDE
100
AcDbLine
 10
-171.5
 20
-44.5
 30
0.0
 11
-171.5
 21
-59.58
 31
0.0
  0
LINE
  5
409
330
1A
100
AcDbEntity
  8
GUIDE
100
AcDbLine
 10
-177.5
 20
-44.5
 30
0.0
 11
-177.5
 21
-59.58
 31
0.0
  0
LINE
  5
40A
330
1A
100
AcDbEntity
  8
GUIDE
100
AcDbLine
 10
-164.0
 20
-67.09999999999999
 30
0.0
 11
-185.0
 21
-67.09999999999999
 31
0.0
  0
LINE
  5
40B
330
1A
100
AcDbEntity
  8
GUIDE
100
AcDbLine
 10
-164.0
 20
-59.58
 30
0.0
 11
-185.0
 21
-59.58
 31
0.0
  0
LINE
  5
40C
330
1A
100
AcDbEntity
  8
GUIDE
100
AcDbLine
 10
-185.0
 20
-67.09999999999999
 30
0.0
 11
-185.0
 21
-59.58
 31
0.0
  0
LINE
  5
40D
330
1A
100
AcDbEntity
  8
GUIDE
100
AcDbLine
 10
-164.0
 20
-67.09999999999999
 30
0.0
 11
-164.0
 21
-59.58
 31
0.0
  0
LINE
  5
40E
330
1A
100
AcDbEntity
  8
GUIDE
100
AcDbLine
 10
-177.5
 20
-67.09999999999999
 30
0.0
 11
-177.5
 21
-70.5
 31
0.0
  0
LINE
  5
40F
330
1A
100
AcDbEntity
  8
GUIDE
100
AcDbLine
 10
-171.5
 20
-67.09999999999999
 30
0.0
 11
-171.5
 21
-70.5
 31
0.0
  0
LINE
  5
410
330
1A
100
AcDbEntity
  8
GUIDE
100
AcDbLine
 10
-154.0
 20
-48.26
 30
0.0
 11
-154.0
 21
-44.5
 31
0.0
  0
LINE
  5
411
330
1A
100
AcDbEntity
  8
GUIDE
100
AcDbLine
 10
-160.0
 20
-48.26
 30
0.0
 11
-160.0
 21
-44.5
 31
0.0
  0
LINE
  5
412
330
1A
100
AcDbEntity
  8
GUIDE
100
AcDbLine
 10
-160.0
 20
-70.5
 30
0.0
 11
-160.0
 21
-55.78
 31
0.0
  0
LINE
  5
413
330
1A
100
AcDbEntity
  8
GUIDE
100
AcDbLine
 10
-154.0
 20
-70.5
 30
0.0
 11
-154.0
 21
-55.78
 31
0.0
  0
LINE
  5
414
330
1A
100
AcDbEntity
  8
GUIDE
100
AcDbLine
 10
-146.5
 20
-55.78
 30
0.0
 11
-167.5
 21
-55.78
 31
0.0
  0
LINE
  5
415
330
1A
100
AcDbEntity
  8
GUIDE
100
AcDbLine
 10
-146.5
 20
-48.26
 30
0.0
 11
-167.5
 21
-48.26
 31
0.0
  0
LINE
  5
416
330
1A
100
AcDbEntity
  8
GUIDE
100
AcDbLine
 10
-167.5
 20
-48.26
 30
0.0
 11
-167.5
 21
-55.78
 31
0.0
  0
LINE
  5
417
330
1A
100
AcDbEntity
  8
GUIDE
100
AcDbLine
 10
-146.5
 20
-48.26
 30
0.0
 11
-146.5
 21
-55.78
 31
0.0
  0
LINE
  5
418
330
1A
100
AcDbEntity
  8
GUIDE
100
AcDbLine
 10
-206.5
 20
-44.5
 30
0.0
 11
-206.5
 21
-59.58
 31
0.0
  0
LINE
  5
419
330
1A
100
AcDbEntity
  8
GUIDE
100
AcDbLine
 10
-212.5
 20
-44.5
 30
0.0
 11
-212.5
 21
-59.58
 31
0.0
  0
LINE
  5
41A
330
1A
100
AcDbEntity
  8
GUIDE
100
AcDbLine
 10
-199.0
 20
-67.09999999999999
 30
0.0
 11
-220.0
 21
-67.09999999999999
 31
0.0
  0
LINE
  5
41B
330
1A
100
AcDbEntity
  8
GUIDE
100
AcDbLine
 10
-199.0
 20
-59.58
 30
0.0
 11
-220.0
 21
-59.58
 31
0.0
  0
LINE
  5
41C
330
1A
100
AcDbEntity
  8
GUIDE
100
AcDbLine
 10
-220.0
 20
-67.09999999999999
 30
0.0
 11
-220.0
 21
-59.58
 31
0.0
  0
LINE
  5
41D
330
1A
100
AcDbEntity
  8
GUIDE
100
AcDbLine
 10
-199.0
 20
-67.09999999999999
 30
0.0
 11
-199.0
 21
-59.58
 31
0.0
  0
LINE
  5
41E
330
1A
100
AcDbEntity
  8
GUIDE
100
AcDbLine
 10
-212.5
 20
-67.09999999999999
 30
0.0
 11
-212.5
 21
-70.5
 31
0.0
  0
LINE
  5
41F
330
1A
100
AcDbEntity
  8
GUIDE
100
AcDbLine
 10
-206.5
 20
-67.09999999999999
 30
0.0
 11
-206.5
 21
-70.5
 31
0.0
  0
LINE
  5
420
330
1A
100
AcDbEntity
  8
GUIDE
100
AcDbLine
 10
-189.0
 20
-48.26
 30
0.0
 11
-189.0
 21
-44.5
 31
0.0
  0
LINE
  5
421
330
1A
100
AcDbEntity
  8
GUIDE
100
AcDbLine
 10
-195.0
 20
-48.26
 30
0.0
 11
-195.0
 21
-44.5
 31
0.0
  0
LINE
  5
422
330
1A
100
AcDbEntity
  8
GUIDE
100
AcDbLine
 10
-195.0
 20
-70.5
 30
0.0
 11
-195.0
 21
-55.78
 31
0.0
  0
LINE
  5
423
330
1A
100
AcDbEntity
  8
GUIDE
100
AcDbLine
 10
-189.0
 20
-70.5
 30
0.0
 11
-189.0
 21
-55.78
 31
0.0
  0
LINE
  5
424
330
1A
100
AcDbEntity
  8
GUIDE
100
AcDbLine
 10
-181.5
 20
-55.78
 30
0.0
 11
-202.5
 21
-55.78
 31
0.0
  0
LINE
  5
425
330
1A
100
AcDbEntity
  8
GUIDE
100
AcDbLine
 10
-181.5
 20
-48.26
 30
0.0
 11
-202.5
 21
-48.26
 31
0.0
  0
LINE
  5
426
330
1A
100
AcDbEntity
  8
GUIDE
100
AcDbLine
 10
-202.5
 20
-48.26
 30
0.0
 11
-202.5
 21
-55.78
 31
0.0
  0
LINE
  5
427
330
1A
100
AcDbEntity
  8
GUIDE
100
AcDbLine
 10
-181.5
 20
-48.26
 30
0.0
 11
-181.5
 21
-55.78
 31
0.0
  0
LINE
  5
428
330
1A
100
AcDbEntity
  8
GUIDE
100
AcDbLine
 10
-241.5
 20
-44.5
 30
0.0
 11
-241.5
 21
-59.58
 31
0.0
  0
LINE
  5
429
330
1A
100
AcDbEntity
  8
GUIDE
100
AcDbLine
 10
-247.5
 20
-44.5
 30
0.0
 11
-247.5
 21
-59.58
 31
0.0
  0
LINE
  5
42A
330
1A
100
AcDbEntity
  8
GUIDE
100
AcDbLine
 10
-234.0
 20
-67.09999999999999
 30
0.0
 11
-255.0
 21
-67.09999999999999
 31
0.0
  0
LINE
  5
42B
330
1A
100
AcDbEntity
  8
GUIDE
100
AcDbLine
 10
-234.0
 20
-59.58
 30
0.0
 11
-255.0
 21
-59.58
 31
0.0
  0
LINE
  5
42C
330
1A
100
AcDbEntity
  8
GUIDE
100
AcDbLine
 10
-255.0
 20
-67.09999999999999
 30
0.0
 11
-255.0
 21
-59.58
 31
0.0
  0
LINE
  5
42D
330
1A
100
AcDbEntity
  8
GUIDE
100
AcDbLine
 10
-234.0
 20
-67.09999999999999
 30
0.0
 11
-234.0
 21
-59.58
 31
0.0
  0
LINE
  5
42E
330
1A
100
AcDbEntity
  8
GUIDE
100
AcDbLine
 10
-247.5
 20
-67.09999999999999
 30
0.0
 11
-247.5
 21
-70.5
 31
0.0
  0
LINE
  5
42F
330
1A
100
AcDbEntity
  8
GUIDE
100
AcDbLine
 10
-241.5
 20
-67.09999999999999
 30
0.0
 11
-241.5
 21
-70.5
 31
0.0
  0
LINE
  5
430
330
1A
100
AcDbEntity
  8
GUIDE
100
AcDbLine
 10
-224.0
 20
-48.26
 30
0.0
 11
-224.0
 21
-44.5
 31
0.0
  0
LINE
  5
431
330
1A
100
AcDbEntity
  8
GUIDE
100
AcDbLine
 10
-230.0
 20
-48.26
 30
0.0
 11
-230.0
 21
-44.5
 31
0.0
  0
LINE
  5
432
330
1A
100
AcDbEntity
  8
GUIDE
100
AcDbLine
 10
-230.0
 20
-70.5
 30
0.0
 11
-230.0
 21
-55.78
 31
0.0
  0
LINE
  5
433
330
1A
100
AcDbEntity
  8
GUIDE
100
AcDbLine
 10
-224.0
 20
-70.5
 30
0.0
 11
-224.0
 21
-55.78
 31
0.0
  0
LINE
  5
434
330
1A
100
AcDbEntity
  8
GUIDE
100
AcDbLine
 10
-216.5
 20
-55.78
 30
0.0
 11
-237.5
 21
-55.78
 31
0.0
  0
LINE
  5
435
330
1A
100
AcDbEntity
  8
GUIDE
100
AcDbLine
 10
-216.5
 20
-48.26
 30
0.0
 11
-237.5
 21
-48.26
 31
0.0
  0
LINE
  5
436
330
1A
100
AcDbEntity
  8
GUIDE
100
AcDbLine
 10
-237.5
 20
-48.26
 30
0.0
 11
-237.5
 21
-55.78
 31
0.0
  0
LINE
  5
437
330
1A
100
AcDbEntity
  8
GUIDE
100
AcDbLine
 10
-216.5
 20
-48.26
 30
0.0
 11
-216.5
 21
-55.78
 31
0.0
  0
LINE
  5
438
330
1A
100
AcDbEntity
  8
GUIDE
100
AcDbLine
 10
-276.5
 20
-44.5
 30
0.0
 11
-276.5
 21
-59.58
 31
0.0
  0
LINE
  5
439
330
1A
100
AcDbEntity
  8
GUIDE
100
AcDbLine
 10
-282.5
 20
-44.5
 30
0.0
 11
-282.5
 21
-59.58
 31
0.0
  0
LINE
  5
43A
330
1A
100
AcDbEntity
  8
GUIDE
100
AcDbLine
 10
-269.0
 20
-67.09999999999999
 30
0.0
 11
-290.0
 21
-67.09999999999999
 31
0.0
  0
LINE
  5
43B
330
1A
100
AcDbEntity
  8
GUIDE
100
AcDbLine
 10
-269.0
 20
-59.58
 30
0.0
 11
-290.0
 21
-59.58
 31
0.0
  0
LINE
  5
43C
330
1A
100
AcDbEntity
  8
GUIDE
100
AcDbLine
 10
-290.0
 20
-67.09999999999999
 30
0.0
 11
-290.0
 21
-59.58
 31
0.0
  0
LINE
  5
43D
330
1A
100
AcDbEntity
  8
GUIDE
100
AcDbLine
 10
-269.0
 20
-67.09999999999999
 30
0.0
 11
-269.0
 21
-59.58
 31
0.0
  0
LINE
  5
43E
330
1A
100
AcDbEntity
  8
GUIDE
100
AcDbLine
 10
-282.5
 20
-67.09999999999999
 30
0.0
 11
-282.5
 21
-70.5
 31
0.0
  0
LINE
  5
43F
330
1A
100
AcDbEntity
  8
GUIDE
100
AcDbLine
 10
-276.5
 20
-67.09999999999999
 30
0.0
 11
-276.5
 21
-70.5
 31
0.0
  0
LINE
  5
440
330
1A
100
AcDbEntity
  8
GUIDE
100
AcDbLine
 10
-259.0
 20
-48.26
 30
0.0
 11
-259.0
 21
-44.5
 31
0.0
  0
LINE
  5
441
330
1A
100
AcDbEntity
  8
GUIDE
100
AcDbLine
 10
-265.0
 20
-48.26
 30
0.0
 11
-265.0
 21
-44.5
 31
0.0
  0
LINE
  5
442
330
1A
100
AcDbEntity
  8
GUIDE
100
AcDbLine
 10
-265.0
 20
-70.5
 30
0.0
 11
-265.0
 21
-55.78
 31
0.0
  0
LINE
  5
443
330
1A
100
AcDbEntity
  8
GUIDE
100
AcDbLine
 10
-259.0
 20
-70.5
 30
0.0
 11
-259.0
 21
-55.78
 31
0.0
  0
LINE
  5
444
330
1A
100
AcDbEntity
  8
GUIDE
100
AcDbLine
 10
-251.5
 20
-55.78
 30
0.0
 11
-272.5
 21
-55.78
 31
0.0
  0
LINE
  5
445
330
1A
100
AcDbEntity
  8
GUIDE
100
AcDbLine
 10
-251.5
 20
-48.26
 30
0.0
 11
-272.5
 21
-48.26
 31
0.0
  0
LINE
  5
446
330
1A
100
AcDbEntity
  8
GUIDE
100
AcDbLine
 10
-272.5
 20
-48.26
 30
0.0
 11
-272.5
 21
-55.78
 31
0.0
  0
LINE
  5
447
330
1A
100
AcDbEntity
  8
GUIDE
100
AcDbLine
 10
-251.5
 20
-48.26
 30
0.0
 11
-251.5
 21
-55.78
 31
0.0
  0
LINE
  5
448
330
1A
100
AcDbEntity
  8
GUIDE
100
AcDbLine
 10
-311.5
 20
-44.5
 30
0.0
 11
-311.5
 21
-59.58
 31
0.0
  0
LINE
  5
449
330
1A
100
AcDbEntity
  8
GUIDE
100
AcDbLine
 10
-317.5
 20
-44.5
 30
0.0
 11
-317.5
 21
-59.58
 31
0.0
  0
LINE
  5
44A
330
1A
100
AcDbEntity
  8
GUIDE
100
AcDbLine
 10
-304.0
 20
-67.09999999999999
 30
0.0
 11
-325.0
 21
-67.09999999999999
 31
0.0
  0
LINE
  5
44B
330
1A
100
AcDbEntity
  8
GUIDE
100
AcDbLine
 10
-304.0
 20
-59.58
 30
0.0
 11
-325.0
 21
-59.58
 31
0.0
  0
LINE
  5
44C
330
1A
100
AcDbEntity
  8
GUIDE
100
AcDbLine
 10
-325.0
 20
-67.09999999999999
 30
0.0
 11
-325.0
 21
-59.58
 31
0.0
  0
LINE
  5
44D
330
1A
100
AcDbEntity
  8
GUIDE
100
AcDbLine
 10
-304.0
 20
-67.09999999999999
 30
0.0
 11
-304.0
 21
-59.58
 31
0.0
  0
LINE
  5
44E
330
1A
100
AcDbEntity
  8
GUIDE
100
AcDbLine
 10
-317.5
 20
-67.09999999999999
 30
0.0
 11
-317.5
 21
-70.5
 31
0.0
  0
LINE
  5
44F
330
1A
100
AcDbEntity
  8
GUIDE
100
AcDbLine
 10
-311.5
 20
-67.09999999999999
 30
0.0
 11
-311.5
 21
-70.5
 31
0.0
  0
LINE
  5
450
330
1A
100
AcDbEntity
  8
GUIDE
100
AcDbLine
 10
-294.0
 20
-48.26
 30
0.0
 11
-294.0
 21
-44.5
 31
0.0
  0
LINE
  5
451
330
1A
100
AcDbEntity
  8
GUIDE
100
AcDbLine
 10
-300.0
 20
-48.26
 30
0.0
 11
-300.0
 21
-44.5
 31
0.0
  0
LINE
  5
452
330
1A
100
AcDbEntity
  8
GUIDE
100
AcDbLine
 10
-300.0
 20
-70.5
 30
0.0
 11
-300.0
 21
-55.78
 31
0.0
  0
LINE
  5
453
330
1A
100
AcDbEntity
  8
GUIDE
100
AcDbLine
 10
-294.0
 20
-70.5
 30
0.0
 11
-294.0
 21
-55.78
 31
0.0
  0
LINE
  5
454
330
1A
100
AcDbEntity
  8
GUIDE
100
AcDbLine
 10
-286.5
 20
-55.78
 30
0.0
 11
-307.5
 21
-55.78
 31
0.0
  0
LINE
  5
455
330
1A
100
AcDbEntity
  8
GUIDE
100
AcDbLine
 10
-286.5
 20
-48.26
 30
0.0
 11
-307.5
 21
-48.26
 31
0.0
  0
LINE
  5
456
330
1A
100
AcDbEntity
  8
GUIDE
100
AcDbLine
 10
-307.5
 20
-48.26
 30
0.0
 11
-307.5
 21
-55.78
 31
0.0
  0
LINE
  5
457
330
1A
100
AcDbEntity
  8
GUIDE
100
AcDbLine
 10
-286.5
 20
-48.26
 30
0.0
 11
-286.5
 21
-55.78
 31
0.0
  0
LINE
  5
458
330
1A
100
AcDbEntity
  8
GUIDE
100
AcDbLine
 10
-346.5
 20
-44.5
 30
0.0
 11
-346.5
 21
-59.58
 31
0.0
  0
LINE
  5
459
330
1A
100
AcDbEntity
  8
GUIDE
100
AcDbLine
 10
-352.5
 20
-44.5
 30
0.0
 11
-352.5
 21
-59.58
 31
0.0
  0
LINE
  5
45A
330
1A
100
AcDbEntity
  8
GUIDE
100
AcDbLine
 10
-339.0
 20
-67.09999999999999
 30
0.0
 11
-360.0
 21
-67.09999999999999
 31
0.0
  0
LINE
  5
45B
330
1A
100
AcDbEntity
  8
GUIDE
100
AcDbLine
 10
-339.0
 20
-59.58
 30
0.0
 11
-360.0
 21
-59.58
 31
0.0
  0
LINE
  5
45C
330
1A
100
AcDbEntity
  8
GUIDE
100
AcDbLine
 10
-360.0
 20
-67.09999999999999
 30
0.0
 11
-360.0
 21
-59.58
 31
0.0
  0
LINE
  5
45D
330
1A
100
AcDbEntity
  8
GUIDE
100
AcDbLine
 10
-339.0
 20
-67.09999999999999
 30
0.0
 11
-339.0
 21
-59.58
 31
0.0
  0
LINE
  5
45E
330
1A
100
AcDbEntity
  8
GUIDE
100
AcDbLine
 10
-352.5
 20
-67.09999999999999
 30
0.0
 11
-352.5
 21
-70.5
 31
0.0
  0
LINE
  5
45F
330
1A
100
AcDbEntity
  8
GUIDE
100
AcDbLine
 10
-346.5
 20
-67.09999999999999
 30
0.0
 11
-346.5
 21
-70.5
 31
0.0
  0
LINE
  5
460
330
1A
100
AcDbEntity
  8
GUIDE
100
AcDbLine
 10
-329.0
 20
-48.26
 30
0.0
 11
-329.0
 21
-44.5
 31
0.0
  0
LINE
  5
461
330
1A
100
AcDbEntity
  8
GUIDE
100
AcDbLine
 10
-335.0
 20
-48.26
 30
0.0
 11
-335.0
 21
-44.5
 31
0.0
  0
LINE
  5
462
330
1A
100
AcDbEntity
  8
GUIDE
100
AcDbLine
 10
-335.0
 20
-70.5
 30
0.0
 11
-335.0
 21
-55.78
 31
0.0
  0
LINE
  5
463
330
1A
100
AcDbEntity
  8
GUIDE
100
AcDbLine
 10
-329.0
 20
-70.5
 30
0.0
 11
-329.0
 21
-55.78
 31
0.0
  0
LINE
  5
464
330
1A
100
AcDbEntity
  8
GUIDE
100
AcDbLine
 10
-321.5
 20
-55.78
 30
0.0
 11
-342.5
 21
-55.78
 31
0.0
  0
LINE
  5
465
330
1A
100
AcDbEntity
  8
GUIDE
100
AcDbLine
 10
-321.5
 20
-48.26
 30
0.0
 11
-342.5
 21
-48.26
 31
0.0
  0
LINE
  5
466
330
1A
100
AcDbEntity
  8
GUIDE
100
AcDbLine
 10
-342.5
 20
-48.26
 30
0.0
 11
-342.5
 21
-55.78
 31
0.0
  0
LINE
  5
467
330
1A
100
AcDbEntity
  8
GUIDE
100
AcDbLine
 10
-321.5
 20
-48.26
 30
0.0
 11
-321.5
 21
-55.78
 31
0.0
  0
LINE
  5
468
330
1A
100
AcDbEntity
  8
GUIDE
100
AcDbLine
 10
-381.5
 20
-44.5
 30
0.0
 11
-381.5
 21
-59.58
 31
0.0
  0
LINE
  5
469
330
1A
100
AcDbEntity
  8
GUIDE
100
AcDbLine
 10
-387.5
 20
-44.5
 30
0.0
 11
-387.5
 21
-59.58
 31
0.0
  0
LINE
  5
46A
330
1A
100
AcDbEntity
  8
GUIDE
100
AcDbLine
 10
-374.0
 20
-67.09999999999999
 30
0.0
 11
-395.0
 21
-67.09999999999999
 31
0.0
  0
LINE
  5
46B
330
1A
100
AcDbEntity
  8
GUIDE
100
AcDbLine
 10
-374.0
 20
-59.58
 30
0.0
 11
-395.0
 21
-59.58
 31
0.0
  0
LINE
  5
46C
330
1A
100
AcDbEntity
  8
GUIDE
100
AcDbLine
 10
-395.0
 20
-67.09999999999999
 30
0.0
 11
-395.0
 21
-59.58
 31
0.0
  0
LINE
  5
46D
330
1A
100
AcDbEntity
  8
GUIDE
100
AcDbLine
 10
-374.0
 20
-67.09999999999999
 30
0.0
 11
-374.0
 21
-59.58
 31
0.0
  0
LINE
  5
46E
330
1A
100
AcDbEntity
  8
GUIDE
100
AcDbLine
 10
-387.5
 20
-67.09999999999999
 30
0.0
 11
-387.5
 21
-70.5
 31
0.0
  0
LINE
  5
46F
330
1A
100
AcDbEntity
  8
GUIDE
100
AcDbLine
 10
-381.5
 20
-67.09999999999999
 30
0.0
 11
-381.5
 21
-70.5
 31
0.0
  0
LINE
  5
470
330
1A
100
AcDbEntity
  8
GUIDE
100
AcDbLine
 10
-364.0
 20
-48.26
 30
0.0
 11
-364.0
 21
-44.5
 31
0.0
  0
LINE
  5
471
330
1A
100
AcDbEntity
  8
GUIDE
100
AcDbLine
 10
-370.0
 20
-48.26
 30
0.0
 11
-370.0
 21
-44.5
 31
0.0
  0
LINE
  5
472
330
1A
100
AcDbEntity
  8
GUIDE
100
AcDbLine
 10
-370.0
 20
-70.5
 30
0.0
 11
-370.0
 21
-55.78
 31
0.0
  0
LINE
  5
473
330
1A
100
AcDbEntity
  8
GUIDE
100
AcDbLine
 10
-364.0
 20
-70.5
 30
0.0
 11
-364.0
 21
-55.78
 31
0.0
  0
LINE
  5
474
330
1A
100
AcDbEntity
  8
GUIDE
100
AcDbLine
 10
-356.5
 20
-55.78
 30
0.0
 11
-377.5
 21
-55.78
 31
0.0
  0
LINE
  5
475
330
1A
100
AcDbEntity
  8
GUIDE
100
AcDbLine
 10
-356.5
 20
-48.26
 30
0.0
 11
-377.5
 21
-48.26
 31
0.0
  0
LINE
  5
476
330
1A
100
AcDbEntity
  8
GUIDE
100
AcDbLine
 10
-377.5
 20
-48.26
 30
0.0
 11
-377.5
 21
-55.78
 31
0.0
  0
LINE
  5
477
330
1A
100
AcDbEntity
  8
GUIDE
100
AcDbLine
 10
-356.5
 20
-48.26
 30
0.0
 11
-356.5
 21
-55.78
 31
0.0
  0
LINE
  5
478
330
1A
100
AcDbEntity
  8
GUIDE
100
AcDbLine
 10
-416.5
 20
-44.5
 30
0.0
 11
-416.5
 21
-59.58
 31
0.0
  0
LINE
  5
479
330
1A
100
AcDbEntity
  8
GUIDE
100
AcDbLine
 10
-422.5
 20
-44.5
 30
0.0
 11
-422.5
 21
-59.58
 31
0.0
  0
LINE
  5
47A
330
1A
100
AcDbEntity
  8
GUIDE
100
AcDbLine
 10
-409.0
 20
-67.09999999999999
 30
0.0
 11
-430.0
 21
-67.09999999999999
 31
0.0
  0
LINE
  5
47B
330
1A
100
AcDbEntity
  8
GUIDE
100
AcDbLine
 10
-409.0
 20
-59.58
 30
0.0
 11
-430.0
 21
-59.58
 31
0.0
  0
LINE
  5
47C
330
1A
100
AcDbEntity
  8
GUIDE
100
AcDbLine
 10
-430.0
 20
-67.09999999999999
 30
0.0
 11
-430.0
 21
-59.58
 31
0.0
  0
LINE
  5
47D
330
1A
100
AcDbEntity
  8
GUIDE
100
AcDbLine
 10
-409.0
 20
-67.09999999999999
 30
0.0
 11
-409.0
 21
-59.58
 31
0.0
  0
LINE
  5
47E
330
1A
100
AcDbEntity
  8
GUIDE
100
AcDbLine
 10
-422.5
 20
-67.09999999999999
 30
0.0
 11
-422.5
 21
-70.5
 31
0.0
  0
LINE
  5
47F
330
1A
100
AcDbEntity
  8
GUIDE
100
AcDbLine
 10
-416.5
 20
-67.09999999999999
 30
0.0
 11
-416.5
 21
-70.5
 31
0.0
  0
LINE
  5
480
330
1A
100
AcDbEntity
  8
GUIDE
100
AcDbLine
 10
-399.0
 20
-48.26
 30
0.0
 11
-399.0
 21
-44.5
 31
0.0
  0
LINE
  5
481
330
1A
100
AcDbEntity
  8
GUIDE
100
AcDbLine
 10
-405.0
 20
-48.26
 30
0.0
 11
-405.0
 21
-44.5
 31
0.0
  0
LINE
  5
482
330
1A
100
AcDbEntity
  8
GUIDE
100
AcDbLine
 10
-405.0
 20
-70.5
 30
0.0
 11
-405.0
 21
-55.78
 31
0.0
  0
LINE
  5
483
330
1A
100
AcDbEntity
  8
GUIDE
100
AcDbLine
 10
-399.0
 20
-70.5
 30
0.0
 11
-399.0
 21
-55.78
 31
0.0
  0
LINE
  5
484
330
1A
100
AcDbEntity
  8
GUIDE
100
AcDbLine
 10
-391.5
 20
-55.78
 30
0.0
 11
-412.5
 21
-55.78
 31
0.0
  0
LINE
  5
485
330
1A
100
AcDbEntity
  8
GUIDE
100
AcDbLine
 10
-391.5
 20
-48.26
 30
0.0
 11
-412.5
 21
-48.26
 31
0.0
  0
LINE
  5
486
330
1A
100
AcDbEntity
  8
GUIDE
100
AcDbLine
 10
-412.5
 20
-48.26
 30
0.0
 11
-412.5
 21
-55.78
 31
0.0
  0
LINE
  5
487
330
1A
100
AcDbEntity
  8
GUIDE
100
AcDbLine
 10
-391.5
 20
-48.26
 30
0.0
 11
-391.5
 21
-55.78
 31
0.0
  0
LINE
  5
488
330
1A
100
AcDbEntity
  8
GUIDE
100
AcDbLine
 10
-451.5
 20
-44.5
 30
0.0
 11
-451.5
 21
-59.58
 31
0.0
  0
LINE
  5
489
330
1A
100
AcDbEntity
  8
GUIDE
100
AcDbLine
 10
-457.5
 20
-44.5
 30
0.0
 11
-457.5
 21
-59.58
 31
0.0
  0
LINE
  5
48A
330
1A
100
AcDbEntity
  8
GUIDE
100
AcDbLine
 10
-444.0
 20
-67.09999999999999
 30
0.0
 11
-465.0
 21
-67.09999999999999
 31
0.0
  0
LINE
  5
48B
330
1A
100
AcDbEntity
  8
GUIDE
100
AcDbLine
 10
-444.0
 20
-59.58
 30
0.0
 11
-465.0
 21
-59.58
 31
0.0
  0
LINE
  5
48C
330
1A
100
AcDbEntity
  8
GUIDE
100
AcDbLine
 10
-465.0
 20
-67.09999999999999
 30
0.0
 11
-465.0
 21
-59.58
 31
0.0
  0
LINE
  5
48D
330
1A
100
AcDbEntity
  8
GUIDE
100
AcDbLine
 10
-444.0
 20
-67.09999999999999
 30
0.0
 11
-444.0
 21
-59.58
 31
0.0
  0
LINE
  5
48E
330
1A
100
AcDbEntity
  8
GUIDE
100
AcDbLine
 10
-457.5
 20
-67.09999999999999
 30
0.0
 11
-457.5
 21
-70.5
 31
0.0
  0
LINE
  5
48F
330
1A
100
AcDbEntity
  8
GUIDE
100
AcDbLine
 10
-451.5
 20
-67.09999999999999
 30
0.0
 11
-451.5
 21
-70.5
 31
0.0
  0
LINE
  5
490
330
1A
100
AcDbEntity
  8
GUIDE
100
AcDbLine
 10
-434.0
 20
-48.26
 30
0.0
 11
-434.0
 21
-44.5
 31
0.0
  0
LINE
  5
491
330
1A
100
AcDbEntity
  8
GUIDE
100
AcDbLine
 10
-440.0
 20
-48.26
 30
0.0
 11
-440.0
 21
-44.5
 31
0.0
  0
LINE
  5
492
330
1A
100
AcDbEntity
  8
GUIDE
100
AcDbLine
 10
-440.0
 20
-70.5
 30
0.0
 11
-440.0
 21
-55.78
 31
0.0
  0
LINE
  5
493
330
1A
100
AcDbEntity
  8
GUIDE
100
AcDbLine
 10
-434.0
 20
-70.5
 30
0.0
 11
-434.0
 21
-55.78
 31
0.0
  0
LINE
  5
494
330
1A
100
AcDbEntity
  8
GUIDE
100
AcDbLine
 10
-426.5
 20
-55.78
 30
0.0
 11
-447.5
 21
-55.78
 31
0.0
  0
LINE
  5
495
330
1A
100
AcDbEntity
  8
GUIDE
100
AcDbLine
 10
-426.5
 20
-48.26
 30
0.0
 11
-447.5
 21
-48.26
 31
0.0
  0
LINE
  5
496
330
1A
100
AcDbEntity
  8
GUIDE
100
AcDbLine
 10
-447.5
 20
-48.26
 30
0.0
 11
-447.5
 21
-55.78
 31
0.0
  0
LINE
  5
497
330
1A
100
AcDbEntity
  8
GUIDE
100
AcDbLine
 10
-426.5
 20
-48.26
 30
0.0
 11
-426.5
 21
-55.78
 31
0.0
  0
LINE
  5
498
330
1A
100
AcDbEntity
  8
GUIDE
100
AcDbLine
 10
-486.5
 20
-44.5
 30
0.0
 11
-486.5
 21
-59.58
 31
0.0
  0
LINE
  5
499
330
1A
100
AcDbEntity
  8
GUIDE
100
AcDbLine
 10
-492.5
 20
-44.5
 30
0.0
 11
-492.5
 21
-59.58
 31
0.0
  0
LINE
  5
49A
330
1A
100
AcDbEntity
  8
GUIDE
100
AcDbLine
 10
-479.0
 20
-67.09999999999999
 30
0.0
 11
-500.0
 21
-67.09999999999999
 31
0.0
  0
LINE
  5
49B
330
1A
100
AcDbEntity
  8
GUIDE
100
AcDbLine
 10
-479.0
 20
-59.58
 30
0.0
 11
-500.0
 21
-59.58
 31
0.0
  0
LINE
  5
49C
330
1A
100
AcDbEntity
  8
GUIDE
100
AcDbLine
 10
-500.0
 20
-67.09999999999999
 30
0.0
 11
-500.0
 21
-59.58
 31
0.0
  0
LINE
  5
49D
330
1A
100
AcDbEntity
  8
GUIDE
100
AcDbLine
 10
-479.0
 20
-67.09999999999999
 30
0.0
 11
-479.0
 21
-59.58
 31
0.0
  0
LINE
  5
49E
330
1A
100
AcDbEntity
  8
GUIDE
100
AcDbLine
 10
-492.5
 20
-67.09999999999999
 30
0.0
 11
-492.5
 21
-70.5
 31
0.0
  0
LINE
  5
49F
330
1A
100
AcDbEntity
  8
GUIDE
100
AcDbLine
 10
-486.5
 20
-67.09999999999999
 30
0.0
 11
-486.5
 21
-70.5
 31
0.0
  0
LINE
  5
4A0
330
1A
100
AcDbEntity
  8
GUIDE
100
AcDbLine
 10
-469.0
 20
-48.26
 30
0.0
 11
-469.0
 21
-44.5
 31
0.0
  0
LINE
  5
4A1
330
1A
100
AcDbEntity
  8
GUIDE
100
AcDbLine
 10
-475.0
 20
-48.26
 30
0.0
 11
-475.0
 21
-44.5
 31
0.0
  0
LINE
  5
4A2
330
1A
100
AcDbEntity
  8
GUIDE
100
AcDbLine
 10
-475.0
 20
-70.5
 30
0.0
 11
-475.0
 21
-55.78
 31
0.0
  0
LINE
  5
4A3
330
1A
100
AcDbEntity
  8
GUIDE
100
AcDbLine
 10
-469.0
 20
-70.5
 30
0.0
 11
-469.0
 21
-55.78
 31
0.0
  0
LINE
  5
4A4
330
1A
100
AcDbEntity
  8
GUIDE
100
AcDbLine
 10
-461.5
 20
-55.78
 30
0.0
 11
-482.5
 21
-55.78
 31
0.0
  0
LINE
  5
4A5
330
1A
100
AcDbEntity
  8
GUIDE
100
AcDbLine
 10
-461.5
 20
-48.26
 30
0.0
 11
-482.5
 21
-48.26
 31
0.0
  0
LINE
  5
4A6
330
1A
100
AcDbEntity
  8
GUIDE
100
AcDbLine
 10
-482.5
 20
-48.26
 30
0.0
 11
-482.5
 21
-55.78
 31
0.0
  0
LINE
  5
4A7
330
1A
100
AcDbEntity
  8
GUIDE
100
AcDbLine
 10
-461.5
 20
-48.26
 30
0.0
 11
-461.5
 21
-55.78
 31
0.0
  0
LINE
  5
4A8
330
1A
100
AcDbEntity
  8
GUIDE
100
AcDbLine
 10
-521.5
 20
-44.5
 30
0.0
 11
-521.5
 21
-59.58
 31
0.0
  0
LINE
  5
4A9
330
1A
100
AcDbEntity
  8
GUIDE
100
AcDbLine
 10
-527.5
 20
-44.5
 30
0.0
 11
-527.5
 21
-59.58
 31
0.0
  0
LINE
  5
4AA
330
1A
100
AcDbEntity
  8
GUIDE
100
AcDbLine
 10
-514.0
 20
-67.09999999999999
 30
0.0
 11
-535.0
 21
-67.09999999999999
 31
0.0
  0
LINE
  5
4AB
330
1A
100
AcDbEntity
  8
GUIDE
100
AcDbLine
 10
-514.0
 20
-59.58
 30
0.0
 11
-535.0
 21
-59.58
 31
0.0
  0
LINE
  5
4AC
330
1A
100
AcDbEntity
  8
GUIDE
100
AcDbLine
 10
-535.0
 20
-67.09999999999999
 30
0.0
 11
-535.0
 21
-59.58
 31
0.0
  0
LINE
  5
4AD
330
1A
100
AcDbEntity
  8
GUIDE
100
AcDbLine
 10
-514.0
 20
-67.09999999999999
 30
0.0
 11
-514.0
 21
-59.58
 31
0.0
  0
LINE
  5
4AE
330
1A
100
AcDbEntity
  8
GUIDE
100
AcDbLine
 10
-527.5
 20
-67.09999999999999
 30
0.0
 11
-527.5
 21
-70.5
 31
0.0
  0
LINE
  5
4AF
330
1A
100
AcDbEntity
  8
GUIDE
100
AcDbLine
 10
-521.5
 20
-67.09999999999999
 30
0.0
 11
-521.5
 21
-70.5
 31
0.0
  0
LINE
  5
4B0
330
1A
100
AcDbEntity
  8
GUIDE
100
AcDbLine
 10
-504.0
 20
-48.26
 30
0.0
 11
-504.0
 21
-44.5
 31
0.0
  0
LINE
  5
4B1
330
1A
100
AcDbEntity
  8
GUIDE
100
AcDbLine
 10
-510.0
 20
-48.26
 30
0.0
 11
-510.0
 21
-44.5
 31
0.0
  0
LINE
  5
4B2
330
1A
100
AcDbEntity
  8
GUIDE
100
AcDbLine
 10
-510.0
 20
-70.5
 30
0.0
 11
-510.0
 21
-55.78
 31
0.0
  0
LINE
  5
4B3
330
1A
100
AcDbEntity
  8
GUIDE
100
AcDbLine
 10
-504.0
 20
-70.5
 30
0.0
 11
-504.0
 21
-55.78
 31
0.0
  0
LINE
  5
4B4
330
1A
100
AcDbEntity
  8
GUIDE
100
AcDbLine
 10
-496.5
 20
-55.78
 30
0.0
 11
-517.5
 21
-55.78
 31
0.0
  0
LINE
  5
4B5
330
1A
100
AcDbEntity
  8
GUIDE
100
AcDbLine
 10
-496.5
 20
-48.26
 30
0.0
 11
-517.5
 21
-48.26
 31
0.0
  0
LINE
  5
4B6
330
1A
100
AcDbEntity
  8
GUIDE
100
AcDbLine
 10
-517.5
 20
-48.26
 30
0.0
 11
-517.5
 21
-55.78
 31
0.0
  0
LINE
  5
4B7
330
1A
100
AcDbEntity
  8
GUIDE
100
AcDbLine
 10
-496.5
 20
-48.26
 30
0.0
 11
-496.5
 21
-55.78
 31
0.0
  0
LINE
  5
4B8
330
1A
100
AcDbEntity
  8
GUIDE
100
AcDbLine
 10
-531.5
 20
-48.26
 30
0.0
 11
-531.5
 21
-55.78
 31
0.0
  0
LINE
  5
4B9
330
1A
100
AcDbEntity
  8
GUIDE
100
AcDbLine
 10
-552.5
 20
-48.26
 30
0.0
 11
-552.5
 21
-55.78
 31
0.0
  0
LINE
  5
4BA
330
1A
100
AcDbEntity
  8
GUIDE
100
AcDbLine
 10
-531.5
 20
-48.26
 30
0.0
 11
-552.5
 21
-48.26
 31
0.0
  0
LINE
  5
4BB
330
1A
100
AcDbEntity
  8
GUIDE
100
AcDbLine
 10
-531.5
 20
-55.78
 30
0.0
 11
-552.5
 21
-55.78
 31
0.0
  0
LINE
  5
4BC
330
1A
100
AcDbEntity
  8
GUIDE
100
AcDbLine
 10
-539.0
 20
-70.5
 30
0.0
 11
-539.0
 21
-55.78
 31
0.0
  0
LINE
  5
4BD
330
1A
100
AcDbEntity
  8
GUIDE
100
AcDbLine
 10
-545.0
 20
-70.5
 30
0.0
 11
-545.0
 21
-55.78
 31
0.0
  0
LINE
  5
4BE
330
1A
100
AcDbEntity
  8
GUIDE
100
AcDbLine
 10
-545.0
 20
-48.26
 30
0.0
 11
-545.0
 21
-44.5
 31
0.0
  0
LINE
  5
4BF
330
1A
100
AcDbEntity
  8
GUIDE
100
AcDbLine
 10
-539.0
 20
-48.26
 30
0.0
 11
-539.0
 21
-44.5
 31
0.0
  0
LINE
  5
4C0
330
1A
100
AcDbEntity
  8
GUIDE
100
AcDbLine
 10
-566.0
 20
-67.09999999999999
 30
0.0
 11
-566.0
 21
-80.5
 31
0.0
  0
LINE
  5
4C1
330
1A
100
AcDbEntity
  8
GUIDE
100
AcDbLine
 10
-556.5
 20
-67.09999999999999
 30
0.0
 11
-556.5
 21
-70.5
 31
0.0
  0
LINE
  5
4C2
330
1A
100
AcDbEntity
  8
GUIDE
100
AcDbLine
 10
-562.5
 20
-67.09999999999999
 30
0.0
 11
-562.5
 21
-70.5
 31
0.0
  0
LINE
  5
4C3
330
1A
100
AcDbEntity
  8
GUIDE
100
AcDbLine
 10
-549.0
 20
-67.09999999999999
 30
0.0
 11
-549.0
 21
-59.58
 31
0.0
  0
LINE
  5
4C4
330
1A
100
AcDbEntity
  8
GUIDE
100
AcDbLine
 10
-570.0
 20
-67.09999999999999
 30
0.0
 11
-570.0
 21
-59.58
 31
0.0
  0
LINE
  5
4C5
330
1A
100
AcDbEntity
  8
GUIDE
100
AcDbLine
 10
-549.0
 20
-59.58
 30
0.0
 11
-570.0
 21
-59.58
 31
0.0
  0
LINE
  5
4C6
330
1A
100
AcDbEntity
  8
GUIDE
100
AcDbLine
 10
-549.0
 20
-67.09999999999999
 30
0.0
 11
-570.0
 21
-67.09999999999999
 31
0.0
  0
LINE
  5
4C7
330
1A
100
AcDbEntity
  8
GUIDE
100
AcDbLine
 10
-566.0
 20
-44.5
 30
0.0
 11
483.0
 21
-44.5
 31
0.0
  0
LINE
  5
4C8
330
1A
100
AcDbEntity
  8
GUIDE
100
AcDbLine
 10
-562.5
 20
-44.5
 30
0.0
 11
-562.5
 21
-59.58
 31
0.0
  0
LINE
  5
4C9
330
1A
100
AcDbEntity
  8
GUIDE
100
AcDbLine
 10
-556.5
 20
-44.5
 30
0.0
 11
-556.5
 21
-59.58
 31
0.0
  0
LINE
  5
4CA
330
1A
100
AcDbEntity
  8
GUIDE
100
AcDbLine
 10
-566.0
 20
-34.5
 30
0.0
 11
483.0
 21
-34.5
 31
0.0
  0
LINE
  5
4CB
330
1A
100
AcDbEntity
  8
GUIDE
100
AcDbLine
 10
483.0
 20
-34.5
 30
0.0
 11
483.0
 21
-48.26
 31
0.0
  0
LINE
  5
4CC
330
1A
100
AcDbEntity
  8
GUIDE
100
AcDbLine
 10
-566.0
 20
-34.5
 30
0.0
 11
-566.0
 21
-59.58
 31
0.0
  0
LINE
  5
4CD
330
1A
100
AcDbEntity
  8
GUIDE
100
AcDbLine
 10
-566.0
 20
-36.9
 30
0.0
 11
483.0
 21
-36.9
 31
0.0
  0
LINE
  5
4CE
330
1A
100
AcDbEntity
  8
GUIDE
100
AcDbLine
 10
-566.0
 20
-78.09999999999999
 30
0.0
 11
483.0
 21
-78.09999999999999
 31
0.0
  0
LINE
  5
4CF
330
1A
100
AcDbEntity
  8
GUIDE
100
AcDbLine
 10
522.367874
 20
-44.5
 30
0.0
 11
525.367874
 21
-41.5
 31
0.0
  0
LINE
  5
4D0
330
1A
100
AcDbEntity
  8
GUIDE
100
AcDbLine
 10
525.367874
 20
-47.5
 30
0.0
 11
528.367874
 21
-44.5
 31
0.0
  0
LINE
  5
4D1
330
1A
100
AcDbEntity
  8
GUIDE
100
AcDbLine
 10
528.367874
 20
-70.5
 30
0.0
 11
525.367874
 21
-67.5
 31
0.0
  0
LINE
  5
4D2
330
1A
100
AcDbEntity
  8
GUIDE
100
AcDbLine
 10
522.367874
 20
-70.5
 30
0.0
 11
525.367874
 21
-73.5
 31
0.0
  0
LINE
  5
4D3
330
1A
100
AcDbEntity
  8
GUIDE
100
AcDbLine
 10
549.367874
 20
-67.09999999999999
 30
0.0
 11
556.867874
 21
-67.09999999999999
 31
0.0
  0
LINE
  5
4D4
330
1A
100
AcDbEntity
  8
GUIDE
100
AcDbLine
 10
549.367874
 20
-59.58
 30
0.0
 11
556.867874
 21
-59.58
 31
0.0
  0
LINE
  5
4D5
330
1A
100
AcDbEntity
  8
GUIDE
100
AcDbLine
 10
535.867874
 20
-59.58
 30
0.0
 11
543.367874
 21
-59.58
 31
0.0
  0
LINE
  5
4D6
330
1A
100
AcDbEntity
  8
GUIDE
100
AcDbLine
 10
535.867874
 20
-67.09999999999999
 30
0.0
 11
543.367874
 21
-67.09999999999999
 31
0.0
  0
LINE
  5
4D7
330
1A
100
AcDbEntity
  8
GUIDE
100
AcDbLine
 10
556.867874
 20
-48.26
 30
0.0
 11
556.867874
 21
-55.78
 31
0.0
  0
LINE
  5
4D8
330
1A
100
AcDbEntity
  8
GUIDE
100
AcDbLine
 10
535.867874
 20
-48.26
 30
0.0
 11
535.867874
 21
-55.78
 31
0.0
  0
LINE
  5
4D9
330
1A
100
AcDbEntity
  8
GUIDE
100
AcDbLine
 10
556.867874
 20
-48.26
 30
0.0
 11
535.867874
 21
-48.26
 31
0.0
  0
LINE
  5
4DA
330
1A
100
AcDbEntity
  8
GUIDE
100
AcDbLine
 10
556.867874
 20
-55.78
 30
0.0
 11
535.867874
 21
-55.78
 31
0.0
  0
LINE
  5
4DB
330
1A
100
AcDbEntity
  8
GUIDE
100
AcDbLine
 10
549.367874
 20
-70.5
 30
0.0
 11
549.367874
 21
-55.78
 31
0.0
  0
LINE
  5
4DC
330
1A
100
AcDbEntity
  8
GUIDE
100
AcDbLine
 10
543.367874
 20
-70.5
 30
0.0
 11
543.367874
 21
-55.78
 31
0.0
  0
LINE
  5
4DD
330
1A
100
AcDbEntity
  8
GUIDE
100
AcDbLine
 10
543.367874
 20
-48.26
 30
0.0
 11
543.367874
 21
-44.5
 31
0.0
  0
LINE
  5
4DE
330
1A
100
AcDbEntity
  8
GUIDE
100
AcDbLine
 10
549.367874
 20
-48.26
 30
0.0
 11
549.367874
 21
-44.5
 31
0.0
  0
LINE
  5
4DF
330
1A
100
AcDbEntity
  8
GUIDE
100
AcDbLine
 10
535.867874
 20
-67.09999999999999
 30
0.0
 11
535.867874
 21
-59.58
 31
0.0
  0
LINE
  5
4E0
330
1A
100
AcDbEntity
  8
GUIDE
100
AcDbLine
 10
556.867874
 20
-59.58
 30
0.0
 11
556.867874
 21
-67.09999999999999
 31
0.0
  0
LINE
  5
4E1
330
1A
100
AcDbEntity
  8
GUIDE
100
AcDbLine
 10
532.367874
 20
-73.5
 30
0.0
 11
532.367874
 21
-80.5
 31
0.0
  0
LINE
  5
4E2
330
1A
100
AcDbEntity
  8
GUIDE
100
AcDbLine
 10
543.367874
 20
-70.5
 30
0.0
 11
543.367874
 21
-73.5
 31
0.0
  0
LINE
  5
4E3
330
1A
100
AcDbEntity
  8
GUIDE
100
AcDbLine
 10
543.367874
 20
-41.5
 30
0.0
 11
543.367874
 21
-44.5
 31
0.0
  0
LINE
  5
4E4
330
1A
100
AcDbEntity
  8
GUIDE
100
AcDbLine
 10
543.367874
 20
-73.5
 30
0.0
 11
525.367874
 21
-73.5
 31
0.0
  0
LINE
  5
4E5
330
1A
100
AcDbEntity
  8
GUIDE
100
AcDbLine
 10
525.367874
 20
-47.5
 30
0.0
 11
525.367874
 21
-67.5
 31
0.0
  0
LINE
  5
4E6
330
1A
100
AcDbEntity
  8
GUIDE
100
AcDbLine
 10
543.367874
 20
-41.5
 30
0.0
 11
525.367874
 21
-41.5
 31
0.0
  0
LINE
  5
4E7
330
1A
100
AcDbEntity
  8
GUIDE
100
AcDbLine
 10
552.867874
 20
-70.5
 30
0.0
 11
552.867874
 21
-78.09999999999999
 31
0.0
  0
LINE
  5
4E8
330
1A
100
AcDbEntity
  8
GUIDE
100
AcDbLine
 10
552.867874
 20
-36.9
 30
0.0
 11
552.867874
 21
-44.5
 31
0.0
  0
LINE
  5
4E9
330
1A
100
AcDbEntity
  8
GUIDE
100
AcDbLine
 10
552.867874
 20
-70.5
 30
0.0
 11
528.367874
 21
-70.5
 31
0.0
  0
LINE
  5
4EA
330
1A
100
AcDbEntity
  8
GUIDE
100
AcDbLine
 10
552.867874
 20
-44.5
 30
0.0
 11
528.367874
 21
-44.5
 31
0.0
  0
LINE
  5
4EB
330
1A
100
AcDbEntity
  8
GUIDE
100
AcDbLine
 10
548.867874
 20
-80.5
 30
0.0
 11
532.367874
 21
-80.5
 31
0.0
  0
LINE
  5
4EC
330
1A
100
AcDbEntity
  8
GUIDE
100
AcDbLine
 10
548.867874
 20
-34.5
 30
0.0
 11
532.367874
 21
-34.5
 31
0.0
  0
LINE
  5
4ED
330
1A
100
AcDbEntity
  8
GUIDE
100
AcDbLine
 10
532.367874
 20
-34.5
 30
0.0
 11
532.367874
 21
-41.5
 31
0.0
  0
LINE
  5
4EE
330
1A
100
AcDbEntity
  8
GUIDE
100
AcDbLine
 10
522.367874
 20
-44.5
 30
0.0
 11
522.367874
 21
-70.5
 31
0.0
  0
POLYLINE
  5
4EF
330
1A
100
AcDbEntity
  8
0
100
AcDb2dPolyline
 66
     1
 10
0.0
 20
0.0
 30
0.0
  0
VERTEX
  5
544
330
4EF
100
AcDbEntity
  8
0
100
AcDbVertex
100
AcDb2dVertex
 10
512.367874
 20
-31.0
 30
0.0
  0
VERTEX
  5
545
330
4EF
100
AcDbEntity
  8
0
100
AcDbVertex
100
AcDb2dVertex
 10
512.367874
 20
-31.0
 30
0.0
  0
SEQEND
  5
543
330
4EF
100
AcDbEntity
  8
0
  0
POLYLINE
  5
4F2
330
1A
100
AcDbEntity
  8
GUIDE
100
AcDb2dPolyline
 66
     1
 10
0.0
 20
0.0
 30
0.0
  0
VERTEX
  5
547
330
4F2
100
AcDbEntity
  8
GUIDE
100
AcDbVertex
100
AcDb2dVertex
 10
552.867874
 20
-36.9
 30
0.0
  0
VERTEX
  5
548
330
4F2
100
AcDbEntity
  8
GUIDE
100
AcDbVertex
100
AcDb2dVertex
 10
548.867874
 20
-36.9
 30
0.0
  0
VERTEX
  5
549
330
4F2
100
AcDbEntity
  8
GUIDE
100
AcDbVertex
100
AcDb2dVertex
 10
548.867874
 20
-34.5
 30
0.0
  0
SEQEND
  5
546
330
4F2
100
AcDbEntity
  8
GUIDE
  0
POLYLINE
  5
4F7
330
1A
100
AcDbEntity
  8
GUIDE
100
AcDb2dPolyline
 66
     1
 10
0.0
 20
0.0
 30
0.0
  0
VERTEX
  5
54B
330
4F7
100
AcDbEntity
  8
GUIDE
100
AcDbVertex
100
AcDb2dVertex
 10
548.867874
 20
-78.09999999999999
 30
0.0
  0
VERTEX
  5
54C
330
4F7
100
AcDbEntity
  8
GUIDE
100
AcDbVertex
100
AcDb2dVertex
 10
552.867874
 20
-78.09999999999999
 30
0.0
  0
SEQEND
  5
54A
330
4F7
100
AcDbEntity
  8
GUIDE
  0
POLYLINE
  5
4FB
330
1A
100
AcDbEntity
  8
GUIDE
100
AcDb2dPolyline
 66
     1
 10
0.0
 20
0.0
 30
0.0
  0
VERTEX
  5
54E
330
4FB
100
AcDbEntity
  8
GUIDE
100
AcDbVertex
100
AcDb2dVertex
 10
548.867874
 20
-80.5
 30
0.0
  0
VERTEX
  5
54F
330
4FB
100
AcDbEntity
  8
GUIDE
100
AcDbVertex
100
AcDb2dVertex
 10
548.867874
 20
-78.09999999999999
 30
0.0
  0
SEQEND
  5
54D
330
4FB
100
AcDbEntity
  8
GUIDE
  0
ENDSEC
  0
SECTION
  2
OBJECTS
  0
DICTIONARY
  5
C
330
0
100
AcDbDictionary
  3
ACAD_GROUP
350
D
  3
ACAD_LAYOUT
350
500
  3
ACAD_MLINESTYLE
350
E
1001
ACAD
1000
TREAT_AS_HARD
1070
     0
  0
DICTIONARY
  5
550
330
4FF
100
AcDbDictionary
  3
ACAD_XREC_ROUNDTRIP
360
551
  0
DICTIONARY
  5
D
102
{ACAD_REACTORS
330
C
102
}
330
C
100
AcDbDictionary
1001
ACAD
1000
TREAT_AS_HARD
1070
     0
  0
DICTIONARY
  5
500
102
{ACAD_REACTORS
330
C
102
}
330
C
100
AcDbDictionary
1001
ACAD
1000
TREAT_AS_HARD
1070
     0
  0
DICTIONARY
  5
E
102
{ACAD_REACTORS
330
C
102
}
330
C
100
AcDbDictionary
  3
STANDARD
350
13
1001
ACAD
1000
TREAT_AS_HARD
1070
     0
  0
XRECORD
  5
551
102
{ACAD_REACTORS
330
550
102
}
330
550
100
AcDbXrecord
102
UCS
 74
     0
 71
     1
 10
0.0
 20
0.0
 30
0.0
 10
1.0
 20
0.0
 30
0.0
 10
0.0
 20
1.0
 30
0.0
146
0.0
 79
     0
102
VIEW
281
     0
  0
MLINESTYLE
  5
13
102
{ACAD_REACTORS
330
E
102
}
330
E
100
AcDbMlineStyle
  2
STANDARD
 70
     0
  3

 62
     0
 51
90.0
 52
90.0
 71
     2
 49
0.5
 62
   256
  6
BYLAYER
 49
-0.5
 62
   256
  6
BYLAYER
  0
ENDSEC
  0
EOF
